999
DXF file: 2470-5703_front.dxf
999
Pro/ENGINEER 2009300 by Parametric Technology Corporation
  0
SECTION
  2
HEADER
  9
$ACADVER
  1
AC1021
  9
$DWGCODEPAGE
  3
ANSI_1252
  9
$EXTMAX
 10
11.0
 20
8.5
 30
0.0
  9
$EXTMIN
 10
0.0
 20
0.0
 30
0.0
  9
$LIMMIN
 10
0.0
 20
0.0
  9
$LIMMAX
 10
11.0
 20
8.5
  9
$VIEWCTR
 10
5.5
 20
4.25
  9
$VIEWSIZE
 40
8.5
  9
$CLAYER
  8
0
  9
$LTSCALE
 40
0.605
  9
$CELTYPE
  6
BYLAYER
  9
$DIMSCALE
 40
1.0
  9
$DIMASZ
 40
0.1
  9
$DIMEXO
 40
0.06875
  9
$DIMDLI
 40
0.418
  9
$DIMEXE
 40
0.198
  9
$DIMCEN
 40
0.099
  9
$DIMLFAC
 40
1.0
  9
$DIMBLK
  1
_FILLED
  9
$DIMTXT
 40
0.08
  9
$DIMTOL
 70
1
  9
$DIMLIM
 70
0
  9
$DIMTFAC
 40
1.0
  9
$DIMTP
 40
0.001
  9
$DIMTM
 40
0.001
  9
$PDMODE
 70
3
  9
$PDSIZE
 40
0.06
  9
$HANDSEED
  5
468
  9
$TILEMODE
 70
1
  9
$MEASUREMENT
 70
0
  9
$INSUNITS
 70
1
  0
ENDSEC
  0
SECTION
  2
CLASSES
  0
CLASS
  1
ACDBDICTIONARYWDFLT
  2
AcDbDictionaryWithDefault
  3
AutoCAD 2000
 90
0
 91
1
280
0
281
0
  0
CLASS
  1
ACDBPLACEHOLDER
  2
AcDbPlaceHolder
  3
AutoCAD 2000
 90
0
 91
1
280
0
281
0
  0
CLASS
  1
LAYOUT
  2
AcDbLayout
  3
AutoCAD 2000
 90
0
 91
0
280
0
281
0
  0
ENDSEC
  0
SECTION
  2
TABLES
  0
TABLE
  2
VPORT
  5
8
100
AcDbSymbolTable
 70
2
  0
VPORT
  5
1F4
100
AcDbSymbolTableRecord
100
AcDbViewportTableRecord
  2
*ACTIVE
 70
0
 10
0.0
 20
0.0
 11
1.0
 21
1.0
 12
5.5
 22
4.25
 13
0.0
 23
0.0
 14
1.0
 24
1.0
 15
0.0
 25
0.0
 16
0.0
 26
0.0
 36
1.0
 17
0.0
 27
0.0
 37
0.0
 40
8.5
 41
1.2941176471
 42
50.0
 43
0.0
 44
0.0
 50
0.0
 51
0.0
 71
0
 72
100
 73
1
 74
1
 75
0
 76
0
 77
0
 78
0
  0
ENDTAB
  0
TABLE
  2
LTYPE
  5
5
100
AcDbSymbolTable
 70
6
  0
LTYPE
  5
14
100
AcDbSymbolTableRecord
100
AcDbLinetypeTableRecord
  2
BYBLOCK
 70
0
  3

 72
65
 73
0
 40
0.0
  0
LTYPE
  5
15
100
AcDbSymbolTableRecord
100
AcDbLinetypeTableRecord
  2
BYLAYER
 70
0
  3

 72
65
 73
0
 40
0.0
  0
LTYPE
  5
16
100
AcDbSymbolTableRecord
100
AcDbLinetypeTableRecord
  2
CONTINUOUS
 70
64
  3
Solid line
 72
65
 73
0
 40
0.0
  0
LTYPE
  5
1F5
100
AcDbSymbolTableRecord
100
AcDbLinetypeTableRecord
  2
CENTER
 70
64
  3
____ _ ____ _ ____ _ ____ _ ____ _ ____ _ ____
 72
65
 73
4
 40
0.6
 49
0.375
 74
0
 49
-0.075
 74
0
 49
0.075
 74
0
 49
-0.075
 74
0
  0
LTYPE
  5
1F6
100
AcDbSymbolTableRecord
100
AcDbLinetypeTableRecord
  2
HIDDEN
 70
64
  3
- - - - - - - - - - - - - - - - - - - -
 72
65
 73
2
 40
0.2
 49
0.1
 74
0
 49
-0.1
 74
0
  0
LTYPE
  5
1F7
100
AcDbSymbolTableRecord
100
AcDbLinetypeTableRecord
  2
PHANTOM
 70
64
  3
_____ _ _ _____ _ _ _____ _ _ _____
 72
65
 73
6
 40
0.8
 49
0.45
 74
0
 49
-0.05
 74
0
 49
0.1
 74
0
 49
-0.05
 74
0
 49
0.1
 74
0
 49
-0.05
 74
0
  0
LTYPE
  5
1F8
100
AcDbSymbolTableRecord
100
AcDbLinetypeTableRecord
  2
DOT
 70
64
  3
. . . . . . . . . . . . . . . . . . . .
 72
65
 73
2
 40
0.2
 49
0.1
 74
0
 49
-0.1
 74
0
  0
LTYPE
  5
1F9
100
AcDbSymbolTableRecord
100
AcDbLinetypeTableRecord
  2
DASHED
 70
64
  3
- - - - - - - - - - - - - - - - - - - -
 72
65
 73
2
 40
0.2
 49
0.1
 74
0
 49
-0.1
 74
0
  0
ENDTAB
  0
TABLE
  2
LAYER
  5
2
100
AcDbSymbolTable
 70
36
  0
LAYER
  5
10
100
AcDbSymbolTableRecord
100
AcDbLayerTableRecord
  2
0
 70
0
 62
7
  6
CONTINUOUS
370
-3
390
F
  0
LAYER
  5
1FA
100
AcDbSymbolTableRecord
100
AcDbLayerTableRecord
  2
DEFAULT_1
 70
0
 62
7
  6
CENTER
370
-3
390
F
  0
LAYER
  5
1FB
100
AcDbSymbolTableRecord
100
AcDbLayerTableRecord
  2
DEFAULT_2
 70
0
 62
7
  6
HIDDEN
370
-3
390
F
  0
LAYER
  5
1FC
100
AcDbSymbolTableRecord
100
AcDbLayerTableRecord
  2
DEFAULT_3
 70
0
 62
7
  6
PHANTOM
370
-3
390
F
  0
LAYER
  5
1FD
100
AcDbSymbolTableRecord
100
AcDbLayerTableRecord
  2
1-078_ASSY_PLANES
 70
0
 62
7
  6
CONTINUOUS
370
-3
390
F
  0
LAYER
  5
1FE
100
AcDbSymbolTableRecord
100
AcDbLayerTableRecord
  2
129_ASSY_DATUMS
 70
0
 62
7
  6
CONTINUOUS
370
-3
390
F
  0
LAYER
  5
1FF
100
AcDbSymbolTableRecord
100
AcDbLayerTableRecord
  2
2-119B_ASSY_PLANES
 70
0
 62
7
  6
CONTINUOUS
370
-3
390
F
  0
LAYER
  5
200
100
AcDbSymbolTableRecord
100
AcDbLayerTableRecord
  2
2-124B_ASSY_PLANES
 70
0
 62
7
  6
CONTINUOUS
370
-3
390
F
  0
LAYER
  5
201
100
AcDbSymbolTableRecord
100
AcDbLayerTableRecord
  2
ALL_ASSEMBLY_MEMBERS
 70
0
 62
7
  6
CONTINUOUS
370
-3
390
F
  0
LAYER
  5
202
100
AcDbSymbolTableRecord
100
AcDbLayerTableRecord
  2
ALL_FEATURES
 70
0
 62
7
  6
CONTINUOUS
370
-3
390
F
  0
LAYER
  5
203
100
AcDbSymbolTableRecord
100
AcDbLayerTableRecord
  2
AXES_FEATURES
 70
0
 62
7
  6
CONTINUOUS
370
-3
390
F
  0
LAYER
  5
204
100
AcDbSymbolTableRecord
100
AcDbLayerTableRecord
  2
CHAMFER_FEATURES
 70
0
 62
7
  6
CONTINUOUS
370
-3
390
F
  0
LAYER
  5
205
100
AcDbSymbolTableRecord
100
AcDbLayerTableRecord
  2
COSMETIC
 70
0
 62
7
  6
CONTINUOUS
370
-3
390
F
  0
LAYER
  5
206
100
AcDbSymbolTableRecord
100
AcDbLayerTableRecord
  2
CURVES
 70
0
 62
7
  6
CONTINUOUS
370
-3
390
F
  0
LAYER
  5
207
100
AcDbSymbolTableRecord
100
AcDbLayerTableRecord
  2
CUT_FEATURES
 70
0
 62
7
  6
CONTINUOUS
370
-3
390
F
  0
LAYER
  5
208
100
AcDbSymbolTableRecord
100
AcDbLayerTableRecord
  2
DATUM_CURVES
 70
0
 62
7
  6
CONTINUOUS
370
-3
390
F
  0
LAYER
  5
209
100
AcDbSymbolTableRecord
100
AcDbLayerTableRecord
  2
DATUM_PLANES
 70
0
 62
7
  6
CONTINUOUS
370
-3
390
F
  0
LAYER
  5
20A
100
AcDbSymbolTableRecord
100
AcDbLayerTableRecord
  2
DATUM_POINTS
 70
0
 62
7
  6
CONTINUOUS
370
-3
390
F
  0
LAYER
  5
20B
100
AcDbSymbolTableRecord
100
AcDbLayerTableRecord
  2
DEFAULT_COORDINATE_SYSTEM
 70
0
 62
7
  6
CONTINUOUS
370
-3
390
F
  0
LAYER
  5
20C
100
AcDbSymbolTableRecord
100
AcDbLayerTableRecord
  2
DEFAULT_DATUM_AXES
 70
0
 62
7
  6
CONTINUOUS
370
-3
390
F
  0
LAYER
  5
20D
100
AcDbSymbolTableRecord
100
AcDbLayerTableRecord
  2
DEFAULT_DATUM_CURVES
 70
0
 62
7
  6
CONTINUOUS
370
-3
390
F
  0
LAYER
  5
20E
100
AcDbSymbolTableRecord
100
AcDbLayerTableRecord
  2
DEFAULT_DATUM_PLANES
 70
0
 62
7
  6
CONTINUOUS
370
-3
390
F
  0
LAYER
  5
20F
100
AcDbSymbolTableRecord
100
AcDbLayerTableRecord
  2
DEFAULT_SURFACES
 70
0
 62
7
  6
CONTINUOUS
370
-3
390
F
  0
LAYER
  5
210
100
AcDbSymbolTableRecord
100
AcDbLayerTableRecord
  2
DIMENSIONS
 70
0
 62
7
  6
CONTINUOUS
370
-3
390
F
  0
LAYER
  5
211
100
AcDbSymbolTableRecord
100
AcDbLayerTableRecord
  2
DTM_PLANES
 70
0
 62
7
  6
CONTINUOUS
370
-3
390
F
  0
LAYER
  5
212
100
AcDbSymbolTableRecord
100
AcDbLayerTableRecord
  2
EXT_SURFACE
 70
0
 62
7
  6
CONTINUOUS
370
-3
390
F
  0
LAYER
  5
213
100
AcDbSymbolTableRecord
100
AcDbLayerTableRecord
  2
GTOL_DTMS
 70
0
 62
7
  6
CONTINUOUS
370
-3
390
F
  0
LAYER
  5
214
100
AcDbSymbolTableRecord
100
AcDbLayerTableRecord
  2
IMPORT
 70
0
 62
7
  6
CONTINUOUS
370
-3
390
F
  0
LAYER
  5
215
100
AcDbSymbolTableRecord
100
AcDbLayerTableRecord
  2
NOTES
 70
0
 62
7
  6
CONTINUOUS
370
-3
390
F
  0
LAYER
  5
216
100
AcDbSymbolTableRecord
100
AcDbLayerTableRecord
  2
PART_REFERENCE_DIMENSIONS
 70
0
 62
7
  6
CONTINUOUS
370
-3
390
F
  0
LAYER
  5
217
100
AcDbSymbolTableRecord
100
AcDbLayerTableRecord
  2
POINTS
 70
0
 62
7
  6
CONTINUOUS
370
-3
390
F
  0
LAYER
  5
218
100
AcDbSymbolTableRecord
100
AcDbLayerTableRecord
  2
PROTRUSION_FEATURES
 70
0
 62
7
  6
CONTINUOUS
370
-3
390
F
  0
LAYER
  5
219
100
AcDbSymbolTableRecord
100
AcDbLayerTableRecord
  2
QUILT
 70
0
 62
7
  6
CONTINUOUS
370
-3
390
F
  0
LAYER
  5
21A
100
AcDbSymbolTableRecord
100
AcDbLayerTableRecord
  2
QUILTS
 70
0
 62
7
  6
CONTINUOUS
370
-3
390
F
  0
LAYER
  5
21B
100
AcDbSymbolTableRecord
100
AcDbLayerTableRecord
  2
REFERENCE_DIMENSIONS
 70
0
 62
7
  6
CONTINUOUS
370
-3
390
F
  0
LAYER
  5
21C
100
AcDbSymbolTableRecord
100
AcDbLayerTableRecord
  2
ROUND_FEATURES
 70
0
 62
7
  6
CONTINUOUS
370
-3
390
F
  0
LAYER
  5
21D
100
AcDbSymbolTableRecord
100
AcDbLayerTableRecord
  2
SIZE_REF
 70
0
 62
7
  6
CONTINUOUS
370
-3
390
F
  0
LAYER
  5
21E
100
AcDbSymbolTableRecord
100
AcDbLayerTableRecord
  2
START_DTMS
 70
0
 62
7
  6
CONTINUOUS
370
-3
390
F
  0
LAYER
  5
21F
100
AcDbSymbolTableRecord
100
AcDbLayerTableRecord
  2
START_PARAMS_NOTE
 70
0
 62
7
  6
CONTINUOUS
370
-3
390
F
  0
LAYER
  5
220
100
AcDbSymbolTableRecord
100
AcDbLayerTableRecord
  2
SURFS
 70
0
 62
7
  6
CONTINUOUS
370
-3
390
F
  0
LAYER
  5
221
100
AcDbSymbolTableRecord
100
AcDbLayerTableRecord
  2
WETTED_SURFACE
 70
0
 62
7
  6
CONTINUOUS
370
-3
390
F
  0
LAYER
  5
222
100
AcDbSymbolTableRecord
100
AcDbLayerTableRecord
  2
WETTED_SURFACE_AREA
 70
0
 62
7
  6
CONTINUOUS
370
-3
390
F
  0
LAYER
  5
223
100
AcDbSymbolTableRecord
100
AcDbLayerTableRecord
  2
XSEC_DATUMS
 70
0
 62
7
  6
CONTINUOUS
370
-3
390
F
  0
ENDTAB
  0
TABLE
  2
STYLE
  5
3
100
AcDbSymbolTable
 70
1
  0
STYLE
  5
11
100
AcDbSymbolTableRecord
100
AcDbTextStyleTableRecord
  2
STANDARD
 70
0
 40
0.0
 41
0.8
 50
0.0
 71
0
 42
0.2
  3
txt
  4

  0
STYLE
  5
224
100
AcDbSymbolTableRecord
100
AcDbTextStyleTableRecord
  2
TEXTSTYLE_1
 70
0
 40
0.0
 41
0.8
 50
0.0
 71
0
 42
0.2
  3
gdt
  4

  0
ENDTAB
  0
TABLE
  2
VIEW
  5
6
100
AcDbSymbolTable
 70
0
  0
ENDTAB
  0
TABLE
  2
UCS
  5
7
100
AcDbSymbolTable
 70
0
  0
ENDTAB
  0
TABLE
  2
APPID
  5
9
100
AcDbSymbolTable
 70
1
  0
APPID
  5
225
100
AcDbSymbolTableRecord
100
AcDbRegAppTableRecord
  2
ACAD
 70
0
  0
ENDTAB
  0
TABLE
  2
BLOCK_RECORD
  5
1
100
AcDbSymbolTable
 70
0
  0
BLOCK_RECORD
  5
226
100
AcDbSymbolTableRecord
100
AcDbBlockTableRecord
  2
*Model_Space
  0
BLOCK_RECORD
  5
227
100
AcDbSymbolTableRecord
100
AcDbBlockTableRecord
  2
*Paper_Space
  0
ENDTAB
  0
TABLE
  2
DIMSTYLE
  5
A
100
AcDbSymbolTable
 70
1
100
AcDbDimStyleTable
 71
0
  0
DIMSTYLE
105
228
100
AcDbSymbolTableRecord
100
AcDbDimStyleTableRecord
  2
STANDARD
 70
0
  3

  4

 40
1.0
 41
0.1
 42
0.0625
 43
0.38
 44
0.18
 45
0.0
 46
0.0
 47
0.001
 48
0.001
140
0.08
141
0.09
142
0.0
143
25.4
144
1.0
145
0.0
146
1.0
147
0.09
 71
1.0
 72
0.0
 73
1
 74
1
 75
0
 76
0
 77
0
 78
4
170
0
171
2
172
0
173
0
174
0
175
0
176
0
177
0
178
0
270
2
271
3
272
3
273
2
274
2
275
0
280
0
281
0
282
0
283
1
284
4
285
0
286
0
287
3
288
0
340
11
  0
ENDTAB
  0
ENDSEC
  0
SECTION
  2
BLOCKS
  0
BLOCK
  5
20
100
AcDbEntity
  8
0
100
AcDbBlockBegin
  2
*Model_Space
 70
0
 10
0.0
 20
0.0
 30
0.0
  3
*Model_Space
  1

  0
ENDBLK
  5
21
100
AcDbEntity
  8
0
100
AcDbBlockEnd
  0
BLOCK
  5
1C
100
AcDbEntity
  8
0
100
AcDbBlockBegin
  2
*Paper_Space
 70
0
 10
0.0
 20
0.0
 30
0.0
  3
*Paper_Space
  1

  0
ENDBLK
  5
1D
100
AcDbEntity
  8
0
100
AcDbBlockEnd
  0
ENDSEC
  0
SECTION
  2
ENTITIES
  0
LINE
  5
229
100
AcDbEntity
  8
0
100
AcDbLine
 62
7
  6
BYLAYER
 10
0.0
 20
0.0
 11
0.0
 21
8.5
  0
LINE
  5
22A
100
AcDbEntity
  8
0
100
AcDbLine
 62
7
  6
BYLAYER
 10
0.0
 20
0.0
 11
11.0
 21
0.0
  0
LINE
  5
22B
100
AcDbEntity
  8
0
100
AcDbLine
 62
7
  6
BYLAYER
 10
0.0
 20
8.5
 11
11.0
 21
8.5
  0
LINE
  5
22C
100
AcDbEntity
  8
0
100
AcDbLine
 62
7
  6
BYLAYER
 10
11.0
 20
0.0
 11
11.0
 21
8.5
  0
LWPOLYLINE
  5
22D
100
AcDbEntity
  8
ALL_ASSEMBLY_MEMBERS
100
AcDbPolyline
 62
7
  6
BYLAYER
 90
13
 70
0
 10
4.8717438985
 20
7.1055398751
 10
4.8871781595
 20
7.1106613738
 10
4.9025545377
 20
7.1152776794
 10
4.9178898799
 20
7.1194106979
 10
4.9332093967
 20
7.1230803249
 10
4.9485329449
 20
7.126301159
 10
4.96387071
 20
7.129082439
 10
4.9792273441
 20
7.1314301135
 10
4.9946093436
 20
7.1333485668
 10
5.0100221854
 20
7.1348404313
 10
5.025459346
 20
7.1359061143
 10
5.040914583
 20
7.1365456217
 10
5.0563578452
 20
7.1367585214
  0
LINE
  5
22E
100
AcDbEntity
  8
ALL_ASSEMBLY_MEMBERS
100
AcDbLine
 62
7
  6
BYLAYER
 10
4.7605130832
 20
7.0525355661
 11
4.7768669397
 21
7.0622855067
  0
LINE
  5
22F
100
AcDbEntity
  8
ALL_ASSEMBLY_MEMBERS
100
AcDbLine
 62
7
  6
BYLAYER
 10
4.7768669397
 20
7.0622855067
 11
4.7930428093
 21
7.0712111299
  0
LWPOLYLINE
  5
230
100
AcDbEntity
  8
ALL_ASSEMBLY_MEMBERS
100
AcDbPolyline
 62
7
  6
BYLAYER
 90
3
 70
0
 10
4.7930428093
 20
7.0712111299
 10
4.8090554308
 20
7.0793807607
 10
4.8249183702
 20
7.0868523277
  0
LINE
  5
231
100
AcDbEntity
  8
ALL_ASSEMBLY_MEMBERS
100
AcDbLine
 62
7
  6
BYLAYER
 10
4.8249183702
 20
7.0868523277
 11
4.8406395392
 21
7.0936730184
  0
LINE
  5
232
100
AcDbEntity
  8
ALL_ASSEMBLY_MEMBERS
100
AcDbLine
 62
7
  6
BYLAYER
 10
4.8406395392
 20
7.0936730184
 11
4.8562386505
 21
7.0998882466
  0
LINE
  5
233
100
AcDbEntity
  8
ALL_ASSEMBLY_MEMBERS
100
AcDbLine
 62
7
  6
BYLAYER
 10
4.8562386505
 20
7.0998882466
 11
4.8717438985
 21
7.1055398751
  0
LINE
  5
234
100
AcDbEntity
  8
ALL_ASSEMBLY_MEMBERS
100
AcDbLine
 62
7
  6
BYLAYER
 10
5.373250252
 20
7.0338160887
 11
5.3641957772
 21
7.0310478579
  0
LINE
  5
235
100
AcDbEntity
  8
ALL_ASSEMBLY_MEMBERS
100
AcDbLine
 62
7
  6
BYLAYER
 10
4.5400086186
 20
6.7869124992
 11
4.5309072105
 21
6.7843027124
  0
LINE
  5
236
100
AcDbEntity
  8
ALL_ASSEMBLY_MEMBERS
100
AcDbLine
 62
7
  6
BYLAYER
 10
4.6933798974
 20
7.0037291536
 11
4.7104135053
 21
7.0175924146
  0
LINE
  5
237
100
AcDbEntity
  8
ALL_ASSEMBLY_MEMBERS
100
AcDbLine
 62
7
  6
BYLAYER
 10
4.7104135053
 20
7.0175924146
 11
4.7272815519
 21
7.0302753824
  0
LINE
  5
238
100
AcDbEntity
  8
ALL_ASSEMBLY_MEMBERS
100
AcDbLine
 62
7
  6
BYLAYER
 10
4.7272815519
 20
7.0302753824
 11
4.7439808304
 21
7.0418904567
  0
LINE
  5
239
100
AcDbEntity
  8
ALL_ASSEMBLY_MEMBERS
100
AcDbLine
 62
7
  6
BYLAYER
 10
4.7439808304
 20
7.0418904567
 11
4.7605130832
 21
7.0525355661
  0
LINE
  5
23A
100
AcDbEntity
  8
ALL_ASSEMBLY_MEMBERS
100
AcDbLine
 62
7
  6
BYLAYER
 10
5.2671937062
 20
7.0892825647
 11
5.258912641
 21
7.0846922953
  0
LINE
  5
23B
100
AcDbEntity
  8
ALL_ASSEMBLY_MEMBERS
100
AcDbLine
 62
7
  6
BYLAYER
 10
4.5034945444
 20
6.6745337341
 11
4.4951346291
 21
6.6700886883
  0
LINE
  5
23C
100
AcDbEntity
  8
ALL_ASSEMBLY_MEMBERS
100
AcDbLine
 62
7
  6
BYLAYER
 10
5.294761285
 20
7.0775188196
 11
5.2862513325
 21
7.0733682385
  0
LINE
  5
23D
100
AcDbEntity
  8
ALL_ASSEMBLY_MEMBERS
100
AcDbLine
 62
7
  6
BYLAYER
 10
4.5103025536
 20
6.7033340862
 11
4.5018427659
 21
6.6993892224
  0
LINE
  5
23E
100
AcDbEntity
  8
ALL_ASSEMBLY_MEMBERS
100
AcDbLine
 62
7
  6
BYLAYER
 10
5.3216754166
 20
7.0643284207
 11
5.312959902
 21
7.0606289043
  0
LINE
  5
23F
100
AcDbEntity
  8
ALL_ASSEMBLY_MEMBERS
100
AcDbLine
 62
7
  6
BYLAYER
 10
4.5188068207
 20
6.7316799274
 11
4.5100280682
 21
6.7281330811
  0
LINE
  5
240
100
AcDbEntity
  8
ALL_ASSEMBLY_MEMBERS
100
AcDbLine
 62
7
  6
BYLAYER
 10
5.3477882767
 20
7.049791326
 11
5.3390168635
 21
7.0465987927
  0
LINE
  5
241
100
AcDbEntity
  8
ALL_ASSEMBLY_MEMBERS
100
AcDbLine
 62
7
  6
BYLAYER
 10
4.5286845618
 20
6.7595738076
 11
4.5197322126
 21
6.7564912666
  0
LINE
  5
242
100
AcDbEntity
  8
ALL_ASSEMBLY_MEMBERS
100
AcDbLine
 62
7
  6
BYLAYER
 10
4.6417473021
 20
6.9539757943
 11
4.6589910626
 21
6.972041931
  0
LINE
  5
243
100
AcDbEntity
  8
ALL_ASSEMBLY_MEMBERS
100
AcDbLine
 62
7
  6
BYLAYER
 10
4.6589910626
 20
6.972041931
 11
4.6762244896
 21
6.9885858176
  0
LINE
  5
244
100
AcDbEntity
  8
ALL_ASSEMBLY_MEMBERS
100
AcDbLine
 62
7
  6
BYLAYER
 10
4.6762244896
 20
6.9885858176
 11
4.6933798974
 21
7.0037291536
  0
LINE
  5
245
100
AcDbEntity
  8
ALL_ASSEMBLY_MEMBERS
100
AcDbLine
 62
7
  6
BYLAYER
 10
4.4910398087
 20
6.5570190118
 11
4.4838892871
 21
6.5510190118
  0
LINE
  5
246
100
AcDbEntity
  8
ALL_ASSEMBLY_MEMBERS
100
AcDbLine
 62
7
  6
BYLAYER
 10
5.1813336028
 20
7.1157115123
 11
5.1738725675
 21
7.1098823126
  0
LINE
  5
247
100
AcDbEntity
  8
ALL_ASSEMBLY_MEMBERS
100
AcDbLine
 62
7
  6
BYLAYER
 10
4.4919178563
 20
6.5866000582
 11
4.4843562239
 21
6.5809019594
  0
LINE
  5
248
100
AcDbEntity
  8
ALL_ASSEMBLY_MEMBERS
100
AcDbLine
 62
7
  6
BYLAYER
 10
5.2103191657
 20
7.1084282626
 11
5.2026729196
 21
7.1030743034
  0
LINE
  5
249
100
AcDbEntity
  8
ALL_ASSEMBLY_MEMBERS
100
AcDbLine
 62
7
  6
BYLAYER
 10
4.4942395541
 20
6.616100025
 11
4.4863900691
 21
6.6108054805
  0
LINE
  5
24A
100
AcDbEntity
  8
ALL_ASSEMBLY_MEMBERS
100
AcDbLine
 62
7
  6
BYLAYER
 10
5.239048241
 20
7.0995874124
 11
5.2310187608
 21
7.0945700363
  0
LINE
  5
24B
100
AcDbEntity
  8
ALL_ASSEMBLY_MEMBERS
100
AcDbLine
 62
7
  6
BYLAYER
 10
4.498101979
 20
6.6454380548
 11
4.4899861564
 21
6.6405615766
  0
LINE
  5
24C
100
AcDbEntity
  8
ALL_FEATURES
100
AcDbLine
 62
7
  6
BYLAYER
 10
5.9763578452
 20
2.3280190118
 11
4.1363578452
 21
2.3280190118
  0
LINE
  5
24D
100
AcDbEntity
  8
0
100
AcDbLine
 62
7
  6
BYLAYER
 10
3.9182399509
 20
2.3510190118
 11
6.1944757395
 21
2.3510190118
  0
LINE
  5
24E
100
AcDbEntity
  8
0
100
AcDbLine
 62
7
  6
BYLAYER
 10
6.2156009577
 20
2.3597181866
 11
3.8971147327
 21
2.3597181866
  0
LINE
  5
24F
100
AcDbEntity
  8
0
100
AcDbLine
 62
7
  6
BYLAYER
 10
6.2099967008
 20
2.3826963541
 11
3.9027189896
 21
2.3826963541
  0
LINE
  5
250
100
AcDbEntity
  8
ALL_ASSEMBLY_MEMBERS
100
AcDbLine
 62
7
  6
BYLAYER
 10
4.5938454219
 20
6.8935917476
 11
4.5971505161
 21
6.8981774587
  0
LINE
  5
251
100
AcDbEntity
  8
ALL_ASSEMBLY_MEMBERS
100
AcDbLine
 62
7
  6
BYLAYER
 10
4.6075552344
 20
6.9126136682
 11
4.608878296
 21
6.9144493733
  0
LINE
  5
252
100
AcDbEntity
  8
ALL_ASSEMBLY_MEMBERS
100
AcDbLine
 62
7
  6
BYLAYER
 10
4.608878296
 20
6.9144493733
 11
4.6248860313
 21
6.9346261041
  0
LINE
  5
253
100
AcDbEntity
  8
ALL_ASSEMBLY_MEMBERS
100
AcDbLine
 62
7
  6
BYLAYER
 10
4.6248860313
 20
6.9346261041
 11
4.6417473021
 21
6.9539757943
  0
LINE
  5
254
100
AcDbEntity
  8
ALL_ASSEMBLY_MEMBERS
100
AcDbLine
 62
7
  6
BYLAYER
 10
5.0923961814
 20
7.1283835963
 11
5.0859388916
 21
7.1214590007
  0
LINE
  5
255
100
AcDbEntity
  8
ALL_ASSEMBLY_MEMBERS
100
AcDbLine
 62
7
  6
BYLAYER
 10
4.4942395541
 20
6.4979379987
 11
4.4876623969
 21
6.4911271531
  0
LINE
  5
256
100
AcDbEntity
  8
ALL_ASSEMBLY_MEMBERS
100
AcDbLine
 62
7
  6
BYLAYER
 10
5.122249704
 20
7.1257144602
 11
5.1154388583
 21
7.119137303
  0
LINE
  5
257
100
AcDbEntity
  8
ALL_ASSEMBLY_MEMBERS
100
AcDbLine
 62
7
  6
BYLAYER
 10
4.4919178563
 20
6.5274379655
 11
4.4849932608
 21
6.5209806757
  0
LINE
  5
258
100
AcDbEntity
  8
ALL_ASSEMBLY_MEMBERS
100
AcDbLine
 62
7
  6
BYLAYER
 10
5.1519226216
 20
7.1214865694
 11
5.1447768881
 21
7.1152748781
  0
LINE
  5
259
100
AcDbEntity
  8
0
100
AcDbLine
 62
7
  6
BYLAYER
 10
6.1367026857
 20
2.4647772992
 11
3.9760130047
 21
2.4647772992
  0
LINE
  5
25A
100
AcDbEntity
  8
0
100
AcDbLine
 62
7
  6
BYLAYER
 10
6.1270540342
 20
2.5087202476
 11
3.9856616562
 21
2.5087202476
  0
LINE
  5
25B
100
AcDbEntity
  8
ALL_FEATURES
100
AcDbLine
 62
7
  6
BYLAYER
 10
6.1235510194
 20
2.5334066701
 11
3.989164671
 21
2.5334066701
  0
LINE
  5
25C
100
AcDbEntity
  8
ALL_ASSEMBLY_MEMBERS
100
AcDbLine
 62
7
  6
BYLAYER
 10
4.5750229476
 20
6.8639598736
 11
4.5798060749
 21
6.8720843099
  0
LINE
  5
25D
100
AcDbEntity
  8
ALL_ASSEMBLY_MEMBERS
100
AcDbLine
 62
7
  6
BYLAYER
 10
4.5798060749
 20
6.8720843099
 11
4.5800194398
 21
6.8724111721
  0
LINE
  5
25E
100
AcDbEntity
  8
ALL_ASSEMBLY_MEMBERS
100
AcDbLine
 62
7
  6
BYLAYER
 10
4.5906206612
 20
6.8886516075
 11
4.5938454219
 21
6.8935917476
  0
LINE
  5
25F
100
AcDbEntity
  8
ALL_ASSEMBLY_MEMBERS
100
AcDbLine
 62
7
  6
BYLAYER
 10
5.0324748976
 20
7.1290206332
 11
5.0267767988
 21
7.1214590007
  0
LINE
  5
260
100
AcDbEntity
  8
ALL_ASSEMBLY_MEMBERS
100
AcDbLine
 62
7
  6
BYLAYER
 10
4.5034945444
 20
6.4395042896
 11
4.4976653448
 21
6.4320432543
  0
LINE
  5
261
100
AcDbEntity
  8
ALL_ASSEMBLY_MEMBERS
100
AcDbLine
 62
7
  6
BYLAYER
 10
5.0623578452
 20
7.1294875699
 11
5.0563578452
 21
7.1223370484
  0
LINE
  5
262
100
AcDbEntity
  8
ALL_ASSEMBLY_MEMBERS
100
AcDbLine
 62
7
  6
BYLAYER
 10
4.498101979
 20
6.4685999689
 11
4.4918902877
 21
6.4614542355
  0
LINE
  5
263
100
AcDbEntity
  8
ALL_ASSEMBLY_MEMBERS
100
AcDbLine
 62
7
  6
BYLAYER
 10
4.7910402738
 20
6.049709603
 11
4.7997557884
 21
6.0534091194
  0
LINE
  5
264
100
AcDbEntity
  8
ALL_ASSEMBLY_MEMBERS
100
AcDbLine
 62
7
  6
BYLAYER
 10
5.5939088697
 20
6.3823580963
 11
5.6026876222
 21
6.3859049425
  0
LINE
  5
265
100
AcDbEntity
  8
ALL_ASSEMBLY_MEMBERS
100
AcDbLine
 62
7
  6
BYLAYER
 10
4.7649274137
 20
6.0642466977
 11
4.7736988269
 21
6.067439231
  0
LINE
  5
266
100
AcDbEntity
  8
ALL_ASSEMBLY_MEMBERS
100
AcDbLine
 62
7
  6
BYLAYER
 10
5.5840311286
 20
6.3544642161
 11
5.5929834778
 21
6.3575467571
  0
LINE
  5
267
100
AcDbEntity
  8
ALL_ASSEMBLY_MEMBERS
100
AcDbLine
 62
7
  6
BYLAYER
 10
4.7394654384
 20
6.080221935
 11
4.7485199132
 21
6.0829901658
  0
LINE
  5
268
100
AcDbEntity
  8
ALL_ASSEMBLY_MEMBERS
100
AcDbLine
 62
7
  6
BYLAYER
 10
5.5727070718
 20
6.3271255245
 11
5.5818084799
 21
6.3297353113
  0
LINE
  5
269
100
AcDbEntity
  8
ALL_FEATURES
100
AcDbLine
 62
7
  6
BYLAYER
 10
6.0491264078
 20
2.6563433789
 11
4.0635892826
 21
2.6563433789
  0
LINE
  5
26A
100
AcDbEntity
  8
ALL_FEATURES
100
AcDbLine
 62
7
  6
BYLAYER
 10
6.0263578452
 20
2.6710190118
 11
4.0863578452
 21
2.6710190118
  0
LINE
  5
26B
100
AcDbEntity
  8
0
100
AcDbLine
 62
7
  6
BYLAYER
 10
5.9836508664
 20
2.6859280126
 11
4.129064824
 21
2.6859280126
  0
LINE
  5
26C
100
AcDbEntity
  8
ALL_ASSEMBLY_MEMBERS
100
AcDbLine
 62
7
  6
BYLAYER
 10
4.5478481169
 20
6.8124898524
 11
4.5506759499
 21
6.8185024015
  0
LINE
  5
26D
100
AcDbEntity
  8
ALL_ASSEMBLY_MEMBERS
100
AcDbLine
 62
7
  6
BYLAYER
 10
4.5607940809
 20
6.8386228924
 11
4.5645639081
 21
6.8457613745
  0
LINE
  5
26E
100
AcDbEntity
  8
ALL_ASSEMBLY_MEMBERS
100
AcDbLine
 62
7
  6
BYLAYER
 10
4.5286845618
 20
6.3544642161
 11
4.5240942923
 21
6.3461831508
  0
LINE
  5
26F
100
AcDbEntity
  8
ALL_ASSEMBLY_MEMBERS
100
AcDbLine
 62
7
  6
BYLAYER
 10
4.9728152804
 20
7.1233907006
 11
4.9679388023
 21
7.1152748781
  0
LINE
  5
270
100
AcDbEntity
  8
ALL_ASSEMBLY_MEMBERS
100
AcDbLine
 62
7
  6
BYLAYER
 10
4.5188068207
 20
6.3823580963
 11
4.5137894446
 21
6.3743286161
  0
LINE
  5
271
100
AcDbEntity
  8
ALL_ASSEMBLY_MEMBERS
100
AcDbLine
 62
7
  6
BYLAYER
 10
5.0025713765
 20
7.1269867879
 11
4.9972768321
 21
7.119137303
  0
LINE
  5
272
100
AcDbEntity
  8
ALL_ASSEMBLY_MEMBERS
100
AcDbLine
 62
7
  6
BYLAYER
 10
4.5103025536
 20
6.4107039374
 11
4.5049485945
 21
6.4030576913
  0
LINE
  5
273
100
AcDbEntity
  8
ALL_ASSEMBLY_MEMBERS
100
AcDbLine
 62
7
  6
BYLAYER
 10
5.6184761363
 20
6.4979379987
 11
5.6263256213
 21
6.5032325432
  0
LINE
  5
274
100
AcDbEntity
  8
ALL_ASSEMBLY_MEMBERS
100
AcDbLine
 62
7
  6
BYLAYER
 10
4.8736674494
 20
6.0144506113
 11
4.8816969296
 21
6.0194679874
  0
LINE
  5
275
100
AcDbEntity
  8
ALL_ASSEMBLY_MEMBERS
100
AcDbLine
 62
7
  6
BYLAYER
 10
5.6146137114
 20
6.4685999689
 11
5.622729534
 21
6.4734764471
  0
LINE
  5
276
100
AcDbEntity
  8
ALL_ASSEMBLY_MEMBERS
100
AcDbLine
 62
7
  6
BYLAYER
 10
4.8455219842
 20
6.024755459
 11
4.8538030494
 21
6.0293457284
  0
LINE
  5
277
100
AcDbEntity
  8
ALL_ASSEMBLY_MEMBERS
100
AcDbLine
 62
7
  6
BYLAYER
 10
5.609221146
 20
6.4395042896
 11
5.6175810613
 21
6.4439493353
  0
LINE
  5
278
100
AcDbEntity
  8
ALL_ASSEMBLY_MEMBERS
100
AcDbLine
 62
7
  6
BYLAYER
 10
4.8179544054
 20
6.0365192041
 11
4.8264643579
 21
6.0406697852
  0
LINE
  5
279
100
AcDbEntity
  8
ALL_ASSEMBLY_MEMBERS
100
AcDbLine
 62
7
  6
BYLAYER
 10
5.6024131368
 20
6.4107039374
 11
5.6108729245
 21
6.4146488012
  0
LINE
  5
27A
100
AcDbEntity
  8
0
100
AcDbLine
 62
7
  6
BYLAYER
 10
5.7656186952
 20
2.9095619706
 11
4.3470969952
 21
2.9095619706
  0
LINE
  5
27B
100
AcDbEntity
  8
0
100
AcDbLine
 62
7
  6
BYLAYER
 10
5.7139611898
 20
3.0029641265
 11
4.3987545006
 21
3.0029641265
  0
LINE
  5
27C
100
AcDbEntity
  8
ALL_ASSEMBLY_MEMBERS
100
AcDbLine
 62
7
  6
BYLAYER
 10
4.5262309638
 20
6.7587289661
 11
4.5273847549
 21
6.7619187213
  0
LINE
  5
27D
100
AcDbEntity
  8
ALL_ASSEMBLY_MEMBERS
100
AcDbLine
 62
7
  6
BYLAYER
 10
4.5363320618
 20
6.7858582635
 11
4.5382585713
 21
6.7905006278
  0
LINE
  5
27E
100
AcDbEntity
  8
ALL_ASSEMBLY_MEMBERS
100
AcDbLine
 62
7
  6
BYLAYER
 10
4.5527479528
 20
6.300416955
 11
4.5490484363
 21
6.2917014405
  0
LINE
  5
27F
100
AcDbEntity
  8
ALL_ASSEMBLY_MEMBERS
100
AcDbLine
 62
7
  6
BYLAYER
 10
4.9140709731
 20
7.1115554814
 11
4.9100695432
 21
7.1029743873
  0
LINE
  5
280
100
AcDbEntity
  8
ALL_ASSEMBLY_MEMBERS
100
AcDbLine
 62
7
  6
BYLAYER
 10
4.5400086186
 20
6.3271255245
 11
4.5358580374
 21
6.318615572
  0
LINE
  5
281
100
AcDbEntity
  8
ALL_ASSEMBLY_MEMBERS
100
AcDbLine
 62
7
  6
BYLAYER
 10
4.9432881687
 20
7.1182422279
 11
4.9388431229
 21
7.1098823126
  0
LINE
  5
282
100
AcDbEntity
  8
ALL_ASSEMBLY_MEMBERS
100
AcDbLine
 62
7
  6
BYLAYER
 10
5.6207978341
 20
6.5866000582
 11
5.6277224296
 21
6.593057348
  0
LINE
  5
283
100
AcDbEntity
  8
ALL_ASSEMBLY_MEMBERS
100
AcDbLine
 62
7
  6
BYLAYER
 10
4.9607930688
 20
5.9925514543
 11
4.9679388023
 21
5.9987631456
  0
LINE
  5
284
100
AcDbEntity
  8
ALL_ASSEMBLY_MEMBERS
100
AcDbLine
 62
7
  6
BYLAYER
 10
5.6216758817
 20
6.5570190118
 11
5.6288264033
 21
6.5630190118
  0
LINE
  5
285
100
AcDbEntity
  8
ALL_ASSEMBLY_MEMBERS
100
AcDbLine
 62
7
  6
BYLAYER
 10
4.9313820876
 20
5.9983265114
 11
4.9388431229
 21
6.004155711
  0
LINE
  5
286
100
AcDbEntity
  8
ALL_ASSEMBLY_MEMBERS
100
AcDbLine
 62
7
  6
BYLAYER
 10
5.6207978341
 20
6.5274379655
 11
5.6283594665
 21
6.5331360643
  0
LINE
  5
287
100
AcDbEntity
  8
ALL_ASSEMBLY_MEMBERS
100
AcDbLine
 62
7
  6
BYLAYER
 10
4.9023965247
 20
6.0056097611
 11
4.9100427708
 21
6.0109637203
  0
LINE
  5
288
100
AcDbEntity
  8
ALL_FEATURES
100
AcDbLine
 62
7
  6
BYLAYER
 10
5.6533578452
 20
3.0570190118
 11
4.4593578452
 21
3.0570190118
  0
LINE
  5
289
100
AcDbEntity
  8
ALL_ASSEMBLY_MEMBERS
100
AcDbLine
 62
7
  6
BYLAYER
 10
5.6307681408
 20
3.0820190118
 11
4.4819475496
 21
3.0820190118
  0
LINE
  5
28A
100
AcDbEntity
  8
ALL_ASSEMBLY_MEMBERS
100
AcDbLine
 62
7
  6
BYLAYER
 10
4.4290608556
 20
3.1382306497
 11
5.6836548348
 21
3.1382306497
  0
LINE
  5
28B
100
AcDbEntity
  8
ALL_ASSEMBLY_MEMBERS
100
AcDbLine
 62
7
  6
BYLAYER
 10
5.6678805635
 20
3.1812188019
 11
4.4448351269
 21
3.1812188019
  0
LWPOLYLINE
  5
28C
100
AcDbEntity
  8
ALL_ASSEMBLY_MEMBERS
100
AcDbPolyline
 62
7
  6
BYLAYER
 90
3
 70
0
 10
4.517613997
 20
6.7311979953
 10
4.5178288852
 20
6.7320243003
 10
4.5180818967
 20
6.7328400484
  0
LINE
  5
28D
100
AcDbEntity
  8
ALL_ASSEMBLY_MEMBERS
100
AcDbLine
 62
7
  6
BYLAYER
 10
4.5823289991
 20
6.2491810798
 11
4.5795607684
 21
6.240126605
  0
LINE
  5
28E
100
AcDbEntity
  8
ALL_ASSEMBLY_MEMBERS
100
AcDbLine
 62
7
  6
BYLAYER
 10
4.8568855905
 20
7.0936446445
 11
4.8538030494
 21
7.0846922953
  0
LINE
  5
28F
100
AcDbEntity
  8
ALL_ASSEMBLY_MEMBERS
100
AcDbLine
 62
7
  6
BYLAYER
 10
4.5667780643
 20
6.2743599936
 11
4.563585531
 21
6.2655885804
  0
LINE
  5
290
100
AcDbEntity
  8
ALL_ASSEMBLY_MEMBERS
100
AcDbLine
 62
7
  6
BYLAYER
 10
4.8852437759
 20
7.1033487889
 11
4.8816969296
 21
7.0945700363
  0
LINE
  5
291
100
AcDbEntity
  8
ALL_ASSEMBLY_MEMBERS
100
AcDbLine
 62
7
  6
BYLAYER
 10
5.0503578452
 20
5.9845504538
 11
5.0563578452
 21
5.9917009753
  0
LINE
  5
292
100
AcDbEntity
  8
ALL_ASSEMBLY_MEMBERS
100
AcDbLine
 62
7
  6
BYLAYER
 10
5.6146137114
 20
6.6454380548
 11
5.6208254027
 21
6.6525837882
  0
LINE
  5
293
100
AcDbEntity
  8
ALL_ASSEMBLY_MEMBERS
100
AcDbLine
 62
7
  6
BYLAYER
 10
5.020319509
 20
5.9856544274
 11
5.0267767988
 21
5.992579023
  0
LINE
  5
294
100
AcDbEntity
  8
ALL_ASSEMBLY_MEMBERS
100
AcDbLine
 62
7
  6
BYLAYER
 10
5.6184761363
 20
6.616100025
 11
5.6250532935
 21
6.6229108706
  0
LINE
  5
295
100
AcDbEntity
  8
ALL_ASSEMBLY_MEMBERS
100
AcDbLine
 62
7
  6
BYLAYER
 10
4.9904659864
 20
5.9883235635
 11
4.9972768321
 21
5.9949007207
  0
LINE
  5
296
100
AcDbEntity
  8
ALL_ASSEMBLY_MEMBERS
100
AcDbLine
 62
7
  6
BYLAYER
 10
5.61785474
 20
3.3063770792
 11
4.4948609504
 21
3.3063770792
  0
LINE
  5
297
100
AcDbEntity
  8
ALL_ASSEMBLY_MEMBERS
100
AcDbLine
 62
7
  6
BYLAYER
 10
4.8018856676
 20
7.0698544249
 11
4.7997557884
 21
7.0606289043
  0
LINE
  5
298
100
AcDbEntity
  8
ALL_ASSEMBLY_MEMBERS
100
AcDbLine
 62
7
  6
BYLAYER
 10
4.5990896317
 20
6.224794208
 11
4.5967990693
 21
6.2156072641
  0
LINE
  5
299
100
AcDbEntity
  8
ALL_ASSEMBLY_MEMBERS
100
AcDbLine
 62
7
  6
BYLAYER
 10
4.8290741446
 20
7.0824696465
 11
4.8264643579
 21
7.0733682385
  0
LINE
  5
29A
100
AcDbEntity
  8
ALL_ASSEMBLY_MEMBERS
100
AcDbLine
 62
7
  6
BYLAYER
 10
5.1101443139
 20
5.9870512357
 11
5.1154388583
 21
5.9949007207
  0
LINE
  5
29B
100
AcDbEntity
  8
ALL_ASSEMBLY_MEMBERS
100
AcDbLine
 62
7
  6
BYLAYER
 10
5.6024131368
 20
6.7033340862
 11
5.6077670959
 21
6.7109803324
  0
LINE
  5
29C
100
AcDbEntity
  8
ALL_ASSEMBLY_MEMBERS
100
AcDbLine
 62
7
  6
BYLAYER
 10
5.0802407928
 20
5.9850173905
 11
5.0859388916
 21
5.992579023
  0
LINE
  5
29D
100
AcDbEntity
  8
ALL_ASSEMBLY_MEMBERS
100
AcDbLine
 62
7
  6
BYLAYER
 10
5.609221146
 20
6.6745337341
 11
5.6150503456
 21
6.6819947694
  0
LINE
  5
29E
100
AcDbEntity
  8
ALL_ASSEMBLY_MEMBERS
100
AcDbLine
 62
7
  6
BYLAYER
 10
4.7496737952
 20
7.0404454731
 11
4.7485199132
 21
7.0310478579
  0
LINE
  5
29F
100
AcDbEntity
  8
ALL_ASSEMBLY_MEMBERS
100
AcDbLine
 62
7
  6
BYLAYER
 10
4.636321543
 20
6.1788166266
 11
4.6350038257
 21
6.1694405807
  0
LINE
  5
2A0
100
AcDbEntity
  8
ALL_ASSEMBLY_MEMBERS
100
AcDbLine
 62
7
  6
BYLAYER
 10
4.7753197186
 20
7.055791326
 11
4.7736988269
 21
7.0465987927
  0
LINE
  5
2A1
100
AcDbEntity
  8
ALL_ASSEMBLY_MEMBERS
100
AcDbLine
 62
7
  6
BYLAYER
 10
4.6171036047
 20
6.2013179414
 11
4.6152969889
 21
6.192023709
  0
LINE
  5
2A2
100
AcDbEntity
  8
ALL_ASSEMBLY_MEMBERS
100
AcDbLine
 62
7
  6
BYLAYER
 10
5.1694275217
 20
5.9957957958
 11
5.1738725675
 21
6.004155711
  0
LINE
  5
2A3
100
AcDbEntity
  8
ALL_ASSEMBLY_MEMBERS
100
AcDbLine
 62
7
  6
BYLAYER
 10
5.5840311286
 20
6.7595738076
 11
5.5886213981
 21
6.7678548729
  0
LINE
  5
2A4
100
AcDbEntity
  8
ALL_ASSEMBLY_MEMBERS
100
AcDbLine
 62
7
  6
BYLAYER
 10
5.13990041
 20
5.990647323
 11
5.1447768881
 21
5.9987631456
  0
LINE
  5
2A5
100
AcDbEntity
  8
ALL_ASSEMBLY_MEMBERS
100
AcDbLine
 62
7
  6
BYLAYER
 10
5.5939088697
 20
6.7316799274
 11
5.5989262458
 21
6.7397094076
  0
LINE
  5
2A6
100
AcDbEntity
  8
0
100
AcDbLine
 62
7
  6
BYLAYER
 10
4.5391759621
 20
3.0820190118
 11
4.5396123387
 21
3.0570190118
  0
LINE
  5
2A7
100
AcDbEntity
  8
ALL_ASSEMBLY_MEMBERS
100
AcDbLine
 62
7
  6
BYLAYER
 10
4.7008220174
 20
7.0057399999
 11
4.7006567747
 21
6.9962732523
  0
LINE
  5
2A8
100
AcDbEntity
  8
ALL_ASSEMBLY_MEMBERS
100
AcDbLine
 62
7
  6
BYLAYER
 10
4.67815546
 20
6.1369827097
 11
4.6778250249
 21
6.1275202878
  0
LINE
  5
2A9
100
AcDbEntity
  8
ALL_ASSEMBLY_MEMBERS
100
AcDbLine
 62
7
  6
BYLAYER
 10
4.7247935089
 20
7.023732351
 11
4.7241330414
 21
7.0142872253
  0
LINE
  5
2AA
100
AcDbEntity
  8
ALL_ASSEMBLY_MEMBERS
100
AcDbLine
 62
7
  6
BYLAYER
 10
4.656617628
 20
6.1572787947
 11
4.6558040864
 21
6.1479799717
  0
LINE
  5
2AB
100
AcDbEntity
  8
ALL_ASSEMBLY_MEMBERS
100
AcDbLine
 62
7
  6
BYLAYER
 10
5.2274719145
 20
6.0106892348
 11
5.2310187608
 21
6.0194679874
  0
LINE
  5
2AC
100
AcDbEntity
  8
ALL_ASSEMBLY_MEMBERS
100
AcDbLine
 62
7
  6
BYLAYER
 10
5.5599677376
 20
6.8136210687
 11
5.5636672541
 21
6.8223365832
  0
LINE
  5
2AD
100
AcDbEntity
  8
ALL_ASSEMBLY_MEMBERS
100
AcDbLine
 62
7
  6
BYLAYER
 10
5.1987280558
 20
6.0025039326
 11
5.2026729196
 21
6.0109637203
  0
LINE
  5
2AE
100
AcDbEntity
  8
ALL_ASSEMBLY_MEMBERS
100
AcDbLine
 62
7
  6
BYLAYER
 10
5.5727070718
 20
6.7869124992
 11
5.576857653
 21
6.7954224517
  0
LINE
  5
2AF
100
AcDbEntity
  8
ALL_ASSEMBLY_MEMBERS
100
AcDbLine
 62
7
  6
BYLAYER
 10
4.6558040864
 20
6.966058052
 11
4.656617628
 21
6.956759229
  0
LINE
  5
2B0
100
AcDbEntity
  8
ALL_ASSEMBLY_MEMBERS
100
AcDbLine
 62
7
  6
BYLAYER
 10
4.7241330414
 20
6.0997507984
 11
4.7247935089
 21
6.0903056727
  0
LINE
  5
2B1
100
AcDbEntity
  8
ALL_ASSEMBLY_MEMBERS
100
AcDbLine
 62
7
  6
BYLAYER
 10
4.6778250249
 20
6.9865177359
 11
4.67815546
 21
6.977055314
  0
LINE
  5
2B2
100
AcDbEntity
  8
ALL_ASSEMBLY_MEMBERS
100
AcDbLine
 62
7
  6
BYLAYER
 10
4.7006567747
 20
6.1177647713
 11
4.7008220174
 21
6.1082980237
  0
LINE
  5
2B3
100
AcDbEntity
  8
ALL_ASSEMBLY_MEMBERS
100
AcDbLine
 62
7
  6
BYLAYER
 10
5.2836415458
 20
6.0315683772
 11
5.2862513325
 21
6.0406697852
  0
LINE
  5
2B4
100
AcDbEntity
  8
ALL_ASSEMBLY_MEMBERS
100
AcDbLine
 62
7
  6
BYLAYER
 10
5.5303866913
 20
6.8648569439
 11
5.533154922
 21
6.8739114187
  0
LINE
  5
2B5
100
AcDbEntity
  8
ALL_ASSEMBLY_MEMBERS
100
AcDbLine
 62
7
  6
BYLAYER
 10
5.2558300999
 20
6.0203933792
 11
5.258912641
 21
6.0293457284
  0
LINE
  5
2B6
100
AcDbEntity
  8
ALL_ASSEMBLY_MEMBERS
100
AcDbLine
 62
7
  6
BYLAYER
 10
5.5459376261
 20
6.8396780301
 11
5.5491301594
 21
6.8484494433
  0
LINE
  5
2B7
100
AcDbEntity
  8
ALL_ASSEMBLY_MEMBERS
100
AcDbLine
 62
7
  6
BYLAYER
 10
5.3373959718
 20
6.0582466977
 11
5.3390168635
 21
6.067439231
  0
LINE
  5
2B8
100
AcDbEntity
  8
ALL_ASSEMBLY_MEMBERS
100
AcDbLine
 62
7
  6
BYLAYER
 10
5.4956120857
 20
6.9127200823
 11
5.4974187015
 21
6.9220143147
  0
LINE
  5
2B9
100
AcDbEntity
  8
ALL_ASSEMBLY_MEMBERS
100
AcDbLine
 62
7
  6
BYLAYER
 10
5.3108300228
 20
6.0441835988
 11
5.312959902
 21
6.0534091194
  0
LINE
  5
2BA
100
AcDbEntity
  8
ALL_ASSEMBLY_MEMBERS
100
AcDbLine
 62
7
  6
BYLAYER
 10
5.5136260587
 20
6.8892438156
 11
5.5159166211
 21
6.8984307596
  0
LINE
  5
2BB
100
AcDbEntity
  8
ALL_ASSEMBLY_MEMBERS
100
AcDbLine
 62
7
  6
BYLAYER
 10
4.7736988269
 20
6.067439231
 11
4.7753197186
 21
6.0582466977
  0
LINE
  5
2BC
100
AcDbEntity
  8
ALL_ASSEMBLY_MEMBERS
100
AcDbLine
 62
7
  6
BYLAYER
 10
4.6350038257
 20
6.944597443
 11
4.636321543
 21
6.9352213971
  0
LINE
  5
2BD
100
AcDbEntity
  8
ALL_ASSEMBLY_MEMBERS
100
AcDbLine
 62
7
  6
BYLAYER
 10
4.7485199132
 20
6.0829901658
 11
4.7496737952
 21
6.0735925505
  0
LINE
  5
2BE
100
AcDbEntity
  8
ALL_ASSEMBLY_MEMBERS
100
AcDbLine
 62
7
  6
BYLAYER
 10
5.3879221815
 20
6.0903056727
 11
5.388582649
 21
6.0997507984
  0
LINE
  5
2BF
100
AcDbEntity
  8
ALL_ASSEMBLY_MEMBERS
100
AcDbLine
 62
7
  6
BYLAYER
 10
5.4560980624
 20
6.956759229
 11
5.456911604
 21
6.966058052
  0
LINE
  5
2C0
100
AcDbEntity
  8
ALL_ASSEMBLY_MEMBERS
100
AcDbLine
 62
7
  6
BYLAYER
 10
5.3630418952
 20
6.0735925505
 11
5.3641957772
 21
6.0829901658
  0
LINE
  5
2C1
100
AcDbEntity
  8
ALL_ASSEMBLY_MEMBERS
100
AcDbLine
 62
7
  6
BYLAYER
 10
5.4763941474
 20
6.9352213971
 11
5.4777118647
 21
6.944597443
  0
LINE
  5
2C2
100
AcDbEntity
  8
ALL_ASSEMBLY_MEMBERS
100
AcDbLine
 62
7
  6
BYLAYER
 10
4.8264643579
 20
6.0406697852
 11
4.8290741446
 21
6.0315683772
  0
LINE
  5
2C3
100
AcDbEntity
  8
ALL_ASSEMBLY_MEMBERS
100
AcDbLine
 62
7
  6
BYLAYER
 10
4.5967990693
 20
6.8984307596
 11
4.5990896317
 21
6.8892438156
  0
LINE
  5
2C4
100
AcDbEntity
  8
ALL_ASSEMBLY_MEMBERS
100
AcDbLine
 62
7
  6
BYLAYER
 10
4.7997557884
 20
6.0534091194
 11
4.8018856676
 21
6.0441835988
  0
LINE
  5
2C5
100
AcDbEntity
  8
ALL_ASSEMBLY_MEMBERS
100
AcDbLine
 62
7
  6
BYLAYER
 10
4.6152969889
 20
6.9220143147
 11
4.6171036047
 21
6.9127200823
  0
LINE
  5
2C6
100
AcDbEntity
  8
ALL_ASSEMBLY_MEMBERS
100
AcDbLine
 62
7
  6
BYLAYER
 10
5.4120589157
 20
6.9962732523
 11
5.411893673
 21
7.0057399999
  0
LINE
  5
2C7
100
AcDbEntity
  8
ALL_ASSEMBLY_MEMBERS
100
AcDbLine
 62
7
  6
BYLAYER
 10
5.411893673
 20
6.1082980237
 11
5.4120589157
 21
6.1177647713
  0
LINE
  5
2C8
100
AcDbEntity
  8
ALL_ASSEMBLY_MEMBERS
100
AcDbLine
 62
7
  6
BYLAYER
 10
5.4345602304
 20
6.977055314
 11
5.4348906655
 21
6.9865177359
  0
LINE
  5
2C9
100
AcDbEntity
  8
ALL_ASSEMBLY_MEMBERS
100
AcDbLine
 62
7
  6
BYLAYER
 10
4.563585531
 20
6.8484494433
 11
4.5667780643
 21
6.8396780301
  0
LINE
  5
2CA
100
AcDbEntity
  8
ALL_ASSEMBLY_MEMBERS
100
AcDbLine
 62
7
  6
BYLAYER
 10
4.8538030494
 20
6.0293457284
 11
4.8568855905
 21
6.0203933792
  0
LINE
  5
2CB
100
AcDbEntity
  8
ALL_ASSEMBLY_MEMBERS
100
AcDbLine
 62
7
  6
BYLAYER
 10
4.5795607684
 20
6.8739114187
 11
4.5823289991
 21
6.8648569439
  0
LINE
  5
2CC
100
AcDbEntity
  8
ALL_ASSEMBLY_MEMBERS
100
AcDbLine
 62
7
  6
BYLAYER
 10
5.456911604
 20
6.1479799717
 11
5.4560980624
 21
6.1572787947
  0
LINE
  5
2CD
100
AcDbEntity
  8
ALL_ASSEMBLY_MEMBERS
100
AcDbLine
 62
7
  6
BYLAYER
 10
5.388582649
 20
7.0142872253
 11
5.3879221815
 21
7.023732351
  0
LINE
  5
2CE
100
AcDbEntity
  8
ALL_ASSEMBLY_MEMBERS
100
AcDbLine
 62
7
  6
BYLAYER
 10
5.4348906655
 20
6.1275202878
 11
5.4345602304
 21
6.1369827097
  0
LINE
  5
2CF
100
AcDbEntity
  8
0
100
AcDbLine
 62
7
  6
BYLAYER
 10
5.5735397283
 20
3.0820190118
 11
5.5731033517
 21
3.0570190118
  0
LINE
  5
2D0
100
AcDbEntity
  8
ALL_ASSEMBLY_MEMBERS
100
AcDbLine
 62
7
  6
BYLAYER
 10
4.5358580374
 20
6.7954224517
 11
4.5400086186
 21
6.7869124992
  0
LINE
  5
2D1
100
AcDbEntity
  8
ALL_ASSEMBLY_MEMBERS
100
AcDbLine
 62
7
  6
BYLAYER
 10
4.9100427708
 20
6.0109637203
 11
4.9139876346
 21
6.0025039326
  0
LINE
  5
2D2
100
AcDbEntity
  8
ALL_ASSEMBLY_MEMBERS
100
AcDbLine
 62
7
  6
BYLAYER
 10
4.5490484363
 20
6.8223365832
 11
4.5527479528
 21
6.8136210687
  0
LINE
  5
2D3
100
AcDbEntity
  8
ALL_ASSEMBLY_MEMBERS
100
AcDbLine
 62
7
  6
BYLAYER
 10
4.8816969296
 20
6.0194679874
 11
4.8852437759
 21
6.0106892348
  0
LINE
  5
2D4
100
AcDbEntity
  8
ALL_ASSEMBLY_MEMBERS
100
AcDbLine
 62
7
  6
BYLAYER
 10
5.3641957772
 20
7.0310478579
 11
5.3630418952
 21
7.0404454731
  0
LINE
  5
2D5
100
AcDbEntity
  8
ALL_ASSEMBLY_MEMBERS
100
AcDbLine
 62
7
  6
BYLAYER
 10
4.9972768321
 20
5.9949007207
 11
5.0025713765
 21
5.9870512357
  0
LINE
  5
2D6
100
AcDbEntity
  8
ALL_ASSEMBLY_MEMBERS
100
AcDbLine
 62
7
  6
BYLAYER
 10
4.5137894446
 20
6.7397094076
 11
4.5188068207
 21
6.7316799274
  0
LINE
  5
2D7
100
AcDbEntity
  8
ALL_ASSEMBLY_MEMBERS
100
AcDbLine
 62
7
  6
BYLAYER
 10
4.9679388023
 20
5.9987631456
 11
4.9728152804
 21
5.990647323
  0
LINE
  5
2D8
100
AcDbEntity
  8
ALL_ASSEMBLY_MEMBERS
100
AcDbLine
 62
7
  6
BYLAYER
 10
4.5240942923
 20
6.7678548729
 11
4.5286845618
 21
6.7595738076
  0
LINE
  5
2D9
100
AcDbEntity
  8
ALL_ASSEMBLY_MEMBERS
100
AcDbLine
 62
7
  6
BYLAYER
 10
4.9388431229
 20
6.004155711
 11
4.9432881687
 21
5.9957957958
  0
LINE
  5
2DA
100
AcDbEntity
  8
ALL_ASSEMBLY_MEMBERS
100
AcDbLine
 62
7
  6
BYLAYER
 10
5.4974187015
 20
6.192023709
 11
5.4956120857
 21
6.2013179414
  0
LINE
  5
2DB
100
AcDbEntity
  8
ALL_ASSEMBLY_MEMBERS
100
AcDbLine
 62
7
  6
BYLAYER
 10
5.3390168635
 20
7.0465987927
 11
5.3373959718
 21
7.055791326
  0
LINE
  5
2DC
100
AcDbEntity
  8
ALL_ASSEMBLY_MEMBERS
100
AcDbLine
 62
7
  6
BYLAYER
 10
5.4777118647
 20
6.1694405807
 11
5.4763941474
 21
6.1788166266
  0
LINE
  5
2DD
100
AcDbEntity
  8
ALL_ASSEMBLY_MEMBERS
100
AcDbLine
 62
7
  6
BYLAYER
 10
5.0563578452
 20
5.9917009753
 11
5.0623578452
 21
5.9845504538
  0
LINE
  5
2DE
100
AcDbEntity
  8
ALL_ASSEMBLY_MEMBERS
100
AcDbLine
 62
7
  6
BYLAYER
 10
4.4976653448
 20
6.6819947694
 11
4.5034945444
 21
6.6745337341
  0
LINE
  5
2DF
100
AcDbEntity
  8
ALL_ASSEMBLY_MEMBERS
100
AcDbLine
 62
7
  6
BYLAYER
 10
5.0267767988
 20
5.992579023
 11
5.0324748976
 21
5.9850173905
  0
LINE
  5
2E0
100
AcDbEntity
  8
ALL_ASSEMBLY_MEMBERS
100
AcDbLine
 62
7
  6
BYLAYER
 10
4.5049485945
 20
6.7109803324
 11
4.5103025536
 21
6.7033340862
  0
LINE
  5
2E1
100
AcDbEntity
  8
ALL_ASSEMBLY_MEMBERS
100
AcDbLine
 62
7
  6
BYLAYER
 10
5.533154922
 20
6.240126605
 11
5.5303866913
 21
6.2491810798
  0
LINE
  5
2E2
100
AcDbEntity
  8
ALL_ASSEMBLY_MEMBERS
100
AcDbLine
 62
7
  6
BYLAYER
 10
5.2862513325
 20
7.0733682385
 11
5.2836415458
 21
7.0824696465
  0
LINE
  5
2E3
100
AcDbEntity
  8
ALL_ASSEMBLY_MEMBERS
100
AcDbLine
 62
7
  6
BYLAYER
 10
5.5159166211
 20
6.2156072641
 11
5.5136260587
 21
6.224794208
  0
LINE
  5
2E4
100
AcDbEntity
  8
ALL_ASSEMBLY_MEMBERS
100
AcDbLine
 62
7
  6
BYLAYER
 10
5.312959902
 20
7.0606289043
 11
5.3108300228
 21
7.0698544249
  0
LINE
  5
2E5
100
AcDbEntity
  8
ALL_ASSEMBLY_MEMBERS
100
AcDbLine
 62
7
  6
BYLAYER
 10
5.5780906565
 20
5.4943475758
 11
4.5346250339
 21
5.4943475758
  0
LINE
  5
2E6
100
AcDbEntity
  8
ALL_ASSEMBLY_MEMBERS
100
AcDbLine
 62
7
  6
BYLAYER
 10
5.6297336015
 20
5.6064567569
 11
4.4829820889
 21
5.6064567569
  0
LINE
  5
2E7
100
AcDbEntity
  8
ALL_ASSEMBLY_MEMBERS
100
AcDbLine
 62
7
  6
BYLAYER
 10
4.4849932608
 20
6.593057348
 11
4.4919178563
 21
6.5866000582
  0
LINE
  5
2E8
100
AcDbEntity
  8
ALL_ASSEMBLY_MEMBERS
100
AcDbLine
 62
7
  6
BYLAYER
 10
5.1154388583
 20
5.9949007207
 11
5.122249704
 21
5.9883235635
  0
LINE
  5
2E9
100
AcDbEntity
  8
ALL_ASSEMBLY_MEMBERS
100
AcDbLine
 62
7
  6
BYLAYER
 10
4.4876623969
 20
6.6229108706
 11
4.4942395541
 21
6.616100025
  0
LINE
  5
2EA
100
AcDbEntity
  8
ALL_ASSEMBLY_MEMBERS
100
AcDbLine
 62
7
  6
BYLAYER
 10
5.0859388916
 20
5.992579023
 11
5.0923961814
 21
5.9856544274
  0
LINE
  5
2EB
100
AcDbEntity
  8
ALL_ASSEMBLY_MEMBERS
100
AcDbLine
 62
7
  6
BYLAYER
 10
4.4918902877
 20
6.6525837882
 11
4.498101979
 21
6.6454380548
  0
LINE
  5
2EC
100
AcDbEntity
  8
ALL_ASSEMBLY_MEMBERS
100
AcDbLine
 62
7
  6
BYLAYER
 10
5.5636672541
 20
6.2917014405
 11
5.5599677376
 21
6.300416955
  0
LINE
  5
2ED
100
AcDbEntity
  8
ALL_ASSEMBLY_MEMBERS
100
AcDbLine
 62
7
  6
BYLAYER
 10
5.2310187608
 20
7.0945700363
 11
5.2274719145
 21
7.1033487889
  0
LINE
  5
2EE
100
AcDbEntity
  8
ALL_ASSEMBLY_MEMBERS
100
AcDbLine
 62
7
  6
BYLAYER
 10
5.5491301594
 20
6.2655885804
 11
5.5459376261
 21
6.2743599936
  0
LINE
  5
2EF
100
AcDbEntity
  8
ALL_ASSEMBLY_MEMBERS
100
AcDbLine
 62
7
  6
BYLAYER
 10
5.258912641
 20
7.0846922953
 11
5.2558300999
 21
7.0936446445
  0
LWPOLYLINE
  5
2F0
100
AcDbEntity
  8
ALL_ASSEMBLY_MEMBERS
100
AcDbPolyline
 62
7
  6
BYLAYER
 90
3
 70
0
 10
5.5947796446
 20
6.7330734587
 10
5.5951187683
 20
6.731980903
 10
5.5953485132
 20
6.7310982737
  0
LINE
  5
2F1
100
AcDbEntity
  8
ALL_ASSEMBLY_MEMBERS
100
AcDbLine
 62
7
  6
BYLAYER
 10
5.5878578452
 20
5.7070190118
 11
4.5248723323
 21
5.7070190118
  0
LINE
  5
2F2
100
AcDbEntity
  8
ALL_ASSEMBLY_MEMBERS
100
AcDbLine
 62
7
  6
BYLAYER
 10
4.5347060761
 20
5.737332439
 11
5.5780096143
 21
5.737332439
  0
LINE
  5
2F3
100
AcDbEntity
  8
ALL_ASSEMBLY_MEMBERS
100
AcDbLine
 62
7
  6
BYLAYER
 10
4.5750062025
 20
5.8320960415
 11
5.5377094879
 21
5.8320960415
  0
LINE
  5
2F4
100
AcDbEntity
  8
ALL_ASSEMBLY_MEMBERS
100
AcDbLine
 62
7
  6
BYLAYER
 10
4.4863900691
 20
6.5032325432
 11
4.4942395541
 21
6.4979379987
  0
LINE
  5
2F5
100
AcDbEntity
  8
ALL_ASSEMBLY_MEMBERS
100
AcDbLine
 62
7
  6
BYLAYER
 10
5.2026729196
 20
6.0109637203
 11
5.2103191657
 21
6.0056097611
  0
LINE
  5
2F6
100
AcDbEntity
  8
ALL_ASSEMBLY_MEMBERS
100
AcDbLine
 62
7
  6
BYLAYER
 10
4.4843562239
 20
6.5331360643
 11
4.4919178563
 21
6.5274379655
  0
LINE
  5
2F7
100
AcDbEntity
  8
ALL_ASSEMBLY_MEMBERS
100
AcDbLine
 62
7
  6
BYLAYER
 10
5.1738725675
 20
6.004155711
 11
5.1813336028
 21
5.9983265114
  0
LINE
  5
2F8
100
AcDbEntity
  8
ALL_ASSEMBLY_MEMBERS
100
AcDbLine
 62
7
  6
BYLAYER
 10
4.4838892871
 20
6.5630190118
 11
4.4910398087
 21
6.5570190118
  0
LINE
  5
2F9
100
AcDbEntity
  8
ALL_ASSEMBLY_MEMBERS
100
AcDbLine
 62
7
  6
BYLAYER
 10
5.1447768881
 20
5.9987631456
 11
5.1519226216
 21
5.9925514543
  0
LINE
  5
2FA
100
AcDbEntity
  8
ALL_ASSEMBLY_MEMBERS
100
AcDbLine
 62
7
  6
BYLAYER
 10
5.5886213981
 20
6.3461831508
 11
5.5840311286
 21
6.3544642161
  0
LINE
  5
2FB
100
AcDbEntity
  8
ALL_ASSEMBLY_MEMBERS
100
AcDbLine
 62
7
  6
BYLAYER
 10
5.1738725675
 20
7.1098823126
 11
5.1694275217
 21
7.1182422279
  0
LINE
  5
2FC
100
AcDbEntity
  8
ALL_ASSEMBLY_MEMBERS
100
AcDbLine
 62
7
  6
BYLAYER
 10
5.576857653
 20
6.318615572
 11
5.5727070718
 21
6.3271255245
  0
LINE
  5
2FD
100
AcDbEntity
  8
ALL_ASSEMBLY_MEMBERS
100
AcDbLine
 62
7
  6
BYLAYER
 10
5.2026729196
 20
7.1030743034
 11
5.1987280558
 21
7.1115340911
  0
LINE
  5
2FE
100
AcDbEntity
  8
ALL_ASSEMBLY_MEMBERS
100
AcDbLine
 62
7
  6
BYLAYER
 10
5.5745651699
 20
6.7907221648
 11
5.5766119464
 21
6.7857927944
  0
LINE
  5
2FF
100
AcDbEntity
  8
ALL_ASSEMBLY_MEMBERS
100
AcDbLine
 62
7
  6
BYLAYER
 10
5.5854574641
 20
6.7621469849
 11
5.5867245123
 21
6.7586464012
  0
LINE
  5
300
100
AcDbEntity
  8
ALL_ASSEMBLY_MEMBERS
100
AcDbLine
 62
7
  6
BYLAYER
 10
4.5448422691
 20
5.9609647905
 11
5.5678734213
 21
5.9609647905
  0
LINE
  5
301
100
AcDbEntity
  8
ALL_ASSEMBLY_MEMBERS
100
AcDbLine
 62
7
  6
BYLAYER
 10
5.5515394467
 20
6.0393107303
 11
5.300732946
 21
6.0393107329
  0
LINE
  5
302
100
AcDbEntity
  8
ALL_ASSEMBLY_MEMBERS
100
AcDbLine
 62
7
  6
BYLAYER
 10
5.2890378014
 20
6.0393107335
 11
5.2858616308
 21
6.0393107337
  0
LINE
  5
303
100
AcDbEntity
  8
ALL_ASSEMBLY_MEMBERS
100
AcDbLine
 62
7
  6
BYLAYER
 10
4.8268540598
 20
6.0393107332
 11
4.823677888
 21
6.0393107331
  0
LINE
  5
304
100
AcDbEntity
  8
ALL_ASSEMBLY_MEMBERS
100
AcDbLine
 62
7
  6
BYLAYER
 10
4.8119827625
 20
6.0393107324
 11
4.5611762437
 21
6.0393107303
  0
LINE
  5
305
100
AcDbEntity
  8
ALL_ASSEMBLY_MEMBERS
100
AcDbLine
 62
7
  6
BYLAYER
 10
5.5463517949
 20
6.0517140329
 11
5.3254362795
 21
6.0517140328
  0
LINE
  5
306
100
AcDbEntity
  8
ALL_ASSEMBLY_MEMBERS
100
AcDbLine
 62
7
  6
BYLAYER
 10
5.3169532758
 20
6.0517140328
 11
5.3125685604
 21
6.0517140328
  0
LINE
  5
307
100
AcDbEntity
  8
ALL_ASSEMBLY_MEMBERS
100
AcDbLine
 62
7
  6
BYLAYER
 10
4.8001471302
 20
6.0517140316
 11
4.7957624123
 21
6.0517140318
  0
LINE
  5
308
100
AcDbEntity
  8
ALL_ASSEMBLY_MEMBERS
100
AcDbLine
 62
7
  6
BYLAYER
 10
4.7872795081
 20
6.0517140322
 11
4.5663638955
 21
6.0517140329
  0
LINE
  5
309
100
AcDbEntity
  8
ALL_ASSEMBLY_MEMBERS
100
AcDbLine
 62
7
  6
BYLAYER
 10
4.5100280682
 20
6.3859049425
 11
4.5188068207
 21
6.3823580963
  0
LINE
  5
30A
100
AcDbEntity
  8
ALL_ASSEMBLY_MEMBERS
100
AcDbLine
 62
7
  6
BYLAYER
 10
5.312959902
 20
6.0534091194
 11
5.3216754166
 21
6.049709603
  0
LINE
  5
30B
100
AcDbEntity
  8
ALL_ASSEMBLY_MEMBERS
100
AcDbLine
 62
7
  6
BYLAYER
 10
4.5018427659
 20
6.4146488012
 11
4.5103025536
 21
6.4107039374
  0
LINE
  5
30C
100
AcDbEntity
  8
ALL_ASSEMBLY_MEMBERS
100
AcDbLine
 62
7
  6
BYLAYER
 10
5.2862513325
 20
6.0406697852
 11
5.294761285
 21
6.0365192041
  0
LINE
  5
30D
100
AcDbEntity
  8
ALL_ASSEMBLY_MEMBERS
100
AcDbLine
 62
7
  6
BYLAYER
 10
4.4951346291
 20
6.4439493353
 11
4.5034945444
 21
6.4395042896
  0
LINE
  5
30E
100
AcDbEntity
  8
ALL_ASSEMBLY_MEMBERS
100
AcDbLine
 62
7
  6
BYLAYER
 10
5.258912641
 20
6.0293457284
 11
5.2671937062
 21
6.024755459
  0
LINE
  5
30F
100
AcDbEntity
  8
ALL_ASSEMBLY_MEMBERS
100
AcDbLine
 62
7
  6
BYLAYER
 10
4.4899861564
 20
6.4734764471
 11
4.498101979
 21
6.4685999689
  0
LINE
  5
310
100
AcDbEntity
  8
ALL_ASSEMBLY_MEMBERS
100
AcDbLine
 62
7
  6
BYLAYER
 10
5.2310187608
 20
6.0194679874
 11
5.239048241
 21
6.0144506113
  0
LINE
  5
311
100
AcDbEntity
  8
ALL_ASSEMBLY_MEMBERS
100
AcDbLine
 62
7
  6
BYLAYER
 10
5.6077670959
 20
6.4030576913
 11
5.6024131368
 21
6.4107039374
  0
LINE
  5
312
100
AcDbEntity
  8
ALL_ASSEMBLY_MEMBERS
100
AcDbLine
 62
7
  6
BYLAYER
 10
5.1154388583
 20
7.119137303
 11
5.1101443139
 21
7.1269867879
  0
LINE
  5
313
100
AcDbEntity
  8
ALL_ASSEMBLY_MEMBERS
100
AcDbLine
 62
7
  6
BYLAYER
 10
5.5989262458
 20
6.3743286161
 11
5.5939088697
 21
6.3823580963
  0
LINE
  5
314
100
AcDbEntity
  8
ALL_ASSEMBLY_MEMBERS
100
AcDbLine
 62
7
  6
BYLAYER
 10
5.1447768881
 20
7.1152748781
 11
5.13990041
 21
7.1233907006
  0
LINE
  5
315
100
AcDbEntity
  8
ALL_ASSEMBLY_MEMBERS
100
AcDbLine
 62
7
  6
BYLAYER
 10
5.5482260173
 20
6.8459653335
 11
5.5521241758
 21
6.8385871745
  0
LINE
  5
316
100
AcDbEntity
  8
ALL_ASSEMBLY_MEMBERS
100
AcDbLine
 62
7
  6
BYLAYER
 10
5.5621303169
 20
6.8187157862
 11
5.5650834299
 21
6.812440018
  0
LINE
  5
317
100
AcDbEntity
  8
ALL_ASSEMBLY_MEMBERS
100
AcDbLine
 62
7
  6
BYLAYER
 10
4.7149460974
 20
6.097460236
 11
4.7241330414
 21
6.0997507984
  0
LINE
  5
318
100
AcDbEntity
  8
ALL_ASSEMBLY_MEMBERS
100
AcDbLine
 62
7
  6
BYLAYER
 10
5.5599677376
 20
6.300416955
 11
5.5691932582
 21
6.3025468343
  0
LINE
  5
319
100
AcDbEntity
  8
ALL_ASSEMBLY_MEMBERS
100
AcDbLine
 62
7
  6
BYLAYER
 10
4.6913625424
 20
6.1159581556
 11
4.7006567747
 21
6.1177647713
  0
LINE
  5
31A
100
AcDbEntity
  8
ALL_ASSEMBLY_MEMBERS
100
AcDbLine
 62
7
  6
BYLAYER
 10
5.5459376261
 20
6.2743599936
 11
5.5551301594
 21
6.2759808852
  0
LINE
  5
31B
100
AcDbEntity
  8
ALL_ASSEMBLY_MEMBERS
100
AcDbLine
 62
7
  6
BYLAYER
 10
4.6687794141
 20
6.1356649924
 11
4.67815546
 21
6.1369827097
  0
LINE
  5
31C
100
AcDbEntity
  8
ALL_ASSEMBLY_MEMBERS
100
AcDbLine
 62
7
  6
BYLAYER
 10
5.5303866913
 20
6.2491810798
 11
5.5397843065
 21
6.2503349619
  0
LINE
  5
31D
100
AcDbEntity
  8
ALL_ASSEMBLY_MEMBERS
100
AcDbLine
 62
7
  6
BYLAYER
 10
4.6473188051
 20
6.1564652531
 11
4.656617628
 21
6.1572787947
  0
LINE
  5
31E
100
AcDbEntity
  8
ALL_ASSEMBLY_MEMBERS
100
AcDbLine
 62
7
  6
BYLAYER
 10
5.5136260587
 20
6.224794208
 11
5.5230711843
 21
6.2254546756
  0
LINE
  5
31F
100
AcDbEntity
  8
ALL_ASSEMBLY_MEMBERS
100
AcDbLine
 62
7
  6
BYLAYER
 10
4.6268591211
 20
6.1784861916
 11
4.636321543
 21
6.1788166266
  0
LINE
  5
320
100
AcDbEntity
  8
ALL_ASSEMBLY_MEMBERS
100
AcDbLine
 62
7
  6
BYLAYER
 10
5.4956120857
 20
6.2013179414
 11
5.5050788333
 21
6.2014831841
  0
LINE
  5
321
100
AcDbEntity
  8
ALL_ASSEMBLY_MEMBERS
100
AcDbLine
 62
7
  6
BYLAYER
 10
5.5983541552
 20
6.1490190118
 11
5.456911604
 21
6.1490190118
  0
LINE
  5
322
100
AcDbEntity
  8
ALL_ASSEMBLY_MEMBERS
100
AcDbLine
 62
7
  6
BYLAYER
 10
4.5143615353
 20
6.1490190118
 11
4.6558040864
 21
6.1490190118
  0
LINE
  5
323
100
AcDbEntity
  8
ALL_ASSEMBLY_MEMBERS
100
AcDbLine
 62
7
  6
BYLAYER
 10
4.6076368571
 20
6.2014831841
 11
4.6171036047
 21
6.2013179414
  0
LINE
  5
324
100
AcDbEntity
  8
ALL_ASSEMBLY_MEMBERS
100
AcDbLine
 62
7
  6
BYLAYER
 10
5.4763941474
 20
6.1788166266
 11
5.4858565693
 21
6.1784861916
  0
LINE
  5
325
100
AcDbEntity
  8
ALL_ASSEMBLY_MEMBERS
100
AcDbLine
 62
7
  6
BYLAYER
 10
4.5896445061
 20
6.2254546756
 11
4.5990896317
 21
6.224794208
  0
LINE
  5
326
100
AcDbEntity
  8
ALL_ASSEMBLY_MEMBERS
100
AcDbLine
 62
7
  6
BYLAYER
 10
5.4560980624
 20
6.1572787947
 11
5.4653968853
 21
6.1564652531
  0
LINE
  5
327
100
AcDbEntity
  8
ALL_ASSEMBLY_MEMBERS
100
AcDbLine
 62
7
  6
BYLAYER
 10
4.5729313839
 20
6.2503349619
 11
4.5823289991
 21
6.2491810798
  0
LINE
  5
328
100
AcDbEntity
  8
ALL_ASSEMBLY_MEMBERS
100
AcDbLine
 62
7
  6
BYLAYER
 10
5.4345602304
 20
6.1369827097
 11
5.4439362763
 21
6.1356649924
  0
LINE
  5
329
100
AcDbEntity
  8
ALL_ASSEMBLY_MEMBERS
100
AcDbLine
 62
7
  6
BYLAYER
 10
4.557585531
 20
6.2759808852
 11
4.5667780643
 21
6.2743599936
  0
LINE
  5
32A
100
AcDbEntity
  8
ALL_ASSEMBLY_MEMBERS
100
AcDbLine
 62
7
  6
BYLAYER
 10
5.4120589157
 20
6.1177647713
 11
5.421353148
 21
6.1159581556
  0
LINE
  5
32B
100
AcDbEntity
  8
ALL_ASSEMBLY_MEMBERS
100
AcDbLine
 62
7
  6
BYLAYER
 10
4.5435224322
 20
6.3025468343
 11
4.5527479528
 21
6.300416955
  0
LINE
  5
32C
100
AcDbEntity
  8
ALL_ASSEMBLY_MEMBERS
100
AcDbLine
 62
7
  6
BYLAYER
 10
5.388582649
 20
6.0997507984
 11
5.397769593
 21
6.097460236
  0
LINE
  5
32D
100
AcDbEntity
  8
ALL_ASSEMBLY_MEMBERS
100
AcDbLine
 62
7
  6
BYLAYER
 10
4.5309072105
 20
6.3297353113
 11
4.5400086186
 21
6.3271255245
  0
LINE
  5
32E
100
AcDbEntity
  8
ALL_ASSEMBLY_MEMBERS
100
AcDbLine
 62
7
  6
BYLAYER
 10
5.3641957772
 20
6.0829901658
 11
5.373250252
 21
6.080221935
  0
LINE
  5
32F
100
AcDbEntity
  8
ALL_ASSEMBLY_MEMBERS
100
AcDbLine
 62
7
  6
BYLAYER
 10
4.5197322126
 20
6.3575467571
 11
4.5286845618
 21
6.3544642161
  0
LINE
  5
330
100
AcDbEntity
  8
ALL_ASSEMBLY_MEMBERS
100
AcDbLine
 62
7
  6
BYLAYER
 10
5.3390168635
 20
6.067439231
 11
5.3477882767
 21
6.0642466977
  0
LINE
  5
331
100
AcDbEntity
  8
ALL_ASSEMBLY_MEMBERS
100
AcDbLine
 62
7
  6
BYLAYER
 10
5.6250532935
 20
6.4911271531
 11
5.6184761363
 21
6.4979379987
  0
LINE
  5
332
100
AcDbEntity
  8
ALL_ASSEMBLY_MEMBERS
100
AcDbLine
 62
7
  6
BYLAYER
 10
5.0267767988
 20
7.1214590007
 11
5.020319509
 21
7.1283835963
  0
LINE
  5
333
100
AcDbEntity
  8
ALL_ASSEMBLY_MEMBERS
100
AcDbLine
 62
7
  6
BYLAYER
 10
5.6208254027
 20
6.4614542355
 11
5.6146137114
 21
6.4685999689
  0
LINE
  5
334
100
AcDbEntity
  8
ALL_ASSEMBLY_MEMBERS
100
AcDbLine
 62
7
  6
BYLAYER
 10
5.0563578452
 20
7.1223370484
 11
5.0503578452
 21
7.1294875699
  0
LINE
  5
335
100
AcDbEntity
  8
ALL_ASSEMBLY_MEMBERS
100
AcDbLine
 62
7
  6
BYLAYER
 10
5.6150503456
 20
6.4320432543
 11
5.609221146
 21
6.4395042896
  0
LINE
  5
336
100
AcDbEntity
  8
ALL_ASSEMBLY_MEMBERS
100
AcDbLine
 62
7
  6
BYLAYER
 10
5.0859388916
 20
7.1214590007
 11
5.0802407928
 21
7.1290206332
  0
LINE
  5
337
100
AcDbEntity
  8
ALL_ASSEMBLY_MEMBERS
100
AcDbLine
 62
7
  6
BYLAYER
 10
5.5040181271
 20
6.9144172062
 11
5.508821216
 21
6.9077553951
  0
LINE
  5
338
100
AcDbEntity
  8
ALL_ASSEMBLY_MEMBERS
100
AcDbLine
 62
7
  6
BYLAYER
 10
5.5156715594
 20
6.898254073
 11
5.5190612558
 21
6.8935526156
  0
LINE
  5
339
100
AcDbEntity
  8
ALL_ASSEMBLY_MEMBERS
100
AcDbLine
 62
7
  6
BYLAYER
 10
5.5190612558
 20
6.8935526156
 11
5.5222696289
 21
6.8886393983
  0
LINE
  5
33A
100
AcDbEntity
  8
ALL_ASSEMBLY_MEMBERS
100
AcDbLine
 62
7
  6
BYLAYER
 10
5.5327506369
 20
6.8725890615
 11
5.5331059731
 21
6.872044909
  0
LINE
  5
33B
100
AcDbEntity
  8
ALL_ASSEMBLY_MEMBERS
100
AcDbLine
 62
7
  6
BYLAYER
 10
5.5331059731
 20
6.872044909
 11
5.5378815076
 21
6.8639366962
  0
LINE
  5
33C
100
AcDbEntity
  8
ALL_ASSEMBLY_MEMBERS
100
AcDbLine
 62
7
  6
BYLAYER
 10
4.9388431229
 20
7.1098823126
 11
4.9313820876
 21
7.1157115123
  0
LINE
  5
33D
100
AcDbEntity
  8
ALL_ASSEMBLY_MEMBERS
100
AcDbLine
 62
7
  6
BYLAYER
 10
5.6288264033
 20
6.5510190118
 11
5.6216758817
 21
6.5570190118
  0
LINE
  5
33E
100
AcDbEntity
  8
ALL_ASSEMBLY_MEMBERS
100
AcDbLine
 62
7
  6
BYLAYER
 10
4.9679388023
 20
7.1152748781
 11
4.9607930688
 21
7.1214865694
  0
LINE
  5
33F
100
AcDbEntity
  8
ALL_ASSEMBLY_MEMBERS
100
AcDbLine
 62
7
  6
BYLAYER
 10
5.6277224296
 20
6.5209806757
 11
5.6207978341
 21
6.5274379655
  0
LINE
  5
340
100
AcDbEntity
  8
ALL_ASSEMBLY_MEMBERS
100
AcDbLine
 62
7
  6
BYLAYER
 10
4.9972768321
 20
7.119137303
 11
4.9904659864
 21
7.1257144602
  0
LINE
  5
341
100
AcDbEntity
  8
ALL_ASSEMBLY_MEMBERS
100
AcDbLine
 62
7
  6
BYLAYER
 10
5.4538841991
 20
6.9720161076
 11
5.4711510923
 21
6.9539302499
  0
LINE
  5
342
100
AcDbEntity
  8
ALL_ASSEMBLY_MEMBERS
100
AcDbLine
 62
7
  6
BYLAYER
 10
5.4711510923
 20
6.9539302499
 11
5.4880154388
 21
6.9345815534
  0
LINE
  5
343
100
AcDbEntity
  8
ALL_ASSEMBLY_MEMBERS
100
AcDbLine
 62
7
  6
BYLAYER
 10
5.4880154388
 20
6.9345815534
 11
5.5040181271
 21
6.9144172062
  0
LINE
  5
344
100
AcDbEntity
  8
ALL_ASSEMBLY_MEMBERS
100
AcDbLine
 62
7
  6
BYLAYER
 10
4.937347787
 20
6.5370190118
 11
4.9404686925
 21
6.5370190118
  0
LINE
  5
345
100
AcDbEntity
  8
ALL_ASSEMBLY_MEMBERS
100
AcDbLine
 62
7
  6
BYLAYER
 10
5.1721217681
 20
6.5370190118
 11
5.1753679034
 21
6.5370190118
  0
LINE
  5
346
100
AcDbEntity
  8
ALL_ASSEMBLY_MEMBERS
100
AcDbLine
 62
7
  6
BYLAYER
 10
5.6175810613
 20
6.6700886883
 11
5.609221146
 21
6.6745337341
  0
LINE
  5
347
100
AcDbEntity
  8
ALL_ASSEMBLY_MEMBERS
100
AcDbLine
 62
7
  6
BYLAYER
 10
4.8538030494
 20
7.0846922953
 11
4.8455219842
 21
7.0892825647
  0
LINE
  5
348
100
AcDbEntity
  8
ALL_ASSEMBLY_MEMBERS
100
AcDbLine
 62
7
  6
BYLAYER
 10
5.622729534
 20
6.6405615766
 11
5.6146137114
 21
6.6454380548
  0
LINE
  5
349
100
AcDbEntity
  8
ALL_ASSEMBLY_MEMBERS
100
AcDbLine
 62
7
  6
BYLAYER
 10
4.8816969296
 20
7.0945700363
 11
4.8736674494
 21
7.0995874124
  0
LINE
  5
34A
100
AcDbEntity
  8
ALL_ASSEMBLY_MEMBERS
100
AcDbLine
 62
7
  6
BYLAYER
 10
5.6263256213
 20
6.6108054805
 11
5.6184761363
 21
6.616100025
  0
LINE
  5
34B
100
AcDbEntity
  8
ALL_ASSEMBLY_MEMBERS
100
AcDbLine
 62
7
  6
BYLAYER
 10
4.9100695432
 20
7.1029743873
 11
4.9023136563
 21
7.1084051178
  0
LINE
  5
34C
100
AcDbEntity
  8
ALL_ASSEMBLY_MEMBERS
100
AcDbLine
 62
7
  6
BYLAYER
 10
5.6283594665
 20
6.5809019594
 11
5.6207978341
 21
6.5866000582
  0
LINE
  5
34D
100
AcDbEntity
  8
ALL_ASSEMBLY_MEMBERS
100
AcDbLine
 62
7
  6
BYLAYER
 10
5.4024374956
 20
7.0175756327
 11
5.41947942
 21
7.0037093049
  0
LINE
  5
34E
100
AcDbEntity
  8
ALL_ASSEMBLY_MEMBERS
100
AcDbLine
 62
7
  6
BYLAYER
 10
5.41947942
 20
7.0037093049
 11
5.4366417651
 21
6.9885639885
  0
LINE
  5
34F
100
AcDbEntity
  8
ALL_ASSEMBLY_MEMBERS
100
AcDbLine
 62
7
  6
BYLAYER
 10
5.4366417651
 20
6.9885639885
 11
5.4538841991
 21
6.9720161076
  0
LINE
  5
350
100
AcDbEntity
  8
ALL_ASSEMBLY_MEMBERS
100
AcDbLine
 62
7
  6
BYLAYER
 10
5.397769593
 20
7.0165777877
 11
5.388582649
 21
7.0142872253
  0
LINE
  5
351
100
AcDbEntity
  8
ALL_ASSEMBLY_MEMBERS
100
AcDbLine
 62
7
  6
BYLAYER
 10
4.5527479528
 20
6.8136210687
 11
4.5435224322
 21
6.8114911894
  0
LINE
  5
352
100
AcDbEntity
  8
ALL_ASSEMBLY_MEMBERS
100
AcDbLine
 62
7
  6
BYLAYER
 10
5.5691932582
 20
6.8114911894
 11
5.5599677376
 21
6.8136210687
  0
LINE
  5
353
100
AcDbEntity
  8
ALL_ASSEMBLY_MEMBERS
100
AcDbLine
 62
7
  6
BYLAYER
 10
4.7241330414
 20
7.0142872253
 11
4.7149460974
 21
7.0165777877
  0
LINE
  5
354
100
AcDbEntity
  8
ALL_ASSEMBLY_MEMBERS
100
AcDbLine
 62
7
  6
BYLAYER
 10
5.5818084799
 20
6.7843027124
 11
5.5727070718
 21
6.7869124992
  0
LINE
  5
355
100
AcDbEntity
  8
ALL_ASSEMBLY_MEMBERS
100
AcDbLine
 62
7
  6
BYLAYER
 10
4.7485199132
 20
7.0310478579
 11
4.7394654384
 21
7.0338160887
  0
LINE
  5
356
100
AcDbEntity
  8
ALL_ASSEMBLY_MEMBERS
100
AcDbLine
 62
7
  6
BYLAYER
 10
5.5929834778
 20
6.7564912666
 11
5.5840311286
 21
6.7595738076
  0
LINE
  5
357
100
AcDbEntity
  8
ALL_ASSEMBLY_MEMBERS
100
AcDbLine
 62
7
  6
BYLAYER
 10
4.7736988269
 20
7.0465987927
 11
4.7649274137
 21
7.049791326
  0
LINE
  5
358
100
AcDbEntity
  8
ALL_ASSEMBLY_MEMBERS
100
AcDbLine
 62
7
  6
BYLAYER
 10
5.6026876222
 20
6.7281330811
 11
5.5939088697
 21
6.7316799274
  0
LINE
  5
359
100
AcDbEntity
  8
ALL_ASSEMBLY_MEMBERS
100
AcDbLine
 62
7
  6
BYLAYER
 10
4.7997557884
 20
7.0606289043
 11
4.7910402738
 21
7.0643284207
  0
LINE
  5
35A
100
AcDbEntity
  8
ALL_ASSEMBLY_MEMBERS
100
AcDbLine
 62
7
  6
BYLAYER
 10
5.6108729245
 20
6.6993892224
 11
5.6024131368
 21
6.7033340862
  0
LINE
  5
35B
100
AcDbEntity
  8
ALL_ASSEMBLY_MEMBERS
100
AcDbLine
 62
7
  6
BYLAYER
 10
4.8264643579
 20
7.0733682385
 11
4.8179544054
 21
7.0775188196
  0
LINE
  5
35C
100
AcDbEntity
  8
ALL_ASSEMBLY_MEMBERS
100
AcDbLine
 62
7
  6
BYLAYER
 10
5.3197745456
 20
7.0712025186
 11
5.3359569145
 21
7.0622755356
  0
LINE
  5
35D
100
AcDbEntity
  8
ALL_ASSEMBLY_MEMBERS
100
AcDbLine
 62
7
  6
BYLAYER
 10
5.3359569145
 20
7.0622755356
 11
5.3523170963
 21
7.0525242785
  0
LINE
  5
35E
100
AcDbEntity
  8
ALL_ASSEMBLY_MEMBERS
100
AcDbLine
 62
7
  6
BYLAYER
 10
5.3523170963
 20
7.0525242785
 11
5.3688566002
 21
7.0418771994
  0
LINE
  5
35F
100
AcDbEntity
  8
ALL_ASSEMBLY_MEMBERS
100
AcDbLine
 62
7
  6
BYLAYER
 10
5.3688566002
 20
7.0418771994
 11
5.3855623446
 21
7.0302606096
  0
LINE
  5
360
100
AcDbEntity
  8
ALL_ASSEMBLY_MEMBERS
100
AcDbLine
 62
7
  6
BYLAYER
 10
5.3855623446
 20
7.0302606096
 11
5.4024374956
 21
7.0175756327
  0
LINE
  5
361
100
AcDbEntity
  8
ALL_ASSEMBLY_MEMBERS
100
AcDbLine
 62
7
  6
BYLAYER
 10
5.421353148
 20
6.9980798681
 11
5.4120589157
 21
6.9962732523
  0
LINE
  5
362
100
AcDbEntity
  8
ALL_ASSEMBLY_MEMBERS
100
AcDbLine
 62
7
  6
BYLAYER
 10
4.5667780643
 20
6.8396780301
 11
4.557585531
 21
6.8380571385
  0
LINE
  5
363
100
AcDbEntity
  8
ALL_ASSEMBLY_MEMBERS
100
AcDbLine
 62
7
  6
BYLAYER
 10
5.4439362763
 20
6.9783730313
 11
5.4345602304
 21
6.977055314
  0
LINE
  5
364
100
AcDbEntity
  8
ALL_ASSEMBLY_MEMBERS
100
AcDbLine
 62
7
  6
BYLAYER
 10
4.5823289991
 20
6.8648569439
 11
4.5729313839
 21
6.8637030618
  0
LINE
  5
365
100
AcDbEntity
  8
ALL_ASSEMBLY_MEMBERS
100
AcDbLine
 62
7
  6
BYLAYER
 10
5.4653968853
 20
6.9575727706
 11
5.4560980624
 21
6.956759229
  0
LINE
  5
366
100
AcDbEntity
  8
ALL_ASSEMBLY_MEMBERS
100
AcDbLine
 62
7
  6
BYLAYER
 10
4.5990896317
 20
6.8892438156
 11
4.5896445061
 21
6.8885833481
  0
LINE
  5
367
100
AcDbEntity
  8
ALL_ASSEMBLY_MEMBERS
100
AcDbLine
 62
7
  6
BYLAYER
 10
5.4858565693
 20
6.9355518321
 11
5.4763941474
 21
6.9352213971
  0
LINE
  5
368
100
AcDbEntity
  8
ALL_ASSEMBLY_MEMBERS
100
AcDbLine
 62
7
  6
BYLAYER
 10
4.6171036047
 20
6.9127200823
 11
4.6076368571
 21
6.9125548396
  0
LINE
  5
369
100
AcDbEntity
  8
ALL_ASSEMBLY_MEMBERS
100
AcDbLine
 62
7
  6
BYLAYER
 10
5.5050788333
 20
6.9125548396
 11
5.4956120857
 21
6.9127200823
  0
LINE
  5
36A
100
AcDbEntity
  8
ALL_ASSEMBLY_MEMBERS
100
AcDbLine
 62
7
  6
BYLAYER
 10
4.636321543
 20
6.9352213971
 11
4.6268591211
 21
6.9355518321
  0
LINE
  5
36B
100
AcDbEntity
  8
ALL_ASSEMBLY_MEMBERS
100
AcDbLine
 62
7
  6
BYLAYER
 10
5.5230711843
 20
6.8885833481
 11
5.5136260587
 21
6.8892438156
  0
LINE
  5
36C
100
AcDbEntity
  8
ALL_ASSEMBLY_MEMBERS
100
AcDbLine
 62
7
  6
BYLAYER
 10
4.656617628
 20
6.956759229
 11
4.6473188051
 21
6.9575727706
  0
LINE
  5
36D
100
AcDbEntity
  8
ALL_ASSEMBLY_MEMBERS
100
AcDbLine
 62
7
  6
BYLAYER
 10
5.5397843065
 20
6.8637030618
 11
5.5303866913
 21
6.8648569439
  0
LINE
  5
36E
100
AcDbEntity
  8
ALL_ASSEMBLY_MEMBERS
100
AcDbLine
 62
7
  6
BYLAYER
 10
4.67815546
 20
6.977055314
 11
4.6687794141
 21
6.9783730313
  0
LINE
  5
36F
100
AcDbEntity
  8
ALL_ASSEMBLY_MEMBERS
100
AcDbLine
 62
7
  6
BYLAYER
 10
5.5551301594
 20
6.8380571385
 11
5.5459376261
 21
6.8396780301
  0
LINE
  5
370
100
AcDbEntity
  8
ALL_ASSEMBLY_MEMBERS
100
AcDbLine
 62
7
  6
BYLAYER
 10
4.7006567747
 20
6.9962732523
 11
4.6913625424
 21
6.9980798681
  0
LINE
  5
371
100
AcDbEntity
  8
ALL_ASSEMBLY_MEMBERS
100
AcDbLine
 62
7
  6
BYLAYER
 10
5.2256024371
 20
7.110658392
 11
5.2410425279
 21
7.1055362598
  0
LINE
  5
372
100
AcDbEntity
  8
ALL_ASSEMBLY_MEMBERS
100
AcDbLine
 62
7
  6
BYLAYER
 10
5.2410425279
 20
7.1055362598
 11
5.2565539179
 21
7.0998838138
  0
LINE
  5
373
100
AcDbEntity
  8
ALL_ASSEMBLY_MEMBERS
100
AcDbLine
 62
7
  6
BYLAYER
 10
5.2565539179
 20
7.0998838138
 11
5.2721585872
 21
7.093667921
  0
LWPOLYLINE
  5
374
100
AcDbEntity
  8
ALL_ASSEMBLY_MEMBERS
100
AcDbPolyline
 62
7
  6
BYLAYER
 90
3
 70
0
 10
5.2721585872
 20
7.093667921
 10
5.2878857363
 20
7.0868463355
 10
5.3037550632
 20
7.0793736173
  0
LINE
  5
375
100
AcDbEntity
  8
ALL_ASSEMBLY_MEMBERS
100
AcDbLine
 62
7
  6
BYLAYER
 10
5.3037550632
 20
7.0793736173
 11
5.3197745456
 21
7.0712025186
  0
LWPOLYLINE
  5
376
100
AcDbEntity
  8
ALL_ASSEMBLY_MEMBERS
100
AcDbPolyline
 62
7
  6
BYLAYER
 90
12
 70
0
 10
5.0563578452
 20
7.1367585214
 10
5.0718049152
 20
7.1365456621
 10
5.0872672926
 20
7.1359060919
 10
5.1027106771
 20
7.1348403138
 10
5.1181298084
 20
7.1333482838
 10
5.1335178073
 20
7.1314296316
 10
5.1488805097
 20
7.1290816847
 10
5.1642241542
 20
7.1263000971
 10
5.1795535744
 20
7.1230788892
 10
5.194878789
 20
7.1194088613
 10
5.210220004
 20
7.1152753321
 10
5.2256024371
 20
7.110658392
  0
ARC
  5
377
100
AcDbEntity
  8
0
100
AcDbCircle
 62
7
  6
BYLAYER
 10
4.9743578452
 20
1.9200190118
 40
1.267
100
AcDbArc
 50
37.1932966364
 51
51.353381435
  0
ARC
  5
378
100
AcDbEntity
  8
ALL_FEATURES
100
AcDbCircle
 62
7
  6
BYLAYER
 10
4.9743578452
 20
1.9200190118
 40
1.267
100
AcDbArc
 50
37.1932966364
 51
51.353381435
  0
ARC
  5
379
100
AcDbEntity
  8
ALL_FEATURES
100
AcDbCircle
 62
7
  6
BYLAYER
 10
4.4239606414
 20
1.9910190118
 40
0.652
100
AcDbArc
 50
133.3959580377
 51
143.0776501053
  0
ARC
  5
37A
100
AcDbEntity
  8
ALL_FEATURES
100
AcDbCircle
 62
7
  6
BYLAYER
 10
3.5107685819
 20
2.9070190118
 40
0.607
100
AcDbArc
 50
322.0112797187
 51
335.6081627402
  0
ARC
  5
37B
100
AcDbEntity
  8
ALL_ASSEMBLY_MEMBERS
100
AcDbCircle
 62
7
  6
BYLAYER
 10
4.2366705328
 20
3.3369991016
 40
0.26
100
AcDbArc
 50
323.190597163
 51
353.2361752286
  0
ARC
  5
37C
100
AcDbEntity
  8
0
100
AcDbCircle
 62
7
  6
BYLAYER
 10
4.2596648571
 20
3.018903734
 40
0.14
100
AcDbArc
 50
308.646618565
 51
353.4624504845
  0
ARC
  5
37D
100
AcDbEntity
  8
ALL_ASSEMBLY_MEMBERS
100
AcDbCircle
 62
7
  6
BYLAYER
 10
4.5087779011
 20
3.1333671267
 40
0.079865269
100
AcDbArc
 50
143.190597163
 51
176.5087220208
  0
ARC
  5
37E
100
AcDbEntity
  8
0
100
AcDbCircle
 62
7
  6
BYLAYER
 10
4.4593578452
 20
2.9960190118
 40
0.061
100
AcDbArc
 50
90.0
 51
173.4624504845
  0
ARC
  5
37F
100
AcDbEntity
  8
ALL_FEATURES
100
AcDbCircle
 62
7
  6
BYLAYER
 10
4.4593578452
 20
2.9960190118
 40
0.061
100
AcDbArc
 50
90.0
 51
173.4624504845
  0
ARC
  5
380
100
AcDbEntity
  8
ALL_ASSEMBLY_MEMBERS
100
AcDbCircle
 62
7
  6
BYLAYER
 10
4.4819475496
 20
3.1350040418
 40
0.0529850299
100
AcDbArc
 50
176.5087220208
 51
270.0
  0
ARC
  5
381
100
AcDbEntity
  8
ALL_FEATURES
100
AcDbCircle
 62
7
  6
BYLAYER
 10
4.1363578452
 20
2.3795190118
 40
0.0515
100
AcDbArc
 50
213.6977346109
 51
270.0
  0
ARC
  5
382
100
AcDbEntity
  8
0
100
AcDbCircle
 62
7
  6
BYLAYER
 10
3.9485315546
 20
2.4938422248
 40
0.04
100
AcDbArc
 50
313.3959580375
 51
21.8359643632
  0
ARC
  5
383
100
AcDbEntity
  8
0
100
AcDbCircle
 62
7
  6
BYLAYER
 10
4.0972007981
 20
2.7101082494
 40
0.04
100
AcDbArc
 50
280.1657184715
 51
322.8067033632
  0
ARC
  5
384
100
AcDbEntity
  8
0
100
AcDbCircle
 62
7
  6
BYLAYER
 10
3.9182399509
 20
2.3810190118
 40
0.03
100
AcDbArc
 50
225.2371534255
 51
270.0
  0
ARC
  5
385
100
AcDbEntity
  8
0
100
AcDbCircle
 62
7
  6
BYLAYER
 10
3.9267025012
 20
2.3646743905
 40
0.03
100
AcDbArc
 50
143.0776501049
 51
189.5092478585
  0
ARC
  5
386
100
AcDbEntity
  8
0
100
AcDbCircle
 62
7
  6
BYLAYER
 10
4.0088679696
 20
2.5180190118
 40
0.025
100
AcDbArc
 50
142.0112797187
 51
201.8359643631
  0
ARC
  5
387
100
AcDbEntity
  8
ALL_FEATURES
100
AcDbCircle
 62
7
  6
BYLAYER
 10
4.0088679696
 20
2.5180190118
 40
0.025
100
AcDbArc
 50
142.0112797187
 51
201.8359643631
  0
ARC
  5
388
100
AcDbEntity
  8
ALL_FEATURES
100
AcDbCircle
 62
7
  6
BYLAYER
 10
4.0863578452
 20
2.6460190118
 40
0.025
100
AcDbArc
 50
90.0
 51
155.6081627402
  0
ARC
  5
389
100
AcDbEntity
  8
ALL_ASSEMBLY_MEMBERS
100
AcDbCircle
 62
7
  6
BYLAYER
 10
-6.4019104028
 20
4.5987611258
 40
10.9731436903
100
AcDbArc
 50
353.2361752286
 51
4.6814718531
  0
ARC
  5
38A
100
AcDbEntity
  8
ALL_ASSEMBLY_MEMBERS
100
AcDbCircle
 62
7
  6
BYLAYER
 10
4.3552255442
 20
5.4796566572
 40
0.18
100
AcDbArc
 50
4.6814718531
 51
44.7847237419
  0
ARC
  5
38B
100
AcDbEntity
  8
ALL_ASSEMBLY_MEMBERS
100
AcDbCircle
 62
7
  6
BYLAYER
 10
4.5248578452
 20
5.6480190118
 40
0.059
100
AcDbArc
 50
90.0
 51
224.7847237419
  0
ARC
  5
38C
100
AcDbEntity
  8
ALL_ASSEMBLY_MEMBERS
100
AcDbCircle
 62
7
  6
BYLAYER
 10
4.2178767755
 20
5.928021487
 40
0.3697879375
100
AcDbArc
 50
19.5418862933
 51
36.7005709135
  0
ARC
  5
38D
100
AcDbEntity
  8
ALL_ASSEMBLY_MEMBERS
100
AcDbCircle
 62
7
  6
BYLAYER
 10
4.2178767755
 20
5.928021487
 40
0.3697879375
100
AcDbArc
 50
328.957659928
 51
344.9651429501
  0
ARC
  5
38E
100
AcDbEntity
  8
ALL_ASSEMBLY_MEMBERS
100
AcDbCircle
 62
7
  6
BYLAYER
 10
4.4397986559
 20
5.8684129708
 40
0.14
100
AcDbArc
 50
344.9651429501
 51
41.382629864
  0
ARC
  5
38F
100
AcDbEntity
  8
ALL_ASSEMBLY_MEMBERS
100
AcDbCircle
 62
7
  6
BYLAYER
 10
4.5823578452
 20
5.9940190118
 40
0.05
100
AcDbArc
 50
115.0641059958
 51
221.382629864
  0
ARC
  5
390
100
AcDbEntity
  8
ALL_ASSEMBLY_MEMBERS
100
AcDbCircle
 62
7
  6
BYLAYER
 10
4.5518418054
 20
5.7270190118
 40
0.02
100
AcDbArc
 50
148.957659928
 51
270.0
  0
ARC
  5
391
100
AcDbEntity
  8
ALL_ASSEMBLY_MEMBERS
100
AcDbCircle
 62
7
  6
BYLAYER
 10
4.5569399235
 20
6.048369074
 40
0.01
100
AcDbArc
 50
295.0641059958
 51
19.5418862933
  0
CIRCLE
  5
392
100
AcDbEntity
  8
ALL_ASSEMBLY_MEMBERS
100
AcDbCircle
 62
7
  6
BYLAYER
 10
4.9094115321
 20
6.3547647632
 40
0.013
  0
CIRCLE
  5
393
100
AcDbEntity
  8
ALL_ASSEMBLY_MEMBERS
100
AcDbCircle
 62
7
  6
BYLAYER
 10
4.8541035966
 20
6.4100726988
 40
0.013
  0
CIRCLE
  5
394
100
AcDbEntity
  8
ALL_ASSEMBLY_MEMBERS
100
AcDbCircle
 62
7
  6
BYLAYER
 10
4.8185937161
 20
6.4797647632
 40
0.013
  0
CIRCLE
  5
395
100
AcDbEntity
  8
ALL_ASSEMBLY_MEMBERS
100
AcDbCircle
 62
7
  6
BYLAYER
 10
4.8917774553
 20
6.4619984794
 40
0.013
  0
CIRCLE
  5
396
100
AcDbEntity
  8
ALL_ASSEMBLY_MEMBERS
100
AcDbCircle
 62
7
  6
BYLAYER
 10
4.8673578452
 20
6.5371543114
 40
0.013
  0
CIRCLE
  5
397
100
AcDbEntity
  8
ALL_ASSEMBLY_MEMBERS
100
AcDbCircle
 62
7
  6
BYLAYER
 10
4.9276835717
 20
6.5385006064
 40
0.013
  0
CIRCLE
  5
398
100
AcDbEntity
  8
ALL_ASSEMBLY_MEMBERS
100
AcDbCircle
 62
7
  6
BYLAYER
 10
4.8063578452
 20
6.5570190118
 40
0.013
  0
CIRCLE
  5
399
100
AcDbEntity
  8
ALL_ASSEMBLY_MEMBERS
100
AcDbCircle
 62
7
  6
BYLAYER
 10
4.8185937161
 20
6.6342732604
 40
0.013
  0
CIRCLE
  5
39A
100
AcDbEntity
  8
ALL_ASSEMBLY_MEMBERS
100
AcDbCircle
 62
7
  6
BYLAYER
 10
4.8541035966
 20
6.7039653249
 40
0.013
  0
CIRCLE
  5
39B
100
AcDbEntity
  8
ALL_ASSEMBLY_MEMBERS
100
AcDbCircle
 62
7
  6
BYLAYER
 10
4.9094115321
 20
6.7592732604
 40
0.013
  0
CIRCLE
  5
39C
100
AcDbEntity
  8
ALL_ASSEMBLY_MEMBERS
100
AcDbCircle
 62
7
  6
BYLAYER
 10
4.8756180521
 20
6.6157449305
 40
0.013
  0
CIRCLE
  5
39D
100
AcDbEntity
  8
ALL_ASSEMBLY_MEMBERS
100
AcDbCircle
 62
7
  6
BYLAYER
 10
4.9151298112
 20
6.6841813048
 40
0.013
  0
CIRCLE
  5
39E
100
AcDbEntity
  8
ALL_ASSEMBLY_MEMBERS
100
AcDbCircle
 62
7
  6
BYLAYER
 10
4.9791035966
 20
6.3192548828
 40
0.013
  0
CIRCLE
  5
39F
100
AcDbEntity
  8
ALL_ASSEMBLY_MEMBERS
100
AcDbCircle
 62
7
  6
BYLAYER
 10
5.0168460861
 20
6.3711308002
 40
0.013
  0
CIRCLE
  5
3A0
100
AcDbEntity
  8
ALL_ASSEMBLY_MEMBERS
100
AcDbCircle
 62
7
  6
BYLAYER
 10
4.94465451
 20
6.4032725608
 40
0.013
  0
CIRCLE
  5
3A1
100
AcDbEntity
  8
ALL_ASSEMBLY_MEMBERS
100
AcDbCircle
 62
7
  6
BYLAYER
 10
5.0197492377
 20
6.432280045
 40
0.013
  0
CIRCLE
  5
3A2
100
AcDbEntity
  8
ALL_ASSEMBLY_MEMBERS
100
AcDbCircle
 62
7
  6
BYLAYER
 10
4.9581218558
 20
6.4718738981
 40
0.013
  0
CIRCLE
  5
3A3
100
AcDbEntity
  8
ALL_ASSEMBLY_MEMBERS
100
AcDbCircle
 62
7
  6
BYLAYER
 10
4.9791035966
 20
6.7947831409
 40
0.013
  0
CIRCLE
  5
3A4
100
AcDbEntity
  8
ALL_ASSEMBLY_MEMBERS
100
AcDbCircle
 62
7
  6
BYLAYER
 10
4.9790611804
 20
6.7306301634
 40
0.013
  0
CIRCLE
  5
3A5
100
AcDbEntity
  8
ALL_ASSEMBLY_MEMBERS
100
AcDbCircle
 62
7
  6
BYLAYER
 10
4.9380982836
 20
6.6110067521
 40
0.013
  0
CIRCLE
  5
3A6
100
AcDbEntity
  8
ALL_ASSEMBLY_MEMBERS
100
AcDbCircle
 62
7
  6
BYLAYER
 10
4.9860594085
 20
6.6663722459
 40
0.013
  0
CIRCLE
  5
3A7
100
AcDbEntity
  8
ALL_ASSEMBLY_MEMBERS
100
AcDbCircle
 62
7
  6
BYLAYER
 10
5.0563396938
 20
6.6870190106
 40
0.013
  0
ARC
  5
3A8
100
AcDbEntity
  8
ALL_FEATURES
100
AcDbCircle
 62
7
  6
BYLAYER
 10
5.1383578452
 20
1.9200190118
 40
1.267
100
AcDbArc
 50
128.646618565
 51
142.8067033636
  0
ARC
  5
3A9
100
AcDbEntity
  8
0
100
AcDbCircle
 62
7
  6
BYLAYER
 10
5.688755049
 20
1.9910190118
 40
0.652
100
AcDbArc
 50
36.9223498947
 51
46.6040419623
  0
ARC
  5
3AA
100
AcDbEntity
  8
ALL_FEATURES
100
AcDbCircle
 62
7
  6
BYLAYER
 10
5.688755049
 20
1.9910190118
 40
0.652
100
AcDbArc
 50
36.9223498947
 51
46.6040419623
  0
ARC
  5
3AB
100
AcDbEntity
  8
0
100
AcDbCircle
 62
7
  6
BYLAYER
 10
5.8530508333
 20
3.018903734
 40
0.14
100
AcDbArc
 50
186.5375495155
 51
231.353381435
  0
ARC
  5
3AC
100
AcDbEntity
  8
ALL_ASSEMBLY_MEMBERS
100
AcDbCircle
 62
7
  6
BYLAYER
 10
5.6039377893
 20
3.1333671267
 40
0.079865269
100
AcDbArc
 50
3.4912779792
 51
36.809402837
  0
ARC
  5
3AD
100
AcDbEntity
  8
0
100
AcDbCircle
 62
7
  6
BYLAYER
 10
5.6533578452
 20
2.9960190118
 40
0.061
100
AcDbArc
 50
6.5375495155
 51
90.0
  0
ARC
  5
3AE
100
AcDbEntity
  8
ALL_FEATURES
100
AcDbCircle
 62
7
  6
BYLAYER
 10
5.6533578452
 20
2.9960190118
 40
0.061
100
AcDbArc
 50
6.5375495155
 51
90.0
  0
ARC
  5
3AF
100
AcDbEntity
  8
ALL_ASSEMBLY_MEMBERS
100
AcDbCircle
 62
7
  6
BYLAYER
 10
5.6307681408
 20
3.1350040418
 40
0.0529850299
100
AcDbArc
 50
270.0
 51
3.4912779792
  0
ARC
  5
3B0
100
AcDbEntity
  8
ALL_FEATURES
100
AcDbCircle
 62
7
  6
BYLAYER
 10
5.9763578452
 20
2.3795190118
 40
0.0515
100
AcDbArc
 50
270.0
 51
326.3022653891
  0
ARC
  5
3B1
100
AcDbEntity
  8
0
100
AcDbCircle
 62
7
  6
BYLAYER
 10
6.1641841358
 20
2.4938422248
 40
0.04
100
AcDbArc
 50
158.1640356367
 51
226.6040419625
  0
ARC
  5
3B2
100
AcDbEntity
  8
0
100
AcDbCircle
 62
7
  6
BYLAYER
 10
6.1944757395
 20
2.3810190118
 40
0.03
100
AcDbArc
 50
270.0
 51
314.7628465745
  0
ARC
  5
3B3
100
AcDbEntity
  8
0
100
AcDbCircle
 62
7
  6
BYLAYER
 10
6.1860131892
 20
2.3646743905
 40
0.03
100
AcDbArc
 50
350.4907521415
 51
36.9223498951
  0
ARC
  5
3B4
100
AcDbEntity
  8
0
100
AcDbCircle
 62
7
  6
BYLAYER
 10
6.1038477208
 20
2.5180190118
 40
0.025
100
AcDbArc
 50
338.1640356369
 51
37.9887202813
  0
ARC
  5
3B5
100
AcDbEntity
  8
ALL_FEATURES
100
AcDbCircle
 62
7
  6
BYLAYER
 10
6.1038477208
 20
2.5180190118
 40
0.025
100
AcDbArc
 50
338.1640356369
 51
37.9887202813
  0
ARC
  5
3B6
100
AcDbEntity
  8
ALL_FEATURES
100
AcDbCircle
 62
7
  6
BYLAYER
 10
6.6019471085
 20
2.9070190118
 40
0.607
100
AcDbArc
 50
204.3918372598
 51
217.9887202813
  0
ARC
  5
3B7
100
AcDbEntity
  8
ALL_ASSEMBLY_MEMBERS
100
AcDbCircle
 62
7
  6
BYLAYER
 10
5.8760451576
 20
3.3369991016
 40
0.26
100
AcDbArc
 50
186.7638247714
 51
216.809402837
  0
ARC
  5
3B8
100
AcDbEntity
  8
0
100
AcDbCircle
 62
7
  6
BYLAYER
 10
6.0155148923
 20
2.7101082494
 40
0.04
100
AcDbArc
 50
217.1932966367
 51
259.8342815285
  0
ARC
  5
3B9
100
AcDbEntity
  8
ALL_FEATURES
100
AcDbCircle
 62
7
  6
BYLAYER
 10
6.0263578452
 20
2.6460190118
 40
0.025
100
AcDbArc
 50
24.3918372598
 51
90.0
  0
ARC
  5
3BA
100
AcDbEntity
  8
ALL_ASSEMBLY_MEMBERS
100
AcDbCircle
 62
7
  6
BYLAYER
 10
5.7574901462
 20
5.4796566572
 40
0.18
100
AcDbArc
 50
135.2152762581
 51
175.3185281469
  0
ARC
  5
3BB
100
AcDbEntity
  8
ALL_ASSEMBLY_MEMBERS
100
AcDbCircle
 62
7
  6
BYLAYER
 10
5.5878578452
 20
5.6480190118
 40
0.059
100
AcDbArc
 50
315.2152762581
 51
90.0
  0
ARC
  5
3BC
100
AcDbEntity
  8
ALL_ASSEMBLY_MEMBERS
100
AcDbCircle
 62
7
  6
BYLAYER
 10
5.0563578452
 20
6.5530190118
 40
0.676
100
AcDbArc
 50
323.2994290865
 51
216.7005709135
  0
CIRCLE
  5
3BD
100
AcDbEntity
  8
ALL_ASSEMBLY_MEMBERS
100
AcDbCircle
 62
7
  6
BYLAYER
 10
5.1336120938
 20
6.3192548828
 40
0.013
  0
CIRCLE
  5
3BE
100
AcDbEntity
  8
ALL_ASSEMBLY_MEMBERS
100
AcDbCircle
 62
7
  6
BYLAYER
 10
5.1680611804
 20
6.4032725608
 40
0.013
  0
CIRCLE
  5
3BF
100
AcDbEntity
  8
ALL_ASSEMBLY_MEMBERS
100
AcDbCircle
 62
7
  6
BYLAYER
 10
5.0958696043
 20
6.3711308002
 40
0.013
  0
CIRCLE
  5
3C0
100
AcDbEntity
  8
ALL_ASSEMBLY_MEMBERS
100
AcDbCircle
 62
7
  6
BYLAYER
 10
5.1546164193
 20
6.4718999621
 40
0.013
  0
CIRCLE
  5
3C1
100
AcDbEntity
  8
ALL_ASSEMBLY_MEMBERS
100
AcDbCircle
 62
7
  6
BYLAYER
 10
5.0929995435
 20
6.4322897613
 40
0.013
  0
CIRCLE
  5
3C2
100
AcDbEntity
  8
ALL_ASSEMBLY_MEMBERS
100
AcDbCircle
 62
7
  6
BYLAYER
 10
5.0563578452
 20
6.3070190118
 40
0.013
  0
ARC
  5
3C3
100
AcDbEntity
  8
ALL_ASSEMBLY_MEMBERS
100
AcDbCircle
 62
7
  6
BYLAYER
 10
5.0563578452
 20
6.5570190118
 40
0.5725
100
AcDbArc
 50
75.6004907784
 51
77.3908983624
  0
ARC
  5
3C4
100
AcDbEntity
  8
ALL_ASSEMBLY_MEMBERS
100
AcDbCircle
 62
7
  6
BYLAYER
 10
5.0563578452
 20
6.5570190118
 40
0.5725
100
AcDbArc
 50
78.6091016376
 51
80.3908983624
  0
ARC
  5
3C5
100
AcDbEntity
  8
ALL_ASSEMBLY_MEMBERS
100
AcDbCircle
 62
7
  6
BYLAYER
 10
5.0563578452
 20
6.5570190118
 40
0.5725
100
AcDbArc
 50
81.6091016376
 51
83.3908983624
  0
ARC
  5
3C6
100
AcDbEntity
  8
ALL_ASSEMBLY_MEMBERS
100
AcDbCircle
 62
7
  6
BYLAYER
 10
5.0563578452
 20
6.5570190118
 40
0.5725
100
AcDbArc
 50
84.6091016376
 51
86.3908983624
  0
ARC
  5
3C7
100
AcDbEntity
  8
ALL_ASSEMBLY_MEMBERS
100
AcDbCircle
 62
7
  6
BYLAYER
 10
5.0563578452
 20
6.5570190118
 40
0.5725
100
AcDbArc
 50
87.6091016376
 51
89.3995092216
  0
ARC
  5
3C8
100
AcDbEntity
  8
ALL_ASSEMBLY_MEMBERS
100
AcDbCircle
 62
7
  6
BYLAYER
 10
5.0563578452
 20
6.5570190118
 40
0.5725
100
AcDbArc
 50
60.6004907784
 51
62.3908983624
  0
ARC
  5
3C9
100
AcDbEntity
  8
ALL_ASSEMBLY_MEMBERS
100
AcDbCircle
 62
7
  6
BYLAYER
 10
5.0563578452
 20
6.5570190118
 40
0.5725
100
AcDbArc
 50
63.6091016376
 51
65.3908983624
  0
ARC
  5
3CA
100
AcDbEntity
  8
ALL_ASSEMBLY_MEMBERS
100
AcDbCircle
 62
7
  6
BYLAYER
 10
5.0563578452
 20
6.5570190118
 40
0.5725
100
AcDbArc
 50
66.6091016376
 51
68.3908983624
  0
ARC
  5
3CB
100
AcDbEntity
  8
ALL_ASSEMBLY_MEMBERS
100
AcDbCircle
 62
7
  6
BYLAYER
 10
5.0563578452
 20
6.5570190118
 40
0.5725
100
AcDbArc
 50
69.6091016376
 51
71.3908983624
  0
ARC
  5
3CC
100
AcDbEntity
  8
ALL_ASSEMBLY_MEMBERS
100
AcDbCircle
 62
7
  6
BYLAYER
 10
5.0563578452
 20
6.5570190118
 40
0.5725
100
AcDbArc
 50
72.6091016376
 51
74.3995092216
  0
ARC
  5
3CD
100
AcDbEntity
  8
ALL_ASSEMBLY_MEMBERS
100
AcDbCircle
 62
7
  6
BYLAYER
 10
5.0563578452
 20
6.5570190118
 40
0.5725
100
AcDbArc
 50
45.6004907784
 51
47.3908983624
  0
ARC
  5
3CE
100
AcDbEntity
  8
ALL_ASSEMBLY_MEMBERS
100
AcDbCircle
 62
7
  6
BYLAYER
 10
5.0563578452
 20
6.5570190118
 40
0.5725
100
AcDbArc
 50
48.6091016376
 51
50.3908983624
  0
ARC
  5
3CF
100
AcDbEntity
  8
ALL_ASSEMBLY_MEMBERS
100
AcDbCircle
 62
7
  6
BYLAYER
 10
5.0563578452
 20
6.5570190118
 40
0.5725
100
AcDbArc
 50
51.6091016376
 51
53.3908983624
  0
ARC
  5
3D0
100
AcDbEntity
  8
ALL_ASSEMBLY_MEMBERS
100
AcDbCircle
 62
7
  6
BYLAYER
 10
5.0563578452
 20
6.5570190118
 40
0.5725
100
AcDbArc
 50
54.6091016376
 51
56.3908983624
  0
ARC
  5
3D1
100
AcDbEntity
  8
ALL_ASSEMBLY_MEMBERS
100
AcDbCircle
 62
7
  6
BYLAYER
 10
5.0563578452
 20
6.5570190118
 40
0.5725
100
AcDbArc
 50
57.6091016376
 51
59.3995092216
  0
ARC
  5
3D2
100
AcDbEntity
  8
ALL_ASSEMBLY_MEMBERS
100
AcDbCircle
 62
7
  6
BYLAYER
 10
5.0563578452
 20
6.5570190118
 40
0.5725
100
AcDbArc
 50
30.6004907784
 51
32.3908983624
  0
ARC
  5
3D3
100
AcDbEntity
  8
ALL_ASSEMBLY_MEMBERS
100
AcDbCircle
 62
7
  6
BYLAYER
 10
5.0563578452
 20
6.5570190118
 40
0.5725
100
AcDbArc
 50
33.6091016376
 51
35.3908983624
  0
ARC
  5
3D4
100
AcDbEntity
  8
ALL_ASSEMBLY_MEMBERS
100
AcDbCircle
 62
7
  6
BYLAYER
 10
5.0563578452
 20
6.5570190118
 40
0.5725
100
AcDbArc
 50
36.6091016376
 51
38.3908983624
  0
ARC
  5
3D5
100
AcDbEntity
  8
ALL_ASSEMBLY_MEMBERS
100
AcDbCircle
 62
7
  6
BYLAYER
 10
5.0563578452
 20
6.5570190118
 40
0.5725
100
AcDbArc
 50
39.6091016376
 51
41.3908983624
  0
ARC
  5
3D6
100
AcDbEntity
  8
ALL_ASSEMBLY_MEMBERS
100
AcDbCircle
 62
7
  6
BYLAYER
 10
5.0563578452
 20
6.5570190118
 40
0.5725
100
AcDbArc
 50
42.6091016376
 51
44.3995092216
  0
ARC
  5
3D7
100
AcDbEntity
  8
ALL_ASSEMBLY_MEMBERS
100
AcDbCircle
 62
7
  6
BYLAYER
 10
5.0563578452
 20
6.5570190118
 40
0.5725
100
AcDbArc
 50
15.6004907784
 51
17.3908983624
  0
ARC
  5
3D8
100
AcDbEntity
  8
ALL_ASSEMBLY_MEMBERS
100
AcDbCircle
 62
7
  6
BYLAYER
 10
5.0563578452
 20
6.5570190118
 40
0.5725
100
AcDbArc
 50
18.6091016376
 51
20.3908983624
  0
ARC
  5
3D9
100
AcDbEntity
  8
ALL_ASSEMBLY_MEMBERS
100
AcDbCircle
 62
7
  6
BYLAYER
 10
5.0563578452
 20
6.5570190118
 40
0.5725
100
AcDbArc
 50
21.6091016376
 51
23.3908983624
  0
ARC
  5
3DA
100
AcDbEntity
  8
ALL_ASSEMBLY_MEMBERS
100
AcDbCircle
 62
7
  6
BYLAYER
 10
5.0563578452
 20
6.5570190118
 40
0.5725
100
AcDbArc
 50
24.6091016376
 51
26.3908983624
  0
ARC
  5
3DB
100
AcDbEntity
  8
ALL_ASSEMBLY_MEMBERS
100
AcDbCircle
 62
7
  6
BYLAYER
 10
5.0563578452
 20
6.5570190118
 40
0.5725
100
AcDbArc
 50
27.6091016376
 51
29.3995092216
  0
ARC
  5
3DC
100
AcDbEntity
  8
ALL_ASSEMBLY_MEMBERS
100
AcDbCircle
 62
7
  6
BYLAYER
 10
5.0563578452
 20
6.5570190118
 40
0.5725
100
AcDbArc
 50
0.6004907784
 51
2.3908983624
  0
ARC
  5
3DD
100
AcDbEntity
  8
ALL_ASSEMBLY_MEMBERS
100
AcDbCircle
 62
7
  6
BYLAYER
 10
5.0563578452
 20
6.5570190118
 40
0.5725
100
AcDbArc
 50
3.6091016376
 51
5.3908983624
  0
ARC
  5
3DE
100
AcDbEntity
  8
ALL_ASSEMBLY_MEMBERS
100
AcDbCircle
 62
7
  6
BYLAYER
 10
5.0563578452
 20
6.5570190118
 40
0.5725
100
AcDbArc
 50
6.6091016376
 51
8.3908983624
  0
ARC
  5
3DF
100
AcDbEntity
  8
ALL_ASSEMBLY_MEMBERS
100
AcDbCircle
 62
7
  6
BYLAYER
 10
5.0563578452
 20
6.5570190118
 40
0.5725
100
AcDbArc
 50
9.6091016376
 51
11.3908983624
  0
ARC
  5
3E0
100
AcDbEntity
  8
ALL_ASSEMBLY_MEMBERS
100
AcDbCircle
 62
7
  6
BYLAYER
 10
5.0563578452
 20
6.5570190118
 40
0.5725
100
AcDbArc
 50
12.6091016376
 51
14.3995092216
  0
ARC
  5
3E1
100
AcDbEntity
  8
ALL_ASSEMBLY_MEMBERS
100
AcDbCircle
 62
7
  6
BYLAYER
 10
5.0563578452
 20
6.5570190118
 40
0.5725
100
AcDbArc
 50
345.6004907784
 51
347.3908983624
  0
ARC
  5
3E2
100
AcDbEntity
  8
ALL_ASSEMBLY_MEMBERS
100
AcDbCircle
 62
7
  6
BYLAYER
 10
5.0563578452
 20
6.5570190118
 40
0.5725
100
AcDbArc
 50
348.6091016376
 51
350.3908983624
  0
ARC
  5
3E3
100
AcDbEntity
  8
ALL_ASSEMBLY_MEMBERS
100
AcDbCircle
 62
7
  6
BYLAYER
 10
5.0563578452
 20
6.5570190118
 40
0.5725
100
AcDbArc
 50
351.6091016376
 51
353.3908983624
  0
ARC
  5
3E4
100
AcDbEntity
  8
ALL_ASSEMBLY_MEMBERS
100
AcDbCircle
 62
7
  6
BYLAYER
 10
5.0563578452
 20
6.5570190118
 40
0.5725
100
AcDbArc
 50
354.6091016376
 51
356.3908983624
  0
ARC
  5
3E5
100
AcDbEntity
  8
ALL_ASSEMBLY_MEMBERS
100
AcDbCircle
 62
7
  6
BYLAYER
 10
5.0563578452
 20
6.5570190118
 40
0.5725
100
AcDbArc
 50
357.6091016376
 51
359.3995092216
  0
ARC
  5
3E6
100
AcDbEntity
  8
ALL_ASSEMBLY_MEMBERS
100
AcDbCircle
 62
7
  6
BYLAYER
 10
5.0563578452
 20
6.5570190118
 40
0.5725
100
AcDbArc
 50
330.6004907784
 51
332.3908983624
  0
ARC
  5
3E7
100
AcDbEntity
  8
ALL_ASSEMBLY_MEMBERS
100
AcDbCircle
 62
7
  6
BYLAYER
 10
5.0563578452
 20
6.5570190118
 40
0.5725
100
AcDbArc
 50
333.6091016376
 51
335.3908983624
  0
ARC
  5
3E8
100
AcDbEntity
  8
ALL_ASSEMBLY_MEMBERS
100
AcDbCircle
 62
7
  6
BYLAYER
 10
5.0563578452
 20
6.5570190118
 40
0.5725
100
AcDbArc
 50
336.6091016376
 51
338.3908983624
  0
ARC
  5
3E9
100
AcDbEntity
  8
ALL_ASSEMBLY_MEMBERS
100
AcDbCircle
 62
7
  6
BYLAYER
 10
5.0563578452
 20
6.5570190118
 40
0.5725
100
AcDbArc
 50
339.6091016376
 51
341.3908983624
  0
ARC
  5
3EA
100
AcDbEntity
  8
ALL_ASSEMBLY_MEMBERS
100
AcDbCircle
 62
7
  6
BYLAYER
 10
5.0563578452
 20
6.5570190118
 40
0.5725
100
AcDbArc
 50
342.6091016376
 51
344.3995092216
  0
ARC
  5
3EB
100
AcDbEntity
  8
ALL_ASSEMBLY_MEMBERS
100
AcDbCircle
 62
7
  6
BYLAYER
 10
5.0563578452
 20
6.5570190118
 40
0.5725
100
AcDbArc
 50
315.6004907784
 51
317.3908983624
  0
ARC
  5
3EC
100
AcDbEntity
  8
ALL_ASSEMBLY_MEMBERS
100
AcDbCircle
 62
7
  6
BYLAYER
 10
5.0563578452
 20
6.5570190118
 40
0.5725
100
AcDbArc
 50
318.6091016376
 51
320.3908983624
  0
ARC
  5
3ED
100
AcDbEntity
  8
ALL_ASSEMBLY_MEMBERS
100
AcDbCircle
 62
7
  6
BYLAYER
 10
5.0563578452
 20
6.5570190118
 40
0.5725
100
AcDbArc
 50
321.6091016376
 51
323.3908983624
  0
ARC
  5
3EE
100
AcDbEntity
  8
ALL_ASSEMBLY_MEMBERS
100
AcDbCircle
 62
7
  6
BYLAYER
 10
5.0563578452
 20
6.5570190118
 40
0.5725
100
AcDbArc
 50
324.6091016376
 51
326.3908983624
  0
ARC
  5
3EF
100
AcDbEntity
  8
ALL_ASSEMBLY_MEMBERS
100
AcDbCircle
 62
7
  6
BYLAYER
 10
5.0563578452
 20
6.5570190118
 40
0.5725
100
AcDbArc
 50
327.6091016376
 51
329.3995092216
  0
ARC
  5
3F0
100
AcDbEntity
  8
ALL_ASSEMBLY_MEMBERS
100
AcDbCircle
 62
7
  6
BYLAYER
 10
5.0563578452
 20
6.5570190118
 40
0.5725
100
AcDbArc
 50
300.6004907784
 51
302.3908983624
  0
ARC
  5
3F1
100
AcDbEntity
  8
ALL_ASSEMBLY_MEMBERS
100
AcDbCircle
 62
7
  6
BYLAYER
 10
5.0563578452
 20
6.5570190118
 40
0.5725
100
AcDbArc
 50
303.6091016376
 51
305.3908983624
  0
ARC
  5
3F2
100
AcDbEntity
  8
ALL_ASSEMBLY_MEMBERS
100
AcDbCircle
 62
7
  6
BYLAYER
 10
5.0563578452
 20
6.5570190118
 40
0.5725
100
AcDbArc
 50
306.6091016376
 51
308.3908983624
  0
ARC
  5
3F3
100
AcDbEntity
  8
ALL_ASSEMBLY_MEMBERS
100
AcDbCircle
 62
7
  6
BYLAYER
 10
5.0563578452
 20
6.5570190118
 40
0.5725
100
AcDbArc
 50
309.6091016376
 51
311.3908983624
  0
ARC
  5
3F4
100
AcDbEntity
  8
ALL_ASSEMBLY_MEMBERS
100
AcDbCircle
 62
7
  6
BYLAYER
 10
5.0563578452
 20
6.5570190118
 40
0.5725
100
AcDbArc
 50
312.6091016376
 51
314.3995092216
  0
ARC
  5
3F5
100
AcDbEntity
  8
ALL_ASSEMBLY_MEMBERS
100
AcDbCircle
 62
7
  6
BYLAYER
 10
5.0563578452
 20
6.5570190118
 40
0.5725
100
AcDbArc
 50
285.6004907784
 51
287.3908983624
  0
ARC
  5
3F6
100
AcDbEntity
  8
ALL_ASSEMBLY_MEMBERS
100
AcDbCircle
 62
7
  6
BYLAYER
 10
5.0563578452
 20
6.5570190118
 40
0.5725
100
AcDbArc
 50
288.6091016376
 51
290.3908983624
  0
ARC
  5
3F7
100
AcDbEntity
  8
ALL_ASSEMBLY_MEMBERS
100
AcDbCircle
 62
7
  6
BYLAYER
 10
5.0563578452
 20
6.5570190118
 40
0.5725
100
AcDbArc
 50
291.6091016376
 51
293.3908983624
  0
ARC
  5
3F8
100
AcDbEntity
  8
ALL_ASSEMBLY_MEMBERS
100
AcDbCircle
 62
7
  6
BYLAYER
 10
5.0563578452
 20
6.5570190118
 40
0.5725
100
AcDbArc
 50
294.6091016376
 51
296.3908983624
  0
ARC
  5
3F9
100
AcDbEntity
  8
ALL_ASSEMBLY_MEMBERS
100
AcDbCircle
 62
7
  6
BYLAYER
 10
5.0563578452
 20
6.5570190118
 40
0.5725
100
AcDbArc
 50
297.6091016376
 51
299.3995092216
  0
ARC
  5
3FA
100
AcDbEntity
  8
ALL_ASSEMBLY_MEMBERS
100
AcDbCircle
 62
7
  6
BYLAYER
 10
5.0563578452
 20
6.5570190118
 40
0.5725
100
AcDbArc
 50
270.6004907784
 51
272.3908983624
  0
ARC
  5
3FB
100
AcDbEntity
  8
ALL_ASSEMBLY_MEMBERS
100
AcDbCircle
 62
7
  6
BYLAYER
 10
5.0563578452
 20
6.5570190118
 40
0.5725
100
AcDbArc
 50
273.6091016376
 51
275.3908983624
  0
ARC
  5
3FC
100
AcDbEntity
  8
ALL_ASSEMBLY_MEMBERS
100
AcDbCircle
 62
7
  6
BYLAYER
 10
5.0563578452
 20
6.5570190118
 40
0.5725
100
AcDbArc
 50
276.6091016376
 51
278.3908983624
  0
ARC
  5
3FD
100
AcDbEntity
  8
ALL_ASSEMBLY_MEMBERS
100
AcDbCircle
 62
7
  6
BYLAYER
 10
5.0563578452
 20
6.5570190118
 40
0.5725
100
AcDbArc
 50
279.6091016376
 51
281.3908983624
  0
ARC
  5
3FE
100
AcDbEntity
  8
ALL_ASSEMBLY_MEMBERS
100
AcDbCircle
 62
7
  6
BYLAYER
 10
5.0563578452
 20
6.5570190118
 40
0.5725
100
AcDbArc
 50
282.6091016376
 51
284.3995092216
  0
ARC
  5
3FF
100
AcDbEntity
  8
ALL_ASSEMBLY_MEMBERS
100
AcDbCircle
 62
7
  6
BYLAYER
 10
5.0563578452
 20
6.5570190118
 40
0.5725
100
AcDbArc
 50
255.6004907784
 51
257.3908983624
  0
ARC
  5
400
100
AcDbEntity
  8
ALL_ASSEMBLY_MEMBERS
100
AcDbCircle
 62
7
  6
BYLAYER
 10
5.0563578452
 20
6.5570190118
 40
0.5725
100
AcDbArc
 50
258.6091016376
 51
260.3908983624
  0
ARC
  5
401
100
AcDbEntity
  8
ALL_ASSEMBLY_MEMBERS
100
AcDbCircle
 62
7
  6
BYLAYER
 10
5.0563578452
 20
6.5570190118
 40
0.5725
100
AcDbArc
 50
261.6091016376
 51
263.3908983624
  0
ARC
  5
402
100
AcDbEntity
  8
ALL_ASSEMBLY_MEMBERS
100
AcDbCircle
 62
7
  6
BYLAYER
 10
5.0563578452
 20
6.5570190118
 40
0.5725
100
AcDbArc
 50
264.6091016376
 51
266.3908983624
  0
ARC
  5
403
100
AcDbEntity
  8
ALL_ASSEMBLY_MEMBERS
100
AcDbCircle
 62
7
  6
BYLAYER
 10
5.0563578452
 20
6.5570190118
 40
0.5725
100
AcDbArc
 50
267.6091016376
 51
269.3995092216
  0
ARC
  5
404
100
AcDbEntity
  8
ALL_ASSEMBLY_MEMBERS
100
AcDbCircle
 62
7
  6
BYLAYER
 10
5.0563578452
 20
6.5570190118
 40
0.5725
100
AcDbArc
 50
240.6004907784
 51
242.3908983624
  0
ARC
  5
405
100
AcDbEntity
  8
ALL_ASSEMBLY_MEMBERS
100
AcDbCircle
 62
7
  6
BYLAYER
 10
5.0563578452
 20
6.5570190118
 40
0.5725
100
AcDbArc
 50
243.6091016376
 51
245.3908983624
  0
ARC
  5
406
100
AcDbEntity
  8
ALL_ASSEMBLY_MEMBERS
100
AcDbCircle
 62
7
  6
BYLAYER
 10
5.0563578452
 20
6.5570190118
 40
0.5725
100
AcDbArc
 50
246.6091016376
 51
248.3908983624
  0
ARC
  5
407
100
AcDbEntity
  8
ALL_ASSEMBLY_MEMBERS
100
AcDbCircle
 62
7
  6
BYLAYER
 10
5.0563578452
 20
6.5570190118
 40
0.5725
100
AcDbArc
 50
249.6091016376
 51
251.3908983624
  0
ARC
  5
408
100
AcDbEntity
  8
ALL_ASSEMBLY_MEMBERS
100
AcDbCircle
 62
7
  6
BYLAYER
 10
5.0563578452
 20
6.5570190118
 40
0.5725
100
AcDbArc
 50
252.6091016376
 51
254.3995092216
  0
ARC
  5
409
100
AcDbEntity
  8
ALL_ASSEMBLY_MEMBERS
100
AcDbCircle
 62
7
  6
BYLAYER
 10
5.0563578452
 20
6.5570190118
 40
0.5725
100
AcDbArc
 50
225.6004907784
 51
227.3908983624
  0
ARC
  5
40A
100
AcDbEntity
  8
ALL_ASSEMBLY_MEMBERS
100
AcDbCircle
 62
7
  6
BYLAYER
 10
5.0563578452
 20
6.5570190118
 40
0.5725
100
AcDbArc
 50
228.6091016376
 51
230.3908983624
  0
ARC
  5
40B
100
AcDbEntity
  8
ALL_ASSEMBLY_MEMBERS
100
AcDbCircle
 62
7
  6
BYLAYER
 10
5.0563578452
 20
6.5570190118
 40
0.5725
100
AcDbArc
 50
231.6091016376
 51
233.3908983624
  0
ARC
  5
40C
100
AcDbEntity
  8
ALL_ASSEMBLY_MEMBERS
100
AcDbCircle
 62
7
  6
BYLAYER
 10
5.0563578452
 20
6.5570190118
 40
0.5725
100
AcDbArc
 50
234.6091016376
 51
236.3908983624
  0
ARC
  5
40D
100
AcDbEntity
  8
ALL_ASSEMBLY_MEMBERS
100
AcDbCircle
 62
7
  6
BYLAYER
 10
5.0563578452
 20
6.5570190118
 40
0.5725
100
AcDbArc
 50
237.6091016376
 51
239.3995092216
  0
ARC
  5
40E
100
AcDbEntity
  8
ALL_ASSEMBLY_MEMBERS
100
AcDbCircle
 62
7
  6
BYLAYER
 10
5.0563578452
 20
6.5570190118
 40
0.5725
100
AcDbArc
 50
210.6004907784
 51
212.3908983624
  0
ARC
  5
40F
100
AcDbEntity
  8
ALL_ASSEMBLY_MEMBERS
100
AcDbCircle
 62
7
  6
BYLAYER
 10
5.0563578452
 20
6.5570190118
 40
0.5725
100
AcDbArc
 50
213.6091016376
 51
215.3908983624
  0
ARC
  5
410
100
AcDbEntity
  8
ALL_ASSEMBLY_MEMBERS
100
AcDbCircle
 62
7
  6
BYLAYER
 10
5.0563578452
 20
6.5570190118
 40
0.5725
100
AcDbArc
 50
216.6091016376
 51
218.3908983624
  0
ARC
  5
411
100
AcDbEntity
  8
ALL_ASSEMBLY_MEMBERS
100
AcDbCircle
 62
7
  6
BYLAYER
 10
5.0563578452
 20
6.5570190118
 40
0.5725
100
AcDbArc
 50
219.6091016376
 51
221.3908983624
  0
ARC
  5
412
100
AcDbEntity
  8
ALL_ASSEMBLY_MEMBERS
100
AcDbCircle
 62
7
  6
BYLAYER
 10
5.0563578452
 20
6.5570190118
 40
0.5725
100
AcDbArc
 50
222.6091016376
 51
224.3995092216
  0
ARC
  5
413
100
AcDbEntity
  8
ALL_ASSEMBLY_MEMBERS
100
AcDbCircle
 62
7
  6
BYLAYER
 10
5.0563578452
 20
6.5570190118
 40
0.5725
100
AcDbArc
 50
195.6004907784
 51
197.3908983624
  0
ARC
  5
414
100
AcDbEntity
  8
ALL_ASSEMBLY_MEMBERS
100
AcDbCircle
 62
7
  6
BYLAYER
 10
5.0563578452
 20
6.5570190118
 40
0.5725
100
AcDbArc
 50
198.6091016376
 51
200.3908983624
  0
ARC
  5
415
100
AcDbEntity
  8
ALL_ASSEMBLY_MEMBERS
100
AcDbCircle
 62
7
  6
BYLAYER
 10
5.0563578452
 20
6.5570190118
 40
0.5725
100
AcDbArc
 50
201.6091016376
 51
203.3908983624
  0
ARC
  5
416
100
AcDbEntity
  8
ALL_ASSEMBLY_MEMBERS
100
AcDbCircle
 62
7
  6
BYLAYER
 10
5.0563578452
 20
6.5570190118
 40
0.5725
100
AcDbArc
 50
204.6091016376
 51
206.3908983624
  0
ARC
  5
417
100
AcDbEntity
  8
ALL_ASSEMBLY_MEMBERS
100
AcDbCircle
 62
7
  6
BYLAYER
 10
5.0563578452
 20
6.5570190118
 40
0.5725
100
AcDbArc
 50
207.6091016376
 51
209.3995092216
  0
ARC
  5
418
100
AcDbEntity
  8
ALL_ASSEMBLY_MEMBERS
100
AcDbCircle
 62
7
  6
BYLAYER
 10
5.0563578452
 20
6.5570190118
 40
0.5725
100
AcDbArc
 50
180.6004907784
 51
182.3908983624
  0
ARC
  5
419
100
AcDbEntity
  8
ALL_ASSEMBLY_MEMBERS
100
AcDbCircle
 62
7
  6
BYLAYER
 10
5.0563578452
 20
6.5570190118
 40
0.5725
100
AcDbArc
 50
183.6091016376
 51
185.3908983624
  0
ARC
  5
41A
100
AcDbEntity
  8
ALL_ASSEMBLY_MEMBERS
100
AcDbCircle
 62
7
  6
BYLAYER
 10
5.0563578452
 20
6.5570190118
 40
0.5725
100
AcDbArc
 50
186.6091016376
 51
188.3908983624
  0
ARC
  5
41B
100
AcDbEntity
  8
ALL_ASSEMBLY_MEMBERS
100
AcDbCircle
 62
7
  6
BYLAYER
 10
5.0563578452
 20
6.5570190118
 40
0.5725
100
AcDbArc
 50
189.6091016376
 51
191.3908983624
  0
ARC
  5
41C
100
AcDbEntity
  8
ALL_ASSEMBLY_MEMBERS
100
AcDbCircle
 62
7
  6
BYLAYER
 10
5.0563578452
 20
6.5570190118
 40
0.5725
100
AcDbArc
 50
192.6091016376
 51
194.3995092216
  0
ARC
  5
41D
100
AcDbEntity
  8
ALL_ASSEMBLY_MEMBERS
100
AcDbCircle
 62
7
  6
BYLAYER
 10
5.0563578452
 20
6.5570190118
 40
0.5725
100
AcDbArc
 50
165.6004907784
 51
167.3908983624
  0
ARC
  5
41E
100
AcDbEntity
  8
ALL_ASSEMBLY_MEMBERS
100
AcDbCircle
 62
7
  6
BYLAYER
 10
5.0563578452
 20
6.5570190118
 40
0.5725
100
AcDbArc
 50
168.6091016376
 51
170.3908983624
  0
ARC
  5
41F
100
AcDbEntity
  8
ALL_ASSEMBLY_MEMBERS
100
AcDbCircle
 62
7
  6
BYLAYER
 10
5.0563578452
 20
6.5570190118
 40
0.5725
100
AcDbArc
 50
171.6091016376
 51
173.3908983624
  0
ARC
  5
420
100
AcDbEntity
  8
ALL_ASSEMBLY_MEMBERS
100
AcDbCircle
 62
7
  6
BYLAYER
 10
5.0563578452
 20
6.5570190118
 40
0.5725
100
AcDbArc
 50
174.6091016376
 51
176.3908983624
  0
ARC
  5
421
100
AcDbEntity
  8
ALL_ASSEMBLY_MEMBERS
100
AcDbCircle
 62
7
  6
BYLAYER
 10
5.0563578452
 20
6.5570190118
 40
0.5725
100
AcDbArc
 50
177.6091016376
 51
179.3995092216
  0
ARC
  5
422
100
AcDbEntity
  8
ALL_ASSEMBLY_MEMBERS
100
AcDbCircle
 62
7
  6
BYLAYER
 10
5.0563578452
 20
6.5570190118
 40
0.5725
100
AcDbArc
 50
150.6004907784
 51
152.3908983624
  0
ARC
  5
423
100
AcDbEntity
  8
ALL_ASSEMBLY_MEMBERS
100
AcDbCircle
 62
7
  6
BYLAYER
 10
5.0563578452
 20
6.5570190118
 40
0.5725
100
AcDbArc
 50
153.6091016376
 51
155.3908983624
  0
ARC
  5
424
100
AcDbEntity
  8
ALL_ASSEMBLY_MEMBERS
100
AcDbCircle
 62
7
  6
BYLAYER
 10
5.0563578452
 20
6.5570190118
 40
0.5725
100
AcDbArc
 50
156.6091016376
 51
158.3908983624
  0
ARC
  5
425
100
AcDbEntity
  8
ALL_ASSEMBLY_MEMBERS
100
AcDbCircle
 62
7
  6
BYLAYER
 10
5.0563578452
 20
6.5570190118
 40
0.5725
100
AcDbArc
 50
159.6091016376
 51
161.3908983624
  0
ARC
  5
426
100
AcDbEntity
  8
ALL_ASSEMBLY_MEMBERS
100
AcDbCircle
 62
7
  6
BYLAYER
 10
5.0563578452
 20
6.5570190118
 40
0.5725
100
AcDbArc
 50
162.6091016376
 51
164.3995092216
  0
ARC
  5
427
100
AcDbEntity
  8
ALL_ASSEMBLY_MEMBERS
100
AcDbCircle
 62
7
  6
BYLAYER
 10
5.0563578452
 20
6.5570190118
 40
0.5725
100
AcDbArc
 50
135.6004907784
 51
137.3908983624
  0
ARC
  5
428
100
AcDbEntity
  8
ALL_ASSEMBLY_MEMBERS
100
AcDbCircle
 62
7
  6
BYLAYER
 10
5.0563578452
 20
6.5570190118
 40
0.5725
100
AcDbArc
 50
138.6091016376
 51
140.3908983624
  0
ARC
  5
429
100
AcDbEntity
  8
ALL_ASSEMBLY_MEMBERS
100
AcDbCircle
 62
7
  6
BYLAYER
 10
5.0563578452
 20
6.5570190118
 40
0.5725
100
AcDbArc
 50
141.6091016376
 51
143.3908983624
  0
ARC
  5
42A
100
AcDbEntity
  8
ALL_ASSEMBLY_MEMBERS
100
AcDbCircle
 62
7
  6
BYLAYER
 10
5.0563578452
 20
6.5570190118
 40
0.5725
100
AcDbArc
 50
144.6091016376
 51
146.3908983624
  0
ARC
  5
42B
100
AcDbEntity
  8
ALL_ASSEMBLY_MEMBERS
100
AcDbCircle
 62
7
  6
BYLAYER
 10
5.0563578452
 20
6.5570190118
 40
0.5725
100
AcDbArc
 50
147.6091016376
 51
149.3995092216
  0
ARC
  5
42C
100
AcDbEntity
  8
ALL_ASSEMBLY_MEMBERS
100
AcDbCircle
 62
7
  6
BYLAYER
 10
5.0563578452
 20
6.5570190118
 40
0.5725
100
AcDbArc
 50
120.6004907784
 51
122.3908983624
  0
ARC
  5
42D
100
AcDbEntity
  8
ALL_ASSEMBLY_MEMBERS
100
AcDbCircle
 62
7
  6
BYLAYER
 10
5.0563578452
 20
6.5570190118
 40
0.5725
100
AcDbArc
 50
123.6091016376
 51
125.3908983624
  0
ARC
  5
42E
100
AcDbEntity
  8
ALL_ASSEMBLY_MEMBERS
100
AcDbCircle
 62
7
  6
BYLAYER
 10
5.0563578452
 20
6.5570190118
 40
0.5725
100
AcDbArc
 50
126.6091016376
 51
128.3908983624
  0
ARC
  5
42F
100
AcDbEntity
  8
ALL_ASSEMBLY_MEMBERS
100
AcDbCircle
 62
7
  6
BYLAYER
 10
5.0563578452
 20
6.5570190118
 40
0.5725
100
AcDbArc
 50
129.6091016376
 51
131.3908983624
  0
ARC
  5
430
100
AcDbEntity
  8
ALL_ASSEMBLY_MEMBERS
100
AcDbCircle
 62
7
  6
BYLAYER
 10
5.0563578452
 20
6.5570190118
 40
0.5725
100
AcDbArc
 50
132.6091016376
 51
134.3995092216
  0
ARC
  5
431
100
AcDbEntity
  8
ALL_ASSEMBLY_MEMBERS
100
AcDbCircle
 62
7
  6
BYLAYER
 10
5.0563578452
 20
6.5570190118
 40
0.5725
100
AcDbArc
 50
105.6091016376
 51
107.3908983624
  0
ARC
  5
432
100
AcDbEntity
  8
ALL_ASSEMBLY_MEMBERS
100
AcDbCircle
 62
7
  6
BYLAYER
 10
5.0563578452
 20
6.5570190118
 40
0.5725
100
AcDbArc
 50
108.6091016376
 51
110.3908983624
  0
ARC
  5
433
100
AcDbEntity
  8
ALL_ASSEMBLY_MEMBERS
100
AcDbCircle
 62
7
  6
BYLAYER
 10
5.0563578452
 20
6.5570190118
 40
0.5725
100
AcDbArc
 50
111.6091016376
 51
113.3908983624
  0
ARC
  5
434
100
AcDbEntity
  8
ALL_ASSEMBLY_MEMBERS
100
AcDbCircle
 62
7
  6
BYLAYER
 10
5.0563578452
 20
6.5570190118
 40
0.5725
100
AcDbArc
 50
114.6091016376
 51
116.3908983624
  0
ARC
  5
435
100
AcDbEntity
  8
ALL_ASSEMBLY_MEMBERS
100
AcDbCircle
 62
7
  6
BYLAYER
 10
5.0563578452
 20
6.5570190118
 40
0.5725
100
AcDbArc
 50
117.6091016376
 51
119.3995092216
  0
ARC
  5
436
100
AcDbEntity
  8
ALL_ASSEMBLY_MEMBERS
100
AcDbCircle
 62
7
  6
BYLAYER
 10
5.0563578452
 20
6.5570190118
 40
0.5725
100
AcDbArc
 50
102.6091016376
 51
104.3908983624
  0
ARC
  5
437
100
AcDbEntity
  8
ALL_ASSEMBLY_MEMBERS
100
AcDbCircle
 62
7
  6
BYLAYER
 10
5.0563578452
 20
6.5570190118
 40
0.5725
100
AcDbArc
 50
99.6091016376
 51
101.3908983624
  0
ARC
  5
438
100
AcDbEntity
  8
ALL_ASSEMBLY_MEMBERS
100
AcDbCircle
 62
7
  6
BYLAYER
 10
5.0563578452
 20
6.5570190118
 40
0.5725
100
AcDbArc
 50
96.6091016376
 51
98.3908983624
  0
ARC
  5
439
100
AcDbEntity
  8
ALL_ASSEMBLY_MEMBERS
100
AcDbCircle
 62
7
  6
BYLAYER
 10
5.0563578452
 20
6.5570190118
 40
0.5725
100
AcDbArc
 50
93.6091016376
 51
95.3908983624
  0
ARC
  5
43A
100
AcDbEntity
  8
ALL_ASSEMBLY_MEMBERS
100
AcDbCircle
 62
7
  6
BYLAYER
 10
5.0563578452
 20
6.5570190118
 40
0.5725
100
AcDbArc
 50
90.6004907784
 51
92.3908983624
  0
CIRCLE
  5
43B
100
AcDbEntity
  8
ALL_ASSEMBLY_MEMBERS
100
AcDbCircle
 62
7
  6
BYLAYER
 10
5.0563578452
 20
6.5570190118
 40
0.55
  0
CIRCLE
  5
43C
100
AcDbEntity
  8
ALL_ASSEMBLY_MEMBERS
100
AcDbCircle
 62
7
  6
BYLAYER
 10
5.0563578452
 20
6.5570190118
 40
0.5484799828
  0
CIRCLE
  5
43D
100
AcDbEntity
  8
ALL_ASSEMBLY_MEMBERS
100
AcDbCircle
 62
7
  6
BYLAYER
 10
5.0563578452
 20
6.5570190118
 40
0.4279375067
  0
CIRCLE
  5
43E
100
AcDbEntity
  8
ALL_ASSEMBLY_MEMBERS
100
AcDbCircle
 62
7
  6
BYLAYER
 10
5.0563578452
 20
6.5570190118
 40
0.4194575238
  0
CIRCLE
  5
43F
100
AcDbEntity
  8
ALL_ASSEMBLY_MEMBERS
100
AcDbCircle
 62
7
  6
BYLAYER
 10
5.0563578452
 20
6.5570190118
 40
0.316
  0
CIRCLE
  5
440
100
AcDbEntity
  8
ALL_ASSEMBLY_MEMBERS
100
AcDbCircle
 62
7
  6
BYLAYER
 10
5.0563578452
 20
6.5570190118
 40
0.3143834503
  0
CIRCLE
  5
441
100
AcDbEntity
  8
ALL_ASSEMBLY_MEMBERS
100
AcDbCircle
 62
7
  6
BYLAYER
 10
5.0563578452
 20
6.5570190118
 40
0.2765763603
  0
ARC
  5
442
100
AcDbEntity
  8
ALL_ASSEMBLY_MEMBERS
100
AcDbCircle
 62
7
  6
BYLAYER
 10
5.0563578452
 20
6.5570190118
 40
0.121
100
AcDbArc
 50
53.2120885363
 51
61.3612873344
  0
ARC
  5
443
100
AcDbEntity
  8
ALL_ASSEMBLY_MEMBERS
100
AcDbCircle
 62
7
  6
BYLAYER
 10
5.0563578452
 20
6.5570190118
 40
0.121
100
AcDbArc
 50
20.3833591199
 51
28.684406608
  0
ARC
  5
444
100
AcDbEntity
  8
ALL_ASSEMBLY_MEMBERS
100
AcDbCircle
 62
7
  6
BYLAYER
 10
5.0563578452
 20
6.5570190118
 40
0.121
100
AcDbArc
 50
347.616235194
 51
356.0084951561
  0
ARC
  5
445
100
AcDbEntity
  8
ALL_ASSEMBLY_MEMBERS
100
AcDbCircle
 62
7
  6
BYLAYER
 10
5.0563578452
 20
6.5570190118
 40
0.121
100
AcDbArc
 50
314.9825355596
 51
323.2115425013
  0
ARC
  5
446
100
AcDbEntity
  8
ALL_ASSEMBLY_MEMBERS
100
AcDbCircle
 62
7
  6
BYLAYER
 10
5.0563578452
 20
6.5570190118
 40
0.121
100
AcDbArc
 50
282.2966513466
 51
290.4460726766
  0
ARC
  5
447
100
AcDbEntity
  8
ALL_ASSEMBLY_MEMBERS
100
AcDbCircle
 62
7
  6
BYLAYER
 10
5.0563578452
 20
6.5570190118
 40
0.121
100
AcDbArc
 50
85.9264131678
 51
94.1235398487
  0
ARC
  5
448
100
AcDbEntity
  8
ALL_ASSEMBLY_MEMBERS
100
AcDbCircle
 62
7
  6
BYLAYER
 10
5.0563578452
 20
6.5570190118
 40
0.121
100
AcDbArc
 50
118.6462331793
 51
126.8406922379
  0
ARC
  5
449
100
AcDbEntity
  8
ALL_ASSEMBLY_MEMBERS
100
AcDbCircle
 62
7
  6
BYLAYER
 10
5.0563578452
 20
6.5570190118
 40
0.121
100
AcDbArc
 50
151.3066346576
 51
159.6067189499
  0
ARC
  5
44A
100
AcDbEntity
  8
ALL_ASSEMBLY_MEMBERS
100
AcDbCircle
 62
7
  6
BYLAYER
 10
5.0563578452
 20
6.5570190118
 40
0.121
100
AcDbArc
 50
183.968719085
 51
192.3611760128
  0
ARC
  5
44B
100
AcDbEntity
  8
ALL_ASSEMBLY_MEMBERS
100
AcDbCircle
 62
7
  6
BYLAYER
 10
5.0563578452
 20
6.5570190118
 40
0.121
100
AcDbArc
 50
216.7859110732
 51
225.0184433501
  0
ARC
  5
44C
100
AcDbEntity
  8
ALL_ASSEMBLY_MEMBERS
100
AcDbCircle
 62
7
  6
BYLAYER
 10
5.0563578452
 20
6.5570190118
 40
0.121
100
AcDbArc
 50
249.5630962925
 51
257.7142565317
  0
CIRCLE
  5
44D
100
AcDbEntity
  8
ALL_ASSEMBLY_MEMBERS
100
AcDbCircle
 62
7
  6
BYLAYER
 10
5.0563578452
 20
6.8070190118
 40
0.013
  0
CIRCLE
  5
44E
100
AcDbEntity
  8
ALL_ASSEMBLY_MEMBERS
100
AcDbCircle
 62
7
  6
BYLAYER
 10
5.0563578452
 20
6.7470600767
 40
0.013
  0
CIRCLE
  5
44F
100
AcDbEntity
  8
ALL_ASSEMBLY_MEMBERS
100
AcDbCircle
 62
7
  6
BYLAYER
 10
5.1266272691
 20
6.6663908915
 40
0.013
  0
CIRCLE
  5
450
100
AcDbEntity
  8
ALL_ASSEMBLY_MEMBERS
100
AcDbCircle
 62
7
  6
BYLAYER
 10
5.1746030802
 20
6.6110381233
 40
0.013
  0
CIRCLE
  5
451
100
AcDbEntity
  8
ALL_ASSEMBLY_MEMBERS
100
AcDbCircle
 62
7
  6
BYLAYER
 10
5.1336120938
 20
6.7947831409
 40
0.013
  0
CIRCLE
  5
452
100
AcDbEntity
  8
ALL_ASSEMBLY_MEMBERS
100
AcDbCircle
 62
7
  6
BYLAYER
 10
5.13365451
 20
6.7306301634
 40
0.013
  0
CIRCLE
  5
453
100
AcDbEntity
  8
ALL_ASSEMBLY_MEMBERS
100
AcDbCircle
 62
7
  6
BYLAYER
 10
5.2941219743
 20
6.4797647632
 40
0.013
  0
CIRCLE
  5
454
100
AcDbEntity
  8
ALL_ASSEMBLY_MEMBERS
100
AcDbCircle
 62
7
  6
BYLAYER
 10
5.2586120938
 20
6.4100726988
 40
0.013
  0
CIRCLE
  5
455
100
AcDbEntity
  8
ALL_ASSEMBLY_MEMBERS
100
AcDbCircle
 62
7
  6
BYLAYER
 10
5.2033041583
 20
6.3547647632
 40
0.013
  0
CIRCLE
  5
456
100
AcDbEntity
  8
ALL_ASSEMBLY_MEMBERS
100
AcDbCircle
 62
7
  6
BYLAYER
 10
5.2453578452
 20
6.5371543114
 40
0.013
  0
CIRCLE
  5
457
100
AcDbEntity
  8
ALL_ASSEMBLY_MEMBERS
100
AcDbCircle
 62
7
  6
BYLAYER
 10
5.2209382351
 20
6.4619984794
 40
0.013
  0
CIRCLE
  5
458
100
AcDbEntity
  8
ALL_ASSEMBLY_MEMBERS
100
AcDbCircle
 62
7
  6
BYLAYER
 10
5.1850370269
 20
6.538534743
 40
0.013
  0
CIRCLE
  5
459
100
AcDbEntity
  8
ALL_ASSEMBLY_MEMBERS
100
AcDbCircle
 62
7
  6
BYLAYER
 10
5.2033041583
 20
6.7592732604
 40
0.013
  0
CIRCLE
  5
45A
100
AcDbEntity
  8
ALL_ASSEMBLY_MEMBERS
100
AcDbCircle
 62
7
  6
BYLAYER
 10
5.2586120938
 20
6.7039653249
 40
0.013
  0
CIRCLE
  5
45B
100
AcDbEntity
  8
ALL_ASSEMBLY_MEMBERS
100
AcDbCircle
 62
7
  6
BYLAYER
 10
5.2941219743
 20
6.6342732604
 40
0.013
  0
CIRCLE
  5
45C
100
AcDbEntity
  8
ALL_ASSEMBLY_MEMBERS
100
AcDbCircle
 62
7
  6
BYLAYER
 10
5.3063578452
 20
6.5570190118
 40
0.013
  0
CIRCLE
  5
45D
100
AcDbEntity
  8
ALL_ASSEMBLY_MEMBERS
100
AcDbCircle
 62
7
  6
BYLAYER
 10
5.1975858792
 20
6.6841813048
 40
0.013
  0
CIRCLE
  5
45E
100
AcDbEntity
  8
ALL_ASSEMBLY_MEMBERS
100
AcDbCircle
 62
7
  6
BYLAYER
 10
5.2370976383
 20
6.6157449305
 40
0.013
  0
ARC
  5
45F
100
AcDbEntity
  8
ALL_ASSEMBLY_MEMBERS
100
AcDbCircle
 62
7
  6
BYLAYER
 10
5.8948389149
 20
5.928021487
 40
0.3697879375
100
AcDbArc
 50
195.0348570499
 51
211.042340072
  0
ARC
  5
460
100
AcDbEntity
  8
ALL_ASSEMBLY_MEMBERS
100
AcDbCircle
 62
7
  6
BYLAYER
 10
5.8948389149
 20
5.928021487
 40
0.3697879375
100
AcDbArc
 50
143.2994290865
 51
160.4581137067
  0
ARC
  5
461
100
AcDbEntity
  8
ALL_ASSEMBLY_MEMBERS
100
AcDbCircle
 62
7
  6
BYLAYER
 10
5.6729170345
 20
5.8684129708
 40
0.14
100
AcDbArc
 50
138.617370136
 51
195.0348570499
  0
ARC
  5
462
100
AcDbEntity
  8
ALL_ASSEMBLY_MEMBERS
100
AcDbCircle
 62
7
  6
BYLAYER
 10
5.5303578452
 20
5.9940190118
 40
0.05
100
AcDbArc
 50
318.617370136
 51
64.9358940042
  0
ARC
  5
463
100
AcDbEntity
  8
ALL_ASSEMBLY_MEMBERS
100
AcDbCircle
 62
7
  6
BYLAYER
 10
5.560873885
 20
5.7270190118
 40
0.02
100
AcDbArc
 50
270.0
 51
31.042340072
  0
ARC
  5
464
100
AcDbEntity
  8
ALL_ASSEMBLY_MEMBERS
100
AcDbCircle
 62
7
  6
BYLAYER
 10
5.555775767
 20
6.048369074
 40
0.01
100
AcDbArc
 50
160.4581137067
 51
244.9358940042
  0
ARC
  5
465
100
AcDbEntity
  8
ALL_ASSEMBLY_MEMBERS
100
AcDbCircle
 62
7
  6
BYLAYER
 10
16.5146260932
 20
4.5987611258
 40
10.9731436903
100
AcDbArc
 50
175.3185281469
 51
186.7638247714
  0
ENDSEC
  0
SECTION
  2
OBJECTS
  0
DICTIONARY
  5
C
100
AcDbDictionary
280
0
281
1
  3
ACAD_GROUP
350
D
  3
ACAD_MLINESTYLE
350
17
  3
ACAD_LAYOUT
350
1A
  3
ACAD_PLOTSETTINGS
350
19
  3
ACAD_PLOTSTYLENAME
350
E
  0
DICTIONARY
  5
D
102
{ACAD_REACTORS
330
C
102
}
100
AcDbDictionary
280
0
281
1
  0
ACDBDICTIONARYWDFLT
  5
E
102
{ACAD_REACTORS
330
C
102
}
100
AcDbDictionary
281
1
  3
Normal
350
F
100
AcDbDictionaryWithDefault
340
F
  0
DICTIONARY
  5
17
102
{ACAD_REACTORS
330
C
102
}
100
AcDbDictionary
280
0
281
1
  3
Standard
350
18
  0
DICTIONARY
  5
19
102
{ACAD_REACTORS
330
C
102
}
100
AcDbDictionary
281
1
  0
DICTIONARY
  5
1A
102
{ACAD_REACTORS
330
C
102
}
100
AcDbDictionary
281
1
  3
Model
350
466
  3
Layout1
350
467
  0
ACDBPLACEHOLDER
  5
F
102
{ACAD_REACTORS
330
E
102
}
  0
MLINESTYLE
  5
18
102
{ACAD_REACTORS
330
17
102
}
100
AcDbMlineStyle
  2
STANDARD
 70
0
  3

 62
256
 51
90.0
 52
90.0
 71
2
 49
0.5
 62
256
  6
BYLAYER
 49
-0.5
 62
256
  6
BYLAYER
  0
LAYOUT
  5
466
102
{ACAD_REACTORS
330
1A
102
}
100
AcDbPlotSettings
  1

  2
none_device
  4
ANSI_A_(11.00_x_8.50_Inches)
  6

 40
0.0
 41
0.0
 42
0.0
 43
0.0
 44
279.4
 45
215.9
 46
0.0
 47
0.0
 48
0.0
 49
0.0
140
0.0
141
0.0
142
1.0
143
1.0
 70
1024
 72
0
 73
0
 74
0
  7

 75
0
147
1.0
148
0.0
149
0.0
100
AcDbLayout
  1
Model
 70
0
 71
0
 10
0.0
 20
0.0
 11
11.0
 21
8.5
 12
0.0
 22
0.0
 32
0.0
 14
0.0
 24
0.0
 34
0.0
 15
0.0
 25
0.0
 35
0.0
146
0.0
 13
0.0
 23
0.0
 33
0.0
 16
1.0
 26
0.0
 36
0.0
 17
0.0
 27
1.0
 37
0.0
 76
0
330
226
345
0
346
0
  0
LAYOUT
  5
467
102
{ACAD_REACTORS
330
1A
102
}
100
AcDbPlotSettings
  1

  2
none_device
  4
ANSI_A_(11.00_x_8.50_Inches)
  6

 40
0.0
 41
0.0
 42
0.0
 43
0.0
 44
279.4
 45
215.9
 46
0.0
 47
0.0
 48
0.0
 49
0.0
140
0.0
141
0.0
142
1.0
143
1.0
 70
0
 72
0
 73
0
 74
0
  7

 75
0
147
1.0
148
0.0
149
0.0
100
AcDbLayout
  1
Layout1
 70
0
 71
1
 10
0.0
 20
0.0
 11
11.0
 21
8.5
 12
0.0
 22
0.0
 32
0.0
 14
0.0
 24
0.0
 34
0.0
 15
0.0
 25
0.0
 35
0.0
146
0.0
 13
0.0
 23
0.0
 33
0.0
 16
1.0
 26
0.0
 36
0.0
 17
0.0
 27
1.0
 37
0.0
 76
0
330
227
345
0
346
0
  0
ENDSEC
  0
EOF
