999
DXF file: 2470-5711_top.dxf
999
Pro/ENGINEER 2018400 by Parametric Technology Corporation
  0
SECTION
  2
HEADER
  9
$ACADVER
  1
AC1027
  9
$DWGCODEPAGE
  3
ANSI_1252
  9
$EXTMAX
 10
11.0
 20
8.5
 30
0.0
  9
$EXTMIN
 10
0.0
 20
0.0
 30
0.0
  9
$LIMMIN
 10
0.0
 20
0.0
  9
$LIMMAX
 10
11.0
 20
8.5
  9
$VIEWCTR
 10
5.5
 20
4.25
  9
$VIEWSIZE
 40
8.5
  9
$CLAYER
  8
0
  9
$LTSCALE
 40
0.605
  9
$CELTYPE
  6
BYLAYER
  9
$DIMSCALE
 40
1.0
  9
$DIMASZ
 40
0.1
  9
$DIMEXO
 40
0.0625
  9
$DIMDLI
 40
0.418
  9
$DIMEXE
 40
0.125
  9
$DIMCEN
 40
0.099
  9
$DIMLFAC
 40
1.0
  9
$DIMBLK
  1
_FILLED
  9
$DIMALT
 70
1
  9
$DIMALTD
 70
1
  9
$DIMALTTD
 70
2
  9
$DIMALTF
 40
25.4
  9
$DIMTXT
 40
0.08
  9
$DIMTOL
 70
1
  9
$DIMLIM
 70
0
  9
$DIMTFAC
 40
1.0
  9
$DIMTP
 40
0.01
  9
$DIMTM
 40
0.01
  9
$DIMGAP
 40
0.09
  9
$DIMDSEP
 70
46
  9
$AUNITS
 70
0
  9
$PDMODE
 70
3
  9
$PDSIZE
 40
0.3125
  9
$HANDSEED
  5
255
  9
$TILEMODE
 70
1
  9
$MEASUREMENT
 70
0
  9
$INSUNITS
 70
1
  0
ENDSEC
  0
SECTION
  2
CLASSES
  0
CLASS
  1
ACDBDICTIONARYWDFLT
  2
AcDbDictionaryWithDefault
  3
AutoCAD 2000
 90
0
 91
1
280
0
281
0
  0
CLASS
  1
ACDBPLACEHOLDER
  2
AcDbPlaceHolder
  3
AutoCAD 2000
 90
0
 91
1
280
0
281
0
  0
CLASS
  1
LAYOUT
  2
AcDbLayout
  3
AutoCAD 2000
 90
0
 91
0
280
0
281
0
  0
ENDSEC
  0
SECTION
  2
TABLES
  0
TABLE
  2
VPORT
  5
8
100
AcDbSymbolTable
 70
2
  0
VPORT
  5
1F4
100
AcDbSymbolTableRecord
100
AcDbViewportTableRecord
  2
*ACTIVE
 70
0
 10
0.0
 20
0.0
 11
1.0
 21
1.0
 12
5.5
 22
4.25
 13
0.0
 23
0.0
 14
1.0
 24
1.0
 15
0.0
 25
0.0
 16
0.0
 26
0.0
 36
1.0
 17
0.0
 27
0.0
 37
0.0
 40
8.5
 41
1.2941176471
 42
50.0
 43
0.0
 44
0.0
 50
0.0
 51
0.0
 71
0
 72
100
 73
1
 74
1
 75
0
 76
0
 77
0
 78
0
  0
ENDTAB
  0
TABLE
  2
LTYPE
  5
5
100
AcDbSymbolTable
 70
6
  0
LTYPE
  5
14
100
AcDbSymbolTableRecord
100
AcDbLinetypeTableRecord
  2
BYBLOCK
 70
0
  3

 72
65
 73
0
 40
0.0
  0
LTYPE
  5
15
100
AcDbSymbolTableRecord
100
AcDbLinetypeTableRecord
  2
BYLAYER
 70
0
  3

 72
65
 73
0
 40
0.0
  0
LTYPE
  5
16
100
AcDbSymbolTableRecord
100
AcDbLinetypeTableRecord
  2
CONTINUOUS
 70
64
  3
Solid line
 72
65
 73
0
 40
0.0
  0
LTYPE
  5
1F5
100
AcDbSymbolTableRecord
100
AcDbLinetypeTableRecord
  2
CENTER
 70
64
  3
____ _ ____ _ ____ _ ____ _ ____ _ ____ _ ____
 72
65
 73
4
 40
0.6
 49
0.375
 74
0
 49
-0.075
 74
0
 49
0.075
 74
0
 49
-0.075
 74
0
  0
LTYPE
  5
1F6
100
AcDbSymbolTableRecord
100
AcDbLinetypeTableRecord
  2
HIDDEN
 70
64
  3
- - - - - - - - - - - - - - - - - - - -
 72
65
 73
2
 40
0.2
 49
0.1
 74
0
 49
-0.1
 74
0
  0
LTYPE
  5
1F7
100
AcDbSymbolTableRecord
100
AcDbLinetypeTableRecord
  2
PHANTOM
 70
64
  3
_____ _ _ _____ _ _ _____ _ _ _____
 72
65
 73
6
 40
0.8
 49
0.45
 74
0
 49
-0.05
 74
0
 49
0.1
 74
0
 49
-0.05
 74
0
 49
0.1
 74
0
 49
-0.05
 74
0
  0
LTYPE
  5
1F8
100
AcDbSymbolTableRecord
100
AcDbLinetypeTableRecord
  2
DOT
 70
64
  3
. . . . . . . . . . . . . . . . . . . .
 72
65
 73
2
 40
0.2
 49
0.1
 74
0
 49
-0.1
 74
0
  0
LTYPE
  5
1F9
100
AcDbSymbolTableRecord
100
AcDbLinetypeTableRecord
  2
DASHED
 70
64
  3
- - - - - - - - - - - - - - - - - - - -
 72
65
 73
2
 40
0.2
 49
0.1
 74
0
 49
-0.1
 74
0
  0
ENDTAB
  0
TABLE
  2
LAYER
  5
2
100
AcDbSymbolTable
 70
36
  0
LAYER
  5
10
100
AcDbSymbolTableRecord
100
AcDbLayerTableRecord
  2
0
 70
0
 62
7
  6
CONTINUOUS
370
-3
390
F
  0
LAYER
  5
1FA
100
AcDbSymbolTableRecord
100
AcDbLayerTableRecord
  2
DEFAULT_1
 70
0
 62
7
  6
CENTER
370
-3
390
F
  0
LAYER
  5
1FB
100
AcDbSymbolTableRecord
100
AcDbLayerTableRecord
  2
DEFAULT_2
 70
0
 62
8
  6
HIDDEN
370
-3
390
F
  0
LAYER
  5
1FC
100
AcDbSymbolTableRecord
100
AcDbLayerTableRecord
  2
DEFAULT_3
 70
0
 62
7
  6
PHANTOM
370
-3
390
F
  0
LAYER
  5
1FD
100
AcDbSymbolTableRecord
100
AcDbLayerTableRecord
  2
DEFAULT_COORDINATE_SYSTEM
 70
0
 62
7
  6
CONTINUOUS
370
-3
390
F
  0
LAYER
  5
1FE
100
AcDbSymbolTableRecord
100
AcDbLayerTableRecord
  2
DEFAULT_DATUM_AXES
 70
0
 62
7
  6
CONTINUOUS
370
-3
390
F
  0
LAYER
  5
1FF
100
AcDbSymbolTableRecord
100
AcDbLayerTableRecord
  2
DEFAULT_DATUM_PLANES
 70
0
 62
7
  6
CONTINUOUS
370
-3
390
F
  0
ENDTAB
  0
TABLE
  2
STYLE
  5
3
100
AcDbSymbolTable
 70
1
  0
STYLE
  5
11
100
AcDbSymbolTableRecord
100
AcDbTextStyleTableRecord
  2
STANDARD
 70
0
 40
0.0
 41
0.8
 50
0.0
 71
0
 42
0.2
  3
txt
  4

  0
STYLE
  5
200
100
AcDbSymbolTableRecord
100
AcDbTextStyleTableRecord
  2
TEXTSTYLE_1
 70
0
 40
0.0
 41
0.8
 50
0.0
 71
0
 42
0.2
  3
gdt
  4

  0
ENDTAB
  0
TABLE
  2
VIEW
  5
6
100
AcDbSymbolTable
 70
0
  0
ENDTAB
  0
TABLE
  2
UCS
  5
7
100
AcDbSymbolTable
 70
0
  0
ENDTAB
  0
TABLE
  2
APPID
  5
9
100
AcDbSymbolTable
 70
1
  0
APPID
  5
201
100
AcDbSymbolTableRecord
100
AcDbRegAppTableRecord
  2
ACAD
 70
0
  0
ENDTAB
  0
TABLE
  2
BLOCK_RECORD
  5
1
100
AcDbSymbolTable
 70
0
  0
BLOCK_RECORD
  5
202
100
AcDbSymbolTableRecord
100
AcDbBlockTableRecord
  2
*Model_Space
  0
BLOCK_RECORD
  5
203
100
AcDbSymbolTableRecord
100
AcDbBlockTableRecord
  2
*Paper_Space
  0
BLOCK_RECORD
  5
204
100
AcDbSymbolTableRecord
100
AcDbBlockTableRecord
  2
_FILLED
  0
ENDTAB
  0
TABLE
  2
DIMSTYLE
  5
A
100
AcDbSymbolTable
 70
1
100
AcDbDimStyleTable
 71
0
  0
DIMSTYLE
105
205
100
AcDbSymbolTableRecord
100
AcDbDimStyleTableRecord
  2
STANDARD
 70
0
  3

  4

 40
1.0
 41
0.1
 42
0.0625
 43
0.38
 44
0.125
 45
0.0
 46
0.0
 47
0.01
 48
0.01
140
0.08
141
0.09
142
0.0
143
25.4
144
1.0
145
0.0
146
1.0
147
0.09
 71
1.0
 72
0.0
 73
1
 74
1
 75
0
 76
0
 77
0
 78
4
 79
1
170
1
171
1
172
0
173
0
174
0
175
0
176
0
177
0
178
0
270
2
179
2
271
2
272
2
273
2
274
2
275
0
280
0
281
0
282
0
283
1
284
4
285
0
286
0
287
3
288
0
340
11
278
46
341
204
342
204
343
204
344
204
  0
ENDTAB
  0
ENDSEC
  0
SECTION
  2
BLOCKS
  0
BLOCK
  5
20
100
AcDbEntity
  8
0
100
AcDbBlockBegin
  2
*Model_Space
 70
0
 10
0.0
 20
0.0
 30
0.0
  3
*Model_Space
  1

  0
ENDBLK
  5
21
100
AcDbEntity
  8
0
100
AcDbBlockEnd
  0
BLOCK
  5
1C
100
AcDbEntity
  8
0
100
AcDbBlockBegin
  2
*Paper_Space
 70
0
 10
0.0
 20
0.0
 30
0.0
  3
*Paper_Space
  1

  0
ENDBLK
  5
1D
100
AcDbEntity
  8
0
100
AcDbBlockEnd
  0
BLOCK
  5
206
100
AcDbEntity
  8
0
100
AcDbBlockBegin
  2
_FILLED
 70
64
 10
0.0
 20
0.0
  3
_FILLED
  1

  0
SOLID
  5
207
100
AcDbEntity
  8
0
  6
BYBLOCK
 62
0
100
AcDbTrace
 10
0.0
 20
0.0
 11
-1.0
 21
0.2
 12
-1.0
 22
-0.2
 13
-1.0
 23
-0.2
  0
ENDBLK
  5
208
100
AcDbEntity
  8
0
  6
BYBLOCK
 62
0
100
AcDbBlockEnd
  0
ENDSEC
  0
SECTION
  2
ENTITIES
  0
MTEXT
  5
209
100
AcDbEntity
  8
0
100
AcDbMText
 62
2
  6
CONTINUOUS
  7
STANDARD
 71
3
 72
1
 10
5.396234472
 20
3.0733262094
 30
0.0
 11
1.0
 21
0.0
 31
0.0
 73
2
 44
0.9
  1
SCALE  .500
 40
0.08
 41
0.704
  0
LINE
  5
20A
100
AcDbEntity
  8
0
100
AcDbLine
 62
7
  6
CONTINUOUS
 10
0.0
 20
0.0
 11
0.0
 21
8.5
  0
LINE
  5
20B
100
AcDbEntity
  8
0
100
AcDbLine
 62
7
  6
CONTINUOUS
 10
0.0
 20
0.0
 11
11.0
 21
0.0
  0
LINE
  5
20C
100
AcDbEntity
  8
0
100
AcDbLine
 62
7
  6
CONTINUOUS
 10
0.0
 20
8.5
 11
11.0
 21
8.5
  0
LINE
  5
20D
100
AcDbEntity
  8
0
100
AcDbLine
 62
7
  6
CONTINUOUS
 10
11.0
 20
0.0
 11
11.0
 21
8.5
  0
LINE
  5
20E
100
AcDbEntity
  8
0
100
AcDbLine
 62
7
  6
CONTINUOUS
 10
5.5131144967
 20
4.3747088509
 11
5.5129043203
 21
4.3747088509
  0
LINE
  5
20F
100
AcDbEntity
  8
0
100
AcDbLine
 62
7
  6
CONTINUOUS
 10
5.5707226867
 20
4.4747088509
 11
5.5709004588
 21
4.4747088509
  0
LINE
  5
210
100
AcDbEntity
  8
0
100
AcDbLine
 62
7
  6
CONTINUOUS
 10
5.5799577981
 20
4.4997088509
 11
5.5761702891
 21
4.4997088509
  0
LINE
  5
211
100
AcDbEntity
  8
0
100
AcDbLine
 62
7
  6
CONTINUOUS
 10
5.578162035
 20
4.5059588509
 11
5.5819360609
 21
4.5059588509
  0
LINE
  5
212
100
AcDbEntity
  8
0
100
AcDbLine
 62
7
  6
CONTINUOUS
 10
4.9550276584
 20
4.3103505446
 11
4.9550276584
 21
4.3120297665
  0
LINE
  5
213
100
AcDbEntity
  8
0
100
AcDbLine
 62
7
  6
CONTINUOUS
 10
4.9550276584
 20
4.340172378
 11
4.9550276584
 21
4.343071746
  0
LINE
  5
214
100
AcDbEntity
  8
0
100
AcDbLine
 62
7
  6
CONTINUOUS
 10
4.9795276584
 20
4.3283478685
 11
4.9795276584
 21
4.3169599586
  0
LINE
  5
215
100
AcDbEntity
  8
0
100
AcDbLine
 62
7
  6
CONTINUOUS
 10
4.9800276584
 20
4.2971980438
 11
4.9800276584
 21
4.2900692126
  0
LINE
  5
216
100
AcDbEntity
  8
0
100
AcDbLine
 62
7
  6
CONTINUOUS
 10
5.587123491
 20
4.5330421853
 11
5.5875980996
 21
4.5330421853
  0
LINE
  5
217
100
AcDbEntity
  8
0
100
AcDbLine
 62
7
  6
CONTINUOUS
 10
5.5865076007
 20
4.5372088509
 11
5.5870144479
 21
4.5372088509
  0
LINE
  5
218
100
AcDbEntity
  8
0
100
AcDbLine
 62
7
  6
CONTINUOUS
 10
5.5919531468
 20
4.5455421853
 11
5.5882814422
 21
4.5455421853
  0
LINE
  5
219
100
AcDbEntity
  8
0
100
AcDbLine
 62
7
  6
CONTINUOUS
 10
5.5894908066
 20
4.5517921823
 11
5.5927197089
 21
4.5517921823
  0
LINE
  5
21A
100
AcDbEntity
  8
0
100
AcDbLine
 62
7
  6
CONTINUOUS
 10
5.5972061606
 20
4.5830421823
 11
5.5976329648
 21
4.5830421823
  0
LINE
  5
21B
100
AcDbEntity
  8
0
100
AcDbLine
 62
7
  6
CONTINUOUS
 10
5.4122776584
 20
4.3283478685
 11
5.4122776584
 21
4.3169599586
  0
LINE
  5
21C
100
AcDbEntity
  8
0
100
AcDbLine
 62
7
  6
CONTINUOUS
 10
5.4122776584
 20
4.2975297722
 11
5.4122776584
 21
4.2903922905
  0
LINE
  5
21D
100
AcDbEntity
  8
0
100
AcDbLine
 62
7
  6
CONTINUOUS
 10
5.4367776584
 20
4.343071746
 11
5.4367776584
 21
4.340172378
  0
LINE
  5
21E
100
AcDbEntity
  8
0
100
AcDbLine
 62
7
  6
CONTINUOUS
 10
5.4367776584
 20
4.3120297665
 11
5.4367776584
 21
4.3102932782
  0
CIRCLE
  5
21F
100
AcDbEntity
  8
0
100
AcDbCircle
 62
7
  6
CONTINUOUS
 10
5.1959026584
 20
4.6247088509
 40
0.5
  0
CIRCLE
  5
220
100
AcDbEntity
  8
0
100
AcDbCircle
 62
7
  6
CONTINUOUS
 10
5.1959026584
 20
4.6247088509
 40
0.4777631728
  0
CIRCLE
  5
221
100
AcDbEntity
  8
0
100
AcDbCircle
 62
7
  6
CONTINUOUS
 10
5.1959026584
 20
4.6247088509
 40
0.451610833
  0
CIRCLE
  5
222
100
AcDbEntity
  8
0
100
AcDbCircle
 62
7
  6
CONTINUOUS
 10
5.1959026584
 20
4.6247088509
 40
0.4397657275
  0
CIRCLE
  5
223
100
AcDbEntity
  8
0
100
AcDbCircle
 62
7
  6
CONTINUOUS
 10
5.1959026584
 20
4.6247088509
 40
0.4125
  0
ARC
  5
224
100
AcDbEntity
  8
0
100
AcDbCircle
 62
7
  6
CONTINUOUS
 10
5.1959026584
 20
4.6247088509
 40
0.4038853183
100
AcDbArc
 50
321.7577593983
 51
338.1984746274
  0
ARC
  5
225
100
AcDbEntity
  8
0
100
AcDbCircle
 62
7
  6
CONTINUOUS
 10
5.1959026584
 20
4.6247088509
 40
0.4038853183
100
AcDbArc
 50
341.9712731018
 51
342.9012720309
  0
ARC
  5
226
100
AcDbEntity
  8
0
100
AcDbCircle
 62
7
  6
CONTINUOUS
 10
5.1959026584
 20
4.6247088509
 40
0.4038853183
100
AcDbArc
 50
348.6961092076
 51
354.0785682167
  0
ARC
  5
227
100
AcDbEntity
  8
0
100
AcDbCircle
 62
7
  6
CONTINUOUS
 10
5.1959026584
 20
4.6247088509
 40
0.4037202666
100
AcDbArc
 50
321.7392961581
 51
338.1891046426
  0
ARC
  5
228
100
AcDbEntity
  8
0
100
AcDbCircle
 62
7
  6
CONTINUOUS
 10
5.1959026584
 20
4.6247088509
 40
0.4034607938
100
AcDbArc
 50
349.587832481
 51
354.0723153285
  0
ARC
  5
229
100
AcDbEntity
  8
0
100
AcDbCircle
 62
7
  6
CONTINUOUS
 10
5.1959026584
 20
4.6247088509
 40
0.4022786301
100
AcDbArc
 50
342.8308646478
 51
346.8283806536
  0
ARC
  5
22A
100
AcDbEntity
  8
0
100
AcDbCircle
 62
7
  6
CONTINUOUS
 10
5.1959026584
 20
4.6247088509
 40
0.4018165221
100
AcDbArc
 50
342.8105051748
 51
346.8129595691
  0
ARC
  5
22B
100
AcDbEntity
  8
0
100
AcDbCircle
 62
7
  6
CONTINUOUS
 10
5.1959026584
 20
4.6247088509
 40
0.4007800917
100
AcDbArc
 50
342.7646633729
 51
347.3893747145
  0
ARC
  5
22C
100
AcDbEntity
  8
0
100
AcDbCircle
 62
7
  6
CONTINUOUS
 10
5.1959026584
 20
4.6247088509
 40
0.4002854868
100
AcDbArc
 50
341.8034858228
 51
347.3735355674
  0
ARC
  5
22D
100
AcDbEntity
  8
0
100
AcDbCircle
 62
7
  6
CONTINUOUS
 10
5.1959026584
 20
4.6247088509
 40
0.4002854868
100
AcDbArc
 50
348.5930931221
 51
349.5043042403
  0
ARC
  5
22E
100
AcDbEntity
  8
0
100
AcDbCircle
 62
7
  6
CONTINUOUS
 10
5.1959026584
 20
4.6247088509
 40
0.3982282049
100
AcDbArc
 50
237.174062484
 51
302.9115870233
  0
ARC
  5
22F
100
AcDbEntity
  8
0
100
AcDbCircle
 62
7
  6
CONTINUOUS
 10
5.1959026584
 20
4.6247088509
 40
0.3922567328
100
AcDbArc
 50
236.6095833167
 51
303.3904166833
  0
ARC
  5
230
100
AcDbEntity
  8
0
100
AcDbCircle
 62
7
  6
CONTINUOUS
 10
5.1959026584
 20
4.6247088509
 40
0.3762014372
100
AcDbArc
 50
234.88935178
 51
305.11064822
  0
ARC
  5
231
100
AcDbEntity
  8
0
100
AcDbCircle
 62
7
  6
CONTINUOUS
 10
5.1959026584
 20
4.6247088509
 40
0.3669441
100
AcDbArc
 50
233.8665854105
 51
306.1334145895
  0
CIRCLE
  5
232
100
AcDbEntity
  8
0
100
AcDbCircle
 62
7
  6
CONTINUOUS
 10
5.1959026584
 20
4.6247088509
 40
0.362
  0
CIRCLE
  5
233
100
AcDbEntity
  8
0
100
AcDbCircle
 62
7
  6
CONTINUOUS
 10
5.1959026584
 20
4.6247088509
 40
0.3375952707
  0
ARC
  5
234
100
AcDbEntity
  8
0
100
AcDbCircle
 62
7
  6
CONTINUOUS
 10
4.9449330461
 20
4.6247124831
 40
0.2495868054
100
AcDbArc
 50
174.4365371128
 51
180.000825207
  0
ARC
  5
235
100
AcDbEntity
  8
0
100
AcDbCircle
 62
7
  6
CONTINUOUS
 10
4.9447958272
 20
4.6246985556
 40
0.2494495867
100
AcDbArc
 50
179.9976266711
 51
185.5639565558
  0
CIRCLE
  5
236
100
AcDbEntity
  8
0
100
AcDbCircle
 62
7
  6
CONTINUOUS
 10
5.1959026584
 20
4.6247088509
 40
0.1532432432
  0
SPLINE
  5
237
100
AcDbEntity
  8
0
100
AcDbSpline
 62
7
  6
CONTINUOUS
 70
0
 71
3
 72
21
 73
17
 74
0
 42
0.0000001
 43
0.0000001
 44
0.0000000001
 40
0.0
 40
0.0
 40
0.0
 40
0.0
 40
0.0604786602
 40
0.1212535273
 40
0.1823345255
 40
0.2437265965
 40
0.3054297484
 40
0.3674387277
 40
0.4297436654
 40
0.4923299932
 40
0.6182106278
 40
0.7449397634
 40
0.8085690036
 40
0.872314795
 40
0.9361474057
 40
1.0
 40
1.0
 40
1.0
 40
1.0
 10
4.7347949728
 20
4.4315069691
 30
0.0
 10
4.7310581947
 20
4.4340772624
 30
0.0
 10
4.7237337179
 20
4.4394785832
 30
0.0
 10
4.713271095
 20
4.4482960262
 30
0.0
 10
4.7033453835
 20
4.4578136575
 30
0.0
 10
4.6939953971
 20
4.4679916977
 30
0.0
 10
4.6852568724
 20
4.4787888738
 30
0.0
 10
4.677163584
 20
4.4901615505
 30
0.0
 10
4.6697456116
 20
4.5020642556
 30
0.0
 10
4.6607785761
 20
4.5186055427
 30
0.0
 10
4.6514038396
 20
4.540369013
 30
0.0
 10
4.6446310753
 20
4.5631565982
 30
0.0
 10
4.6408087003
 20
4.5818340274
 30
0.0
 10
4.6387496927
 20
4.5960329915
 30
0.0
 10
4.6375119697
 20
4.610342781
 30
0.0
 10
4.637236141
 20
4.6199204262
 30
0.0
 10
4.637236141
 20
4.6247088509
 30
0.0
  0
SPLINE
  5
238
100
AcDbEntity
  8
0
100
AcDbSpline
 62
7
  6
CONTINUOUS
 70
0
 71
3
 72
23
 73
19
 74
0
 42
0.0000001
 43
0.0000001
 44
0.0000000001
 40
0.0
 40
0.0
 40
0.0
 40
0.0
 40
0.0599282349
 40
0.1200822334
 40
0.1805225824
 40
0.2413010247
 40
0.3024589592
 40
0.3640263036
 40
0.4260207049
 40
0.4884469411
 40
0.551296534
 40
0.6145486112
 40
0.6781703013
 40
0.7421181975
 40
0.8063396048
 40
0.8707700419
 40
0.9353526494
 40
1.0
 40
1.0
 40
1.0
 40
1.0
 10
4.7490839554
 20
4.4004294854
 30
0.0
 10
4.7431318156
 20
4.4016590605
 30
0.0
 10
4.7313143041
 20
4.4046892024
 30
0.0
 10
4.7140593251
 20
4.4108845955
 30
0.0
 10
4.697372945
 20
4.4186881391
 30
0.0
 10
4.6813833163
 20
4.428036241
 30
0.0
 10
4.6662091076
 20
4.4388541748
 30
0.0
 10
4.6519622718
 20
4.451056598
 30
0.0
 10
4.6387466013
 20
4.4645487011
 30
0.0
 10
4.626657577
 20
4.4792270003
 30
0.0
 10
4.6157816618
 20
4.4949799969
 30
0.0
 10
4.6061960287
 20
4.5116891129
 30
0.0
 10
4.59796833
 20
4.5292296279
 30
0.0
 10
4.5911565086
 20
4.5474715801
 30
0.0
 10
4.5858087231
 20
4.5662799672
 30
0.0
 10
4.5819613824
 20
4.5855173668
 30
0.0
 10
4.5796427882
 20
4.6050403004
 30
0.0
 10
4.57912613
 20
4.6181524326
 30
0.0
 10
4.57912613
 20
4.6247088509
 30
0.0
  0
SPLINE
  5
239
100
AcDbEntity
  8
0
100
AcDbSpline
 62
7
  6
CONTINUOUS
 70
0
 71
3
 72
23
 73
19
 74
0
 42
0.0000001
 43
0.0000001
 44
0.0000000001
 40
0.0
 40
0.0
 40
0.0
 40
0.0
 40
0.0601371748
 40
0.1202800906
 40
0.1805382739
 40
0.2410161422
 40
0.3018084475
 40
0.3629959714
 40
0.4246418918
 40
0.4867891545
 40
0.5494588994
 40
0.6126492283
 40
0.6763356136
 40
0.7404721809
 40
0.8049944829
 40
0.8698199624
 40
0.9348574421
 40
1.0
 40
1.0
 40
1.0
 40
1.0
 10
4.7504836133
 20
4.3975861746
 30
0.0
 10
4.7432299376
 20
4.396795337
 30
0.0
 10
4.7286175019
 20
4.3960428046
 30
0.0
 10
4.70671038
 20
4.3974313796
 30
0.0
 10
4.6850617496
 20
4.4013191248
 30
0.0
 10
4.6639195716
 20
4.4076591191
 30
0.0
 10
4.6435190314
 20
4.4163747777
 30
0.0
 10
4.6240853366
 20
4.4273625729
 30
0.0
 10
4.6058295457
 20
4.4404941241
 30
0.0
 10
4.5889470132
 20
4.455618705
 30
0.0
 10
4.5736158629
 20
4.4725656557
 30
0.0
 10
4.5599958441
 20
4.4911466097
 30
0.0
 10
4.5482275663
 20
4.5111577013
 30
0.0
 10
4.5384314181
 20
4.5323816911
 30
0.0
 10
4.5307074225
 20
4.5545897465
 30
0.0
 10
4.5251335049
 20
4.577544913
 30
0.0
 10
4.5217667199
 20
4.6009993604
 30
0.0
 10
4.521016119
 20
4.6168048706
 30
0.0
 10
4.521016119
 20
4.6247088509
 30
0.0
  0
SPLINE
  5
23A
100
AcDbEntity
  8
0
100
AcDbSpline
 62
7
  6
CONTINUOUS
 70
0
 71
3
 72
23
 73
19
 74
0
 42
0.0000001
 43
0.0000001
 44
0.0000000001
 40
0.0
 40
0.0
 40
0.0
 40
0.0
 40
0.0602148603
 40
0.1203950408
 40
0.1806561322
 40
0.241109956
 40
0.3018594369
 40
0.3629937668
 40
0.4245841613
 40
0.4866806732
 40
0.5493102217
 40
0.612475203
 40
0.6761534571
 40
0.7402997311
 40
0.8048482733
 40
0.8697142606
 40
0.9348016251
 40
1.0
 40
1.0
 40
1.0
 40
1.0
 10
4.7006820497
 20
4.3986763193
 30
0.0
 10
4.6932945365
 20
4.397542381
 30
0.0
 10
4.6783762801
 20
4.3961376433
 30
0.0
 10
4.6559098565
 20
4.3966672201
 30
0.0
 10
4.6336275778
 20
4.3998267142
 30
0.0
 10
4.6117976235
 20
4.4055761111
 30
0.0
 10
4.590675486
 20
4.4138422726
 30
0.0
 10
4.5705065667
 20
4.4245217546
 30
0.0
 10
4.5515213746
 20
4.4374831072
 30
0.0
 10
4.5339335989
 20
4.4525696765
 30
0.0
 10
4.517938261
 20
4.4696023504
 30
0.0
 10
4.5037103963
 20
4.4883821121
 30
0.0
 10
4.4914041186
 20
4.5086925399
 30
0.0
 10
4.4811515027
 20
4.5303022017
 30
0.0
 10
4.4730621848
 20
4.5529666968
 30
0.0
 10
4.4672218667
 20
4.576432394
 30
0.0
 10
4.4636929377
 20
4.6004337712
 30
0.0
 10
4.4629061081
 20
4.6166162506
 30
0.0
 10
4.4629061081
 20
4.6247088509
 30
0.0
  0
SPLINE
  5
23B
100
AcDbEntity
  8
0
100
AcDbSpline
 62
7
  6
CONTINUOUS
 70
0
 71
3
 72
23
 73
19
 74
0
 42
0.0000001
 43
0.0000001
 44
0.0000000001
 40
0.0
 40
0.0
 40
0.0
 40
0.0
 40
0.0602148603
 40
0.1203950408
 40
0.1806561322
 40
0.241109956
 40
0.3018594369
 40
0.3629937668
 40
0.4245841613
 40
0.4866806732
 40
0.5493102217
 40
0.612475203
 40
0.6761534571
 40
0.7402997311
 40
0.8048482733
 40
0.8697142606
 40
0.9348016251
 40
1.0
 40
1.0
 40
1.0
 40
1.0
 10
4.6425720387
 20
4.3986763193
 30
0.0
 10
4.6351845255
 20
4.397542381
 30
0.0
 10
4.6202662691
 20
4.3961376433
 30
0.0
 10
4.5977998455
 20
4.3966672201
 30
0.0
 10
4.5755175668
 20
4.3998267142
 30
0.0
 10
4.5536876125
 20
4.4055761111
 30
0.0
 10
4.532565475
 20
4.4138422726
 30
0.0
 10
4.5123965557
 20
4.4245217546
 30
0.0
 10
4.4934113636
 20
4.4374831072
 30
0.0
 10
4.4758235879
 20
4.4525696765
 30
0.0
 10
4.45982825
 20
4.4696023504
 30
0.0
 10
4.4456003853
 20
4.4883821121
 30
0.0
 10
4.4332941076
 20
4.5086925399
 30
0.0
 10
4.4230414917
 20
4.5303022017
 30
0.0
 10
4.4149521738
 20
4.5529666968
 30
0.0
 10
4.4091118557
 20
4.576432394
 30
0.0
 10
4.4055829267
 20
4.6004337712
 30
0.0
 10
4.4047960971
 20
4.6166162506
 30
0.0
 10
4.4047960971
 20
4.6247088509
 30
0.0
  0
SPLINE
  5
23C
100
AcDbEntity
  8
0
100
AcDbSpline
 62
7
  6
CONTINUOUS
 70
0
 71
3
 72
21
 73
17
 74
0
 42
0.0000001
 43
0.0000001
 44
0.0000000001
 40
0.0
 40
0.0
 40
0.0
 40
0.0
 40
0.063852856
 40
0.1276856931
 40
0.191431666
 40
0.2550610658
 40
0.3817903869
 40
0.507671052
 40
0.5702573398
 40
0.6325622044
 40
0.6945710787
 40
0.7562740996
 40
0.8176660128
 40
0.8787468356
 40
0.9395215251
 40
1.0
 40
1.0
 40
1.0
 40
1.0
 10
4.637236141
 20
4.6247088509
 30
0.0
 10
4.637236141
 20
4.6294975473
 30
0.0
 10
4.6375120008
 20
4.6390757335
 30
0.0
 10
4.6387498634
 20
4.653386321
 30
0.0
 10
4.6408091008
 20
4.6675860588
 30
0.0
 10
4.6446318985
 20
4.6862644672
 30
0.0
 10
4.6514054005
 20
4.7090531744
 30
0.0
 10
4.6607811362
 20
4.7308175948
 30
0.0
 10
4.6697491144
 20
4.7473594913
 30
0.0
 10
4.6771678415
 20
4.7592625781
 30
0.0
 10
4.6852619583
 20
4.7706355395
 30
0.0
 10
4.6940013357
 20
4.7814329297
 30
0.0
 10
4.7033522448
 20
4.791611064
 30
0.0
 10
4.713278886
 20
4.8011287181
 30
0.0
 10
4.7237424932
 20
4.8099460492
 30
0.0
 10
4.7310676206
 20
4.8153472509
 30
0.0
 10
4.7348047367
 20
4.8179174495
 30
0.0
  0
SPLINE
  5
23D
100
AcDbEntity
  8
0
100
AcDbSpline
 62
7
  6
CONTINUOUS
 70
0
 71
3
 72
23
 73
19
 74
0
 42
0.0000001
 43
0.0000001
 44
0.0000000001
 40
0.0
 40
0.0
 40
0.0
 40
0.0
 40
0.0646475215
 40
0.1292302494
 40
0.1936607787
 40
0.2578822396
 40
0.3218301531
 40
0.3854518369
 40
0.4487038797
 40
0.5115534182
 40
0.5739795858
 40
0.6359739079
 40
0.6975411741
 40
0.7586990333
 40
0.8194774124
 40
0.8799177301
 40
0.9400717302
 40
1.0
 40
1.0
 40
1.0
 40
1.0
 10
4.57912613
 20
4.6247088509
 30
0.0
 10
4.57912613
 20
4.6312653617
 30
0.0
 10
4.5796428025
 20
4.6443776739
 30
0.0
 10
4.5819614598
 20
4.6639008665
 30
0.0
 10
4.5858089018
 20
4.6831385031
 30
0.0
 10
4.5911568242
 20
4.7019471019
 30
0.0
 10
4.597968811
 20
4.7201892379
 30
0.0
 10
4.6061967038
 20
4.7377299051
 30
0.0
 10
4.6157825583
 20
4.7544391382
 30
0.0
 10
4.6266587166
 20
4.7701922144
 30
0.0
 10
4.6387479917
 20
4.7848705633
 30
0.0
 10
4.6519639326
 20
4.7983626734
 30
0.0
 10
4.666211054
 20
4.8105650585
 30
0.0
 10
4.6813855574
 20
4.8213829093
 30
0.0
 10
4.6973754779
 20
4.8307308993
 30
0.0
 10
4.7140621527
 20
4.8385342901
 30
0.0
 10
4.7313174319
 20
4.8447294759
 30
0.0
 10
4.7431351403
 20
4.8477594266
 30
0.0
 10
4.7490873725
 20
4.8489889162
 30
0.0
  0
SPLINE
  5
23E
100
AcDbEntity
  8
0
100
AcDbSpline
 62
7
  6
CONTINUOUS
 70
0
 71
3
 72
23
 73
19
 74
0
 42
0.0000001
 43
0.0000001
 44
0.0000000001
 40
0.0
 40
0.0
 40
0.0
 40
0.0
 40
0.0651426831
 40
0.1301802314
 40
0.1950057503
 40
0.2595280453
 40
0.3236645805
 40
0.387350907
 40
0.4505411617
 40
0.5132108186
 40
0.5753579924
 40
0.6370038314
 40
0.698191291
 40
0.7589835629
 40
0.8194614324
 40
0.8797196615
 40
0.9398626734
 40
1.0
 40
1.0
 40
1.0
 40
1.0
 10
4.521016119
 20
4.6247088509
 30
0.0
 10
4.521016119
 20
4.6326128823
 30
0.0
 10
4.521766729
 20
4.6484184878
 30
0.0
 10
4.5251335547
 20
4.6718730669
 30
0.0
 10
4.5307075309
 20
4.6948283423
 30
0.0
 10
4.5384316043
 20
4.717036484
 30
0.0
 10
4.548227841
 20
4.738260537
 30
0.0
 10
4.5599962183
 20
4.7582716692
 30
0.0
 10
4.5736163437
 20
4.7768526418
 30
0.0
 10
4.5889476061
 20
4.7937995901
 30
0.0
 10
4.6058302551
 20
4.8089241484
 30
0.0
 10
4.6240861667
 20
4.8220556582
 30
0.0
 10
4.643519987
 20
4.8330433933
 30
0.0
 10
4.6639206579
 20
4.8417589735
 30
0.0
 10
4.6850629723
 20
4.8480988678
 30
0.0
 10
4.7067117444
 20
4.8519864924
 30
0.0
 10
4.7286190111
 20
4.8533749105
 30
0.0
 10
4.7432315395
 20
4.8526222717
 30
0.0
 10
4.7504852584
 20
4.8518313547
 30
0.0
  0
SPLINE
  5
23F
100
AcDbEntity
  8
0
100
AcDbSpline
 62
7
  6
CONTINUOUS
 70
0
 71
3
 72
23
 73
19
 74
0
 42
0.0000001
 43
0.0000001
 44
0.0000000001
 40
0.0
 40
0.0
 40
0.0
 40
0.0
 40
0.0651987646
 40
0.1302864315
 40
0.1951526432
 40
0.2597012914
 40
0.323847563
 40
0.3875256992
 40
0.4506904628
 40
0.5133197078
 40
0.5754158683
 40
0.6370059007
 40
0.6981399069
 40
0.7588891541
 40
0.8193428815
 40
0.8796040626
 40
0.9397845608
 40
1.0
 40
1.0
 40
1.0
 40
1.0
 10
4.4629061081
 20
4.6247088509
 30
0.0
 10
4.4629061081
 20
4.6328024465
 30
0.0
 10
4.4636931305
 20
4.6489869083
 30
0.0
 10
4.4672229224
 20
4.6729911521
 30
0.0
 10
4.4730646491
 20
4.6964595059
 30
0.0
 10
4.4811558943
 20
4.719126357
 30
0.0
 10
4.4914109073
 20
4.7407379889
 30
0.0
 10
4.5037200026
 20
4.7610499224
 30
0.0
 10
4.5179510405
 20
4.7798306538
 30
0.0
 10
4.5339498365
 20
4.7968636987
 30
0.0
 10
4.5515412751
 20
4.8119499878
 30
0.0
 10
4.5705302482
 20
4.8249103675
 30
0.0
 10
4.5907029727
 20
4.8355881543
 30
0.0
 10
4.6118288395
 20
4.8438518838
 30
0.0
 10
4.6336623433
 20
4.8495981109
 30
0.0
 10
4.6559478858
 20
4.8527537141
 30
0.0
 10
4.6784171825
 20
4.8532787169
 30
0.0
 10
4.6933369939
 20
4.8518705052
 30
0.0
 10
4.7007251852
 20
4.850734748
 30
0.0
  0
SPLINE
  5
240
100
AcDbEntity
  8
0
100
AcDbSpline
 62
7
  6
CONTINUOUS
 70
0
 71
3
 72
23
 73
19
 74
0
 42
0.0000001
 43
0.0000001
 44
0.0000000001
 40
0.0
 40
0.0
 40
0.0
 40
0.0
 40
0.0651987646
 40
0.1302864315
 40
0.1951526432
 40
0.2597012914
 40
0.323847563
 40
0.3875256992
 40
0.4506904628
 40
0.5133197078
 40
0.5754158683
 40
0.6370059007
 40
0.6981399069
 40
0.7588891541
 40
0.8193428815
 40
0.8796040626
 40
0.9397845608
 40
1.0
 40
1.0
 40
1.0
 40
1.0
 10
4.4047960971
 20
4.6247088509
 30
0.0
 10
4.4047960971
 20
4.6328024465
 30
0.0
 10
4.4055831195
 20
4.6489869083
 30
0.0
 10
4.4091129114
 20
4.6729911521
 30
0.0
 10
4.4149546381
 20
4.6964595059
 30
0.0
 10
4.4230458834
 20
4.719126357
 30
0.0
 10
4.4333008963
 20
4.7407379889
 30
0.0
 10
4.4456099916
 20
4.7610499224
 30
0.0
 10
4.4598410295
 20
4.7798306538
 30
0.0
 10
4.4758398255
 20
4.7968636987
 30
0.0
 10
4.4934312641
 20
4.8119499878
 30
0.0
 10
4.5124202372
 20
4.8249103675
 30
0.0
 10
4.5325929618
 20
4.8355881543
 30
0.0
 10
4.5537188285
 20
4.8438518838
 30
0.0
 10
4.5755523323
 20
4.8495981109
 30
0.0
 10
4.5978378748
 20
4.8527537141
 30
0.0
 10
4.6203071715
 20
4.8532787169
 30
0.0
 10
4.6352269829
 20
4.8518705052
 30
0.0
 10
4.6426151742
 20
4.850734748
 30
0.0
  0
SPLINE
  5
241
100
AcDbEntity
  8
0
100
AcDbSpline
 62
7
  6
CONTINUOUS
 70
0
 71
3
 72
31
 73
27
 74
0
 42
0.0000001
 43
0.0000001
 44
0.0000000001
 40
0.0
 40
0.0
 40
0.0
 40
0.0
 40
0.0076256418
 40
0.0109980402
 40
0.0142748126
 40
0.0176407576
 40
0.021272435
 40
0.0253143623
 40
0.0298685207
 40
0.0350031797
 40
0.0407633399
 40
0.0542618767
 40
0.0704756205
 40
0.0893705937
 40
0.1108630199
 40
0.134831621
 40
0.1895616457
 40
0.2522478774
 40
0.3215762673
 40
0.3963489661
 40
0.4755125044
 40
0.5581673677
 40
0.643533086
 40
0.7309522931
 40
0.8198722592
 40
1.0
 40
1.0
 40
1.0
 40
1.0
 10
4.9550276584
 20
4.343071746
 30
0.0
 10
4.9550276584
 20
4.3431464292
 30
0.0
 10
4.9550411599
 20
4.3432564426
 30
0.0
 10
4.9551029133
 20
4.3433831441
 30
0.0
 10
4.9551664583
 20
4.3434591944
 30
0.0
 10
4.9552485985
 20
4.3435189177
 30
0.0
 10
4.9553485599
 20
4.3435620166
 30
0.0
 10
4.955465816
 20
4.343588783
 30
0.0
 10
4.9556001903
 20
4.3435997821
 30
0.0
 10
4.9557516701
 20
4.343595283
 30
0.0
 10
4.9559891528
 20
4.3435671835
 30
0.0
 10
4.9563285621
 20
4.3434889901
 30
0.0
 10
4.9567813001
 20
4.3433407677
 30
0.0
 10
4.957296447
 20
4.3431352543
 30
0.0
 10
4.957870473
 20
4.3428745711
 30
0.0
 10
4.9587489435
 20
4.3424370392
 30
0.0
 10
4.9599616665
 20
4.3417676196
 30
0.0
 10
4.9615314957
 20
4.3408288552
 30
0.0
 10
4.9632442218
 20
4.3397478037
 30
0.0
 10
4.9650728607
 20
4.338548823
 30
0.0
 10
4.9669942782
 20
4.3372537038
 30
0.0
 10
4.9689884801
 20
4.3358811919
 30
0.0
 10
4.9710386344
 20
4.3344475058
 30
0.0
 10
4.9731302996
 20
4.3329662002
 30
0.0
 10
4.9759694347
 20
4.3309346125
 30
0.0
 10
4.978102877
 20
4.3293881103
 30
0.0
 10
4.9795276584
 20
4.3283478685
 30
0.0
  0
SPLINE
  5
242
100
AcDbEntity
  8
0
100
AcDbSpline
 62
7
  6
CONTINUOUS
 70
0
 71
3
 72
31
 73
27
 74
0
 42
0.0000001
 43
0.0000001
 44
0.0000000001
 40
0.0
 40
0.0
 40
0.0
 40
0.0
 40
0.002490218
 40
0.0047006969
 40
0.0068726902
 40
0.0092614544
 40
0.0120655963
 40
0.0154121947
 40
0.0239847961
 40
0.0352497369
 40
0.0492617893
 40
0.0659939725
 40
0.085351056
 40
0.1072168881
 40
0.1314619517
 40
0.1579383714
 40
0.1864929193
 40
0.2492295542
 40
0.3185024387
 40
0.3932197969
 40
0.4724237361
 40
0.5552510656
 40
0.6409510659
 40
0.7288513799
 40
0.8183828878
 40
1.0
 40
1.0
 40
1.0
 40
1.0
 10
4.9550276584
 20
4.3120297665
 30
0.0
 10
4.9550276584
 20
4.3120541944
 30
0.0
 10
4.9550323635
 20
4.3121006859
 30
0.0
 10
4.9550598351
 20
4.3121637126
 30
0.0
 10
4.9551076989
 20
4.3122118654
 30
0.0
 10
4.9551736385
 20
4.3122438246
 30
0.0
 10
4.9552562324
 20
4.3122609294
 30
0.0
 10
4.955401096
 20
4.3122652228
 30
0.0
 10
4.9556270949
 20
4.3122287801
 30
0.0
 10
4.9559463923
 20
4.3121369513
 30
0.0
 10
4.9563327666
 20
4.3119925917
 30
0.0
 10
4.9567837656
 20
4.3117970156
 30
0.0
 10
4.9572968511
 20
4.3115519277
 30
0.0
 10
4.9578686806
 20
4.3112594952
 30
0.0
 10
4.9584957732
 20
4.3109221142
 30
0.0
 10
4.9591745753
 20
4.3105426058
 30
0.0
 10
4.9601755515
 20
4.3099658045
 30
0.0
 10
4.9615275791
 20
4.3091576444
 30
0.0
 10
4.9632537999
 20
4.308093375
 30
0.0
 10
4.9651063951
 20
4.3069264903
 30
0.0
 10
4.967063125
 20
4.3056755771
 30
0.0
 10
4.969104457
 20
4.3043570435
 30
0.0
 10
4.9712129418
 20
4.3029852794
 30
0.0
 10
4.9733734158
 20
4.301572845
 30
0.0
 10
4.9763183867
 20
4.2996409064
 30
0.0
 10
4.9785401451
 20
4.2981785211
 30
0.0
 10
4.9800276584
 20
4.2971980438
 30
0.0
  0
SPLINE
  5
243
100
AcDbEntity
  8
0
100
AcDbSpline
 62
7
  6
CONTINUOUS
 70
0
 71
3
 72
31
 73
27
 74
0
 42
0.0000001
 43
0.0000001
 44
0.0000000001
 40
0.0
 40
0.0
 40
0.0
 40
0.0
 40
0.1816172008
 40
0.2711487239
 40
0.3590490196
 40
0.4447490404
 40
0.5275764369
 40
0.606780411
 40
0.681497792
 40
0.7507706494
 40
0.8135072956
 40
0.8420618584
 40
0.8685383009
 40
0.8927833781
 40
0.9146491773
 40
0.9340061767
 40
0.9507382884
 40
0.9647503083
 40
0.9760152217
 40
0.9845878107
 40
0.9879344082
 40
0.9907385481
 40
0.9931273103
 40
0.9952993027
 40
0.9975097817
 40
1.0
 40
1.0
 40
1.0
 40
1.0
 10
5.4117776584
 20
4.2971980438
 30
0.0
 10
5.4132651724
 20
4.2981785216
 30
0.0
 10
5.4154869317
 20
4.2996409075
 30
0.0
 10
5.4184319034
 20
4.3015728465
 30
0.0
 10
5.4205923774
 20
4.302985281
 30
0.0
 10
5.4227008628
 20
4.3043570455
 30
0.0
 10
5.4247421958
 20
4.3056755798
 30
0.0
 10
5.4266989269
 20
4.3069264935
 30
0.0
 10
5.4285515223
 20
4.3080933784
 30
0.0
 10
5.4302777432
 20
4.3091576478
 30
0.0
 10
5.4316297708
 20
4.3099658079
 30
0.0
 10
5.4326307476
 20
4.3105426092
 30
0.0
 10
5.4333095502
 20
4.3109221176
 30
0.0
 10
5.4339366429
 20
4.3112594986
 30
0.0
 10
5.4345084713
 20
4.3115519309
 30
0.0
 10
5.4350215554
 20
4.3117970177
 30
0.0
 10
5.4354725529
 20
4.3119925926
 30
0.0
 10
5.4358589259
 20
4.3121369519
 30
0.0
 10
5.4361782227
 20
4.3122287802
 30
0.0
 10
5.4364042212
 20
4.3122652228
 30
0.0
 10
5.4365490846
 20
4.3122609295
 30
0.0
 10
5.4366316785
 20
4.3122438247
 30
0.0
 10
5.436697618
 20
4.3122118655
 30
0.0
 10
5.4367454818
 20
4.3121637126
 30
0.0
 10
5.4367729533
 20
4.3121006859
 30
0.0
 10
5.4367776584
 20
4.3120541944
 30
0.0
 10
5.4367776584
 20
4.3120297665
 30
0.0
  0
SPLINE
  5
244
100
AcDbEntity
  8
0
100
AcDbSpline
 62
7
  6
CONTINUOUS
 70
0
 71
3
 72
31
 73
27
 74
0
 42
0.0000001
 43
0.0000001
 44
0.0000000001
 40
0.0
 40
0.0
 40
0.0
 40
0.0
 40
0.1801279751
 40
0.2690478368
 40
0.3564667839
 40
0.4418323559
 40
0.5244871654
 40
0.6036507076
 40
0.6784233404
 40
0.7477518605
 40
0.8104382545
 40
0.865168431
 40
0.8891370834
 40
0.9106295246
 40
0.9295244634
 40
0.9457381697
 40
0.9592366927
 40
0.9649968446
 40
0.9701314951
 40
0.974685646
 40
0.9787275679
 40
0.9823592427
 40
0.9857251874
 40
0.9890019602
 40
0.9923743588
 40
1.0
 40
1.0
 40
1.0
 40
1.0
 10
5.4122776584
 20
4.3283478685
 30
0.0
 10
5.4137024417
 20
4.3293881116
 30
0.0
 10
5.4158358848
 20
4.3309346149
 30
0.0
 10
5.4186750193
 20
4.3329662012
 30
0.0
 10
5.4207666803
 20
4.334447504
 30
0.0
 10
5.4228168306
 20
4.335881188
 30
0.0
 10
5.4248110312
 20
4.3372536985
 30
0.0
 10
5.4267324474
 20
4.3385488175
 30
0.0
 10
5.428561087
 20
4.3397477983
 30
0.0
 10
5.4302738147
 20
4.3408288514
 30
0.0
 10
5.4318436475
 20
4.3417676183
 30
0.0
 10
5.4330563739
 20
4.3424370392
 30
0.0
 10
5.4339348462
 20
4.3428745721
 30
0.0
 10
5.4345088724
 20
4.3431352558
 30
0.0
 10
5.435024019
 20
4.3433407687
 30
0.0
 10
5.4354767562
 20
4.3434889903
 30
0.0
 10
5.435816165
 20
4.3435671838
 30
0.0
 10
5.4360536473
 20
4.3435952833
 30
0.0
 10
5.4362051269
 20
4.3435997823
 30
0.0
 10
5.436339501
 20
4.3435887831
 30
0.0
 10
5.4364567569
 20
4.3435620166
 30
0.0
 10
5.4365567182
 20
4.3435189176
 30
0.0
 10
5.4366388584
 20
4.3434591944
 30
0.0
 10
5.4367024034
 20
4.3433831441
 30
0.0
 10
5.4367641568
 20
4.3432564426
 30
0.0
 10
5.4367776584
 20
4.3431464292
 30
0.0
 10
5.4367776584
 20
4.343071746
 30
0.0
  0
SPLINE
  5
245
100
AcDbEntity
  8
0
100
AcDbSpline
 62
7
  6
CONTINUOUS
 70
0
 71
3
 72
17
 73
13
 74
0
 42
0.0000001
 43
0.0000001
 44
0.0000000001
 40
0.0
 40
0.0
 40
0.0
 40
0.0
 40
0.1271477147
 40
0.1906774182
 40
0.2541119439
 40
0.3805805365
 40
0.5063979931
 40
0.5690194268
 40
0.6314110578
 40
0.7554009001
 40
0.8782876414
 40
1.0
 40
1.0
 40
1.0
 40
1.0
 10
4.6606339828
 20
4.6247088509
 30
0.0
 10
4.6606339828
 20
4.6318828812
 30
0.0
 10
4.6611263557
 20
4.6426499441
 30
0.0
 10
4.6627627469
 20
4.6568975681
 30
0.0
 10
4.6650451975
 20
4.6710182668
 30
0.0
 10
4.6690988294
 20
4.6883922576
 30
0.0
 10
4.6747314529
 20
4.7052728434
 30
0.0
 10
4.6801486168
 20
4.7183526714
 30
0.0
 10
4.6861342921
 20
4.7310681139
 30
0.0
 10
4.6946879436
 20
4.7463115671
 30
0.0
 10
4.7065911938
 20
4.7634025805
 30
0.0
 10
4.7155756892
 20
4.773914525
 30
0.0
 10
4.7202959215
 20
4.7789025039
 30
0.0
  0
SPLINE
  5
246
100
AcDbEntity
  8
0
100
AcDbSpline
 62
7
  6
CONTINUOUS
 70
0
 71
3
 72
26
 73
22
 74
0
 42
0.0000001
 43
0.0000001
 44
0.0000000001
 40
0.0
 40
0.0
 40
0.0
 40
0.0
 40
0.0593237194
 40
0.0890875814
 40
0.1189279667
 40
0.1788602539
 40
0.2392077756
 40
0.2695634707
 40
0.3000424635
 40
0.3613716597
 40
0.4232346729
 40
0.4856375235
 40
0.5170459713
 40
0.5485839009
 40
0.6120179784
 40
0.6759121171
 40
0.7402117646
 40
0.8048503391
 40
0.8697479564
 40
0.9348346253
 40
1.0
 40
1.0
 40
1.0
 40
1.0
 10
4.6500865723
 20
4.4137413072
 30
0.0
 10
4.6444361874
 20
4.4147102786
 30
0.0
 10
4.6360143981
 20
4.4165802113
 30
0.0
 10
4.6250013646
 20
4.419877177
 30
0.0
 10
4.6141026039
 20
4.4237180144
 30
0.0
 10
4.6007799626
 20
4.4295178571
 30
0.0
 10
4.5880198342
 20
4.4365705761
 30
0.0
 10
4.5781861471
 20
4.442936381
 30
0.0
 10
4.5685785845
 20
4.4498030378
 30
0.0
 10
4.5571013144
 20
4.4592617926
 30
0.0
 10
4.5443239341
 20
4.4718803065
 30
0.0
 10
4.5345801465
 20
4.4833698283
 30
0.0
 10
4.5273600298
 20
4.4931002262
 30
0.0
 10
4.5205087334
 20
4.503214477
 30
0.0
 10
4.5127215857
 20
4.516468548
 30
0.0
 10
4.5047053523
 20
4.5331851864
 30
0.0
 10
4.4980596278
 20
4.550617385
 30
0.0
 10
4.4928369153
 20
4.5686277985
 30
0.0
 10
4.4890765684
 20
4.5870770501
 30
0.0
 10
4.4868093894
 20
4.6058184626
 30
0.0
 10
4.4863039498
 20
4.6184114647
 30
0.0
 10
4.4863039498
 20
4.6247088509
 30
0.0
  0
SPLINE
  5
247
100
AcDbEntity
  8
0
100
AcDbSpline
 62
7
  6
CONTINUOUS
 70
0
 71
3
 72
25
 73
21
 74
0
 42
0.0000001
 43
0.0000001
 44
0.0000000001
 40
0.0
 40
0.0
 40
0.0
 40
0.0
 40
0.0594422282
 40
0.0892949707
 40
0.119240051
 40
0.1794178708
 40
0.2400295261
 40
0.2705138455
 40
0.3011163289
 40
0.3626695554
 40
0.4247059111
 40
0.4872172663
 40
0.5501839002
 40
0.6135749314
 40
0.6773494432
 40
0.7414586541
 40
0.8058432065
 40
0.8704387927
 40
0.935191033
 40
1.0
 40
1.0
 40
1.0
 40
1.0
 10
4.7395255996
 20
4.4205116576
 30
0.0
 10
4.7346006611
 20
4.4221705407
 30
0.0
 10
4.7273051825
 20
4.4249845197
 30
0.0
 10
4.7178369135
 20
4.4293517205
 30
0.0
 10
4.7085043183
 20
4.4341458171
 30
0.0
 10
4.6971733304
 20
4.4409063962
 30
0.0
 10
4.6864052872
 20
4.4486122177
 30
0.0
 10
4.6781471598
 20
4.4553248916
 30
0.0
 10
4.6701066836
 20
4.4624218136
 30
0.0
 10
4.6605483966
 20
4.4719499665
 30
0.0
 10
4.6499625095
 20
4.4843269987
 30
0.0
 10
4.6403034354
 20
4.4975934914
 30
0.0
 10
4.6316322879
 20
4.5116644802
 30
0.0
 10
4.6240033567
 20
4.5264507737
 30
0.0
 10
4.6174652183
 20
4.5418589555
 30
0.0
 10
4.6120588631
 20
4.5577912477
 30
0.0
 10
4.6078179541
 20
4.5741464618
 30
0.0
 10
4.6047694068
 20
4.5908225376
 30
0.0
 10
4.6029332829
 20
4.6077115313
 30
0.0
 10
4.6025239718
 20
4.6190428391
 30
0.0
 10
4.6025239718
 20
4.6247088509
 30
0.0
  0
SPLINE
  5
248
100
AcDbEntity
  8
0
100
AcDbSpline
 62
7
  6
CONTINUOUS
 70
0
 71
3
 72
17
 73
13
 74
0
 42
0.0000001
 43
0.0000001
 44
0.0000000001
 40
0.0
 40
0.0
 40
0.0
 40
0.0
 40
0.1217123586
 40
0.2445990999
 40
0.3685889422
 40
0.4309805732
 40
0.4936020069
 40
0.6194194635
 40
0.7458880561
 40
0.8093225818
 40
0.8728522853
 40
1.0
 40
1.0
 40
1.0
 40
1.0
 10
4.7202959215
 20
4.4705151979
 30
0.0
 10
4.7155756892
 20
4.4755031769
 30
0.0
 10
4.7065911938
 20
4.4860151214
 30
0.0
 10
4.6946879436
 20
4.5031061347
 30
0.0
 10
4.6861342921
 20
4.518349588
 30
0.0
 10
4.6801486168
 20
4.5310650305
 30
0.0
 10
4.6747314529
 20
4.5441448584
 30
0.0
 10
4.6690988294
 20
4.5610254443
 30
0.0
 10
4.6650451975
 20
4.578399435
 30
0.0
 10
4.6627627469
 20
4.5925201338
 30
0.0
 10
4.6611263557
 20
4.6067677578
 30
0.0
 10
4.6606339828
 20
4.6175348206
 30
0.0
 10
4.6606339828
 20
4.6247088509
 30
0.0
  0
SPLINE
  5
249
100
AcDbEntity
  8
0
100
AcDbSpline
 62
7
  6
CONTINUOUS
 70
0
 71
3
 72
26
 73
22
 74
0
 42
0.0000001
 43
0.0000001
 44
0.0000000001
 40
0.0
 40
0.0
 40
0.0
 40
0.0
 40
0.0593237194
 40
0.0890875814
 40
0.1189279667
 40
0.1788602539
 40
0.2392077756
 40
0.2695634707
 40
0.3000424635
 40
0.3613716597
 40
0.4232346729
 40
0.4856375235
 40
0.5170459713
 40
0.5485839009
 40
0.6120179784
 40
0.6759121171
 40
0.7402117646
 40
0.8048503391
 40
0.8697479564
 40
0.9348346253
 40
1.0
 40
1.0
 40
1.0
 40
1.0
 10
4.7081965832
 20
4.4137413072
 30
0.0
 10
4.7025461984
 20
4.4147102786
 30
0.0
 10
4.694124409
 20
4.4165802113
 30
0.0
 10
4.6831113756
 20
4.419877177
 30
0.0
 10
4.6722126149
 20
4.4237180144
 30
0.0
 10
4.6588899736
 20
4.4295178571
 30
0.0
 10
4.6461298451
 20
4.4365705761
 30
0.0
 10
4.636296158
 20
4.442936381
 30
0.0
 10
4.6266885955
 20
4.4498030378
 30
0.0
 10
4.6152113254
 20
4.4592617926
 30
0.0
 10
4.6024339451
 20
4.4718803065
 30
0.0
 10
4.5926901575
 20
4.4833698283
 30
0.0
 10
4.5854700408
 20
4.4931002262
 30
0.0
 10
4.5786187444
 20
4.503214477
 30
0.0
 10
4.5708315967
 20
4.516468548
 30
0.0
 10
4.5628153633
 20
4.5331851864
 30
0.0
 10
4.5561696388
 20
4.550617385
 30
0.0
 10
4.5509469262
 20
4.5686277985
 30
0.0
 10
4.5471865794
 20
4.5870770501
 30
0.0
 10
4.5449194004
 20
4.6058184626
 30
0.0
 10
4.5444139608
 20
4.6184114647
 30
0.0
 10
4.5444139608
 20
4.6247088509
 30
0.0
  0
SPLINE
  5
24A
100
AcDbEntity
  8
0
100
AcDbSpline
 62
7
  6
CONTINUOUS
 70
0
 71
3
 72
24
 73
20
 74
0
 42
0.0000001
 43
0.0000001
 44
0.0000000001
 40
0.0
 40
0.0
 40
0.0
 40
0.0
 40
0.1715628817
 40
0.3391584173
 40
0.4988934655
 40
0.5745639772
 40
0.64668147
 40
0.7145782932
 40
0.7775385379
 40
0.8347013089
 40
0.8851396563
 40
0.9278077387
 40
0.9459014918
 40
0.9616672596
 40
0.9749926288
 40
0.9857968549
 40
0.9940767229
 40
0.9973117094
 40
1.0
 40
1.0
 40
1.0
 40
1.0
 10
4.9800276584
 20
4.2900692126
 30
0.0
 10
4.9784718581
 20
4.2910728545
 30
0.0
 10
4.9754229836
 20
4.2930987573
 30
0.0
 10
4.9710198028
 20
4.2961978284
 30
0.0
 10
4.9675325485
 20
4.2987975742
 30
0.0
 10
4.9649166216
 20
4.3008399152
 30
0.0
 10
4.9631044462
 20
4.3023007824
 30
0.0
 10
4.9614223663
 20
4.3037040061
 30
0.0
 10
4.9598889277
 20
4.30503294
 30
0.0
 10
4.9585244023
 20
4.3062685327
 30
0.0
 10
4.9573520356
 20
4.3073892099
 30
0.0
 10
4.9565139021
 20
4.3082486877
 30
0.0
 10
4.9559629061
 20
4.308864057
 30
0.0
 10
4.9556370548
 20
4.3092554822
 30
0.0
 10
4.9553778325
 20
4.30959966
 30
0.0
 10
4.9551881145
 20
4.3098936816
 30
0.0
 10
4.9550800558
 20
4.3101104602
 30
0.0
 10
4.9550359779
 20
4.3102576249
 30
0.0
 10
4.9550276584
 20
4.3103215337
 30
0.0
 10
4.9550276584
 20
4.3103505446
 30
0.0
  0
SPLINE
  5
24B
100
AcDbEntity
  8
0
100
AcDbSpline
 62
7
  6
CONTINUOUS
 70
0
 71
3
 72
26
 73
22
 74
0
 42
0.0000001
 43
0.0000001
 44
0.0000000001
 40
0.0
 40
0.0
 40
0.0
 40
0.0
 40
0.0651653747
 40
0.1302520436
 40
0.1951496609
 40
0.2597882354
 40
0.3240878829
 40
0.3879820216
 40
0.4514160991
 40
0.4829540287
 40
0.5143624765
 40
0.5767653271
 40
0.6386283403
 40
0.6999575365
 40
0.7304365293
 40
0.7607922244
 40
0.8211397461
 40
0.8810720333
 40
0.9109124186
 40
0.9406762806
 40
1.0
 40
1.0
 40
1.0
 40
1.0
 10
4.4281939388
 20
4.6247088509
 30
0.0
 10
4.4281939388
 20
4.6184114647
 30
0.0
 10
4.4286993784
 20
4.6058184626
 30
0.0
 10
4.4309665574
 20
4.5870770501
 30
0.0
 10
4.4347269043
 20
4.5686277985
 30
0.0
 10
4.4399496168
 20
4.550617385
 30
0.0
 10
4.4465953413
 20
4.5331851864
 30
0.0
 10
4.4546115747
 20
4.516468548
 30
0.0
 10
4.4623987225
 20
4.503214477
 30
0.0
 10
4.4692500188
 20
4.4931002262
 30
0.0
 10
4.4764701355
 20
4.4833698283
 30
0.0
 10
4.4862139231
 20
4.4718803065
 30
0.0
 10
4.4989913034
 20
4.4592617926
 30
0.0
 10
4.5104685735
 20
4.4498030378
 30
0.0
 10
4.5200761361
 20
4.442936381
 30
0.0
 10
4.5299098232
 20
4.4365705761
 30
0.0
 10
4.5426699517
 20
4.4295178571
 30
0.0
 10
4.5559925929
 20
4.4237180144
 30
0.0
 10
4.5668913537
 20
4.419877177
 30
0.0
 10
4.5779043871
 20
4.4165802113
 30
0.0
 10
4.5863261764
 20
4.4147102786
 30
0.0
 10
4.5919765613
 20
4.4137413072
 30
0.0
  0
SPLINE
  5
24C
100
AcDbEntity
  8
0
100
AcDbSpline
 62
7
  6
CONTINUOUS
 70
0
 71
3
 72
24
 73
20
 74
0
 42
0.0000001
 43
0.0000001
 44
0.0000000001
 40
0.0
 40
0.0
 40
0.0
 40
0.0
 40
0.0026845495
 40
0.0059161072
 40
0.0141902198
 40
0.0249901407
 40
0.038312576
 40
0.0540766769
 40
0.0721699594
 40
0.1148404191
 40
0.1652846515
 40
0.2224557906
 40
0.2854255584
 40
0.3533318694
 40
0.4254577087
 40
0.50113429
 40
0.6608724706
 40
0.8284576919
 40
1.0
 40
1.0
 40
1.0
 40
1.0
 10
5.4367776584
 20
4.3102932782
 30
0.0
 10
5.4367776584
 20
4.3102648741
 30
0.0
 10
5.4367694961
 20
4.3102022912
 30
0.0
 10
5.4367262613
 20
4.3100581526
 30
0.0
 10
5.4366202794
 20
4.3098457905
 30
0.0
 10
5.4364342297
 20
4.3095577099
 30
0.0
 10
5.4361800176
 20
4.3092204242
 30
0.0
 10
5.4358604669
 20
4.3088367821
 30
0.0
 10
5.4353201145
 20
4.3082335588
 30
0.0
 10
5.4344982102
 20
4.3073909295
 30
0.0
 10
5.4333486288
 20
4.3062920572
 30
0.0
 10
5.432010721
 20
4.3050803216
 30
0.0
 10
5.4305073285
 20
4.3037768604
 30
0.0
 10
5.4288583774
 20
4.3024003385
 30
0.0
 10
5.427082094
 20
4.3009670671
 30
0.0
 10
5.4245183419
 20
4.298963049
 30
0.0
 10
5.4211012931
 20
4.2964114703
 30
0.0
 10
5.4167876819
 20
4.293368597
 30
0.0
 10
5.4138013825
 20
4.291378469
 30
0.0
 10
5.4122776584
 20
4.2903922905
 30
0.0
  0
SPLINE
  5
24D
100
AcDbEntity
  8
0
100
AcDbSpline
 62
7
  6
CONTINUOUS
 70
0
 71
3
 72
26
 73
22
 74
0
 42
0.0000001
 43
0.0000001
 44
0.0000000001
 40
0.0
 40
0.0
 40
0.0
 40
0.0
 40
0.0651653774
 40
0.1302520488
 40
0.1951496685
 40
0.2597882448
 40
0.3240878936
 40
0.3879820331
 40
0.4514161107
 40
0.4829540401
 40
0.5143624877
 40
0.5767653373
 40
0.6386283489
 40
0.6999575432
 40
0.7304365351
 40
0.7607922292
 40
0.821139749
 40
0.8810720346
 40
0.9109124192
 40
0.9406762808
 40
1.0
 40
1.0
 40
1.0
 40
1.0
 10
4.4863039498
 20
4.6247088509
 30
0.0
 10
4.4863039498
 20
4.6310062422
 30
0.0
 10
4.4868093902
 20
4.6435992543
 30
0.0
 10
4.4890765728
 20
4.6623406815
 30
0.0
 10
4.4928369256
 20
4.6807899472
 30
0.0
 10
4.4980596463
 20
4.6988003736
 30
0.0
 10
4.5047053812
 20
4.7162325838
 30
0.0
 10
4.5127216269
 20
4.7329492322
 30
0.0
 10
4.5205087864
 20
4.7462033099
 30
0.0
 10
4.527360093
 20
4.7563175649
 30
0.0
 10
4.5345802203
 20
4.7660479662
 30
0.0
 10
4.5443240219
 20
4.7775374907
 30
0.0
 10
4.5571014201
 20
4.7901560053
 30
0.0
 10
4.5685787057
 20
4.7996147583
 30
0.0
 10
4.578186281
 20
4.8064814121
 30
0.0
 10
4.5880199807
 20
4.8128472131
 30
0.0
 10
4.6007801251
 20
4.8198999253
 30
0.0
 10
4.614102782
 20
4.8256997586
 30
0.0
 10
4.625001555
 20
4.829540587
 30
0.0
 10
4.6360146003
 20
4.8328375427
 30
0.0
 10
4.6444363982
 20
4.8347074667
 30
0.0
 10
4.6500867886
 20
4.8356764318
 30
0.0
  0
SPLINE
  5
24E
100
AcDbEntity
  8
0
100
AcDbSpline
 62
7
  6
CONTINUOUS
 70
0
 71
3
 72
26
 73
22
 74
0
 42
0.0000001
 43
0.0000001
 44
0.0000000001
 40
0.0
 40
0.0
 40
0.0
 40
0.0
 40
0.0651653774
 40
0.1302520488
 40
0.1951496685
 40
0.2597882448
 40
0.3240878936
 40
0.3879820331
 40
0.4514161107
 40
0.4829540401
 40
0.5143624877
 40
0.5767653373
 40
0.6386283489
 40
0.6999575432
 40
0.7304365351
 40
0.7607922292
 40
0.821139749
 40
0.8810720346
 40
0.9109124192
 40
0.9406762808
 40
1.0
 40
1.0
 40
1.0
 40
1.0
 10
4.5444139608
 20
4.6247088509
 30
0.0
 10
4.5444139608
 20
4.6310062422
 30
0.0
 10
4.5449194012
 20
4.6435992543
 30
0.0
 10
4.5471865838
 20
4.6623406815
 30
0.0
 10
4.5509469366
 20
4.6807899472
 30
0.0
 10
4.5561696573
 20
4.6988003736
 30
0.0
 10
4.5628153922
 20
4.7162325838
 30
0.0
 10
4.5708316379
 20
4.7329492322
 30
0.0
 10
4.5786187974
 20
4.7462033099
 30
0.0
 10
4.585470104
 20
4.7563175649
 30
0.0
 10
4.5926902312
 20
4.7660479662
 30
0.0
 10
4.6024340329
 20
4.7775374907
 30
0.0
 10
4.6152114311
 20
4.7901560053
 30
0.0
 10
4.6266887167
 20
4.7996147583
 30
0.0
 10
4.6362962919
 20
4.8064814121
 30
0.0
 10
4.6461299917
 20
4.8128472131
 30
0.0
 10
4.6588901361
 20
4.8198999253
 30
0.0
 10
4.672212793
 20
4.8256997586
 30
0.0
 10
4.683111566
 20
4.829540587
 30
0.0
 10
4.6941246113
 20
4.8328375427
 30
0.0
 10
4.7025464092
 20
4.8347074667
 30
0.0
 10
4.7081967996
 20
4.8356764318
 30
0.0
  0
SPLINE
  5
24F
100
AcDbEntity
  8
0
100
AcDbSpline
 62
7
  6
CONTINUOUS
 70
0
 71
3
 72
25
 73
21
 74
0
 42
0.0000001
 43
0.0000001
 44
0.0000000001
 40
0.0
 40
0.0
 40
0.0
 40
0.0
 40
0.064808967
 40
0.1295612073
 40
0.1941567935
 40
0.2585413459
 40
0.3226505568
 40
0.3864250686
 40
0.4498160998
 40
0.5127827337
 40
0.5752940889
 40
0.6373304446
 40
0.6988836711
 40
0.7294861545
 40
0.7599704739
 40
0.8205821292
 40
0.880759949
 40
0.9107050293
 40
0.9405577718
 40
1.0
 40
1.0
 40
1.0
 40
1.0
 10
4.6025239718
 20
4.6247088509
 30
0.0
 10
4.6025239718
 20
4.6303748628
 30
0.0
 10
4.6029332829
 20
4.6417061705
 30
0.0
 10
4.6047694068
 20
4.6585951643
 30
0.0
 10
4.6078179541
 20
4.6752712401
 30
0.0
 10
4.6120588631
 20
4.6916264541
 30
0.0
 10
4.6174652183
 20
4.7075587463
 30
0.0
 10
4.6240033567
 20
4.7229669282
 30
0.0
 10
4.6316322879
 20
4.7377532217
 30
0.0
 10
4.6403034354
 20
4.7518242104
 30
0.0
 10
4.6499625095
 20
4.7650907031
 30
0.0
 10
4.6605483966
 20
4.7774677353
 30
0.0
 10
4.6701066836
 20
4.7869958883
 30
0.0
 10
4.6781471598
 20
4.7940928102
 30
0.0
 10
4.6864052872
 20
4.8008054842
 30
0.0
 10
4.6971733304
 20
4.8085113057
 30
0.0
 10
4.7085043183
 20
4.8152718847
 30
0.0
 10
4.7178369135
 20
4.8200659814
 30
0.0
 10
4.7273051825
 20
4.8244331822
 30
0.0
 10
4.7346006611
 20
4.8272471611
 30
0.0
 10
4.7395255996
 20
4.8289060443
 30
0.0
  0
SPLINE
  5
250
100
AcDbEntity
  8
0
100
AcDbSpline
 62
7
  6
CONTINUOUS
 70
0
 71
3
 72
23
 73
19
 74
0
 42
0.0000001
 43
0.0000001
 44
0.0000000001
 40
0.0
 40
0.0
 40
0.0
 40
0.0
 40
0.16567131
 40
0.3277772324
 40
0.4829847649
 40
0.5569627847
 40
0.6278968536
 40
0.6952212202
 40
0.7583278179
 40
0.8164525519
 40
0.8687537924
 40
0.9142239926
 40
0.9340737841
 40
0.9518198841
 40
0.9673402217
 40
0.9805429576
 40
0.9913992029
 40
1.0
 40
1.0
 40
1.0
 40
1.0
 10
4.9795276584
 20
4.3169599586
 30
0.0
 10
4.977989112
 20
4.3180416944
 30
0.0
 10
4.9749830959
 20
4.3202364671
 30
0.0
 10
4.9706693329
 20
4.3236226422
 30
0.0
 10
4.9672734686
 20
4.3264879803
 30
0.0
 10
4.9647337318
 20
4.3287593606
 30
0.0
 10
4.962970483
 20
4.3304016118
 30
0.0
 10
4.9613319829
 20
4.3319959514
 30
0.0
 10
4.9598345997
 20
4.3335259297
 30
0.0
 10
4.9584968075
 20
4.3349725074
 30
0.0
 10
4.9573406622
 20
4.3363129468
 30
0.0
 10
4.9565138951
 20
4.3373624913
 30
0.0
 10
4.955968837
 20
4.3381322574
 30
0.0
 10
4.9556412362
 20
4.3386387868
 30
0.0
 10
4.9553792497
 20
4.3390970173
 30
0.0
 10
4.9551861157
 20
4.3395035316
 30
0.0
 10
4.9550641564
 20
4.3398543315
 30
0.0
 10
4.9550276584
 20
4.3400747385
 30
0.0
 10
4.9550276584
 20
4.340172378
 30
0.0
  0
SPLINE
  5
251
100
AcDbEntity
  8
0
100
AcDbSpline
 62
7
  6
CONTINUOUS
 70
0
 71
3
 72
23
 73
19
 74
0
 42
0.0000001
 43
0.0000001
 44
0.0000000001
 40
0.0
 40
0.0
 40
0.0
 40
0.0
 40
0.0086008319
 40
0.0194571641
 40
0.0326599968
 40
0.0481804347
 40
0.0659266594
 40
0.0857765973
 40
0.1312469095
 40
0.1835482827
 40
0.2416730431
 40
0.3047797325
 40
0.3721041002
 40
0.4430380339
 40
0.5170159225
 40
0.6722231342
 40
0.8343288454
 40
1.0
 40
1.0
 40
1.0
 40
1.0
 10
5.4367776584
 20
4.340172378
 30
0.0
 10
5.4367776584
 20
4.3400747381
 30
0.0
 10
5.4367411592
 20
4.3398543298
 30
0.0
 10
5.4366191982
 20
4.339503528
 30
0.0
 10
5.4364260633
 20
4.3390970105
 30
0.0
 10
5.4361640751
 20
4.3386387768
 30
0.0
 10
5.4358364712
 20
4.3381322444
 30
0.0
 10
5.4352914096
 20
4.3373624754
 30
0.0
 10
5.4344646393
 20
4.3363129278
 30
0.0
 10
5.4333084907
 20
4.3349724872
 30
0.0
 10
5.4319706964
 20
4.3335259077
 30
0.0
 10
5.4304733114
 20
4.3319959292
 30
0.0
 10
5.4288348112
 20
4.3304015903
 30
0.0
 10
5.4270715642
 20
4.3287593418
 30
0.0
 10
5.4245318322
 20
4.3264879661
 30
0.0
 10
5.4211359728
 20
4.3236226339
 30
0.0
 10
5.4168222163
 20
4.3202364633
 30
0.0
 10
5.4138162033
 20
4.3180416933
 30
0.0
 10
5.4122776584
 20
4.3169599586
 30
0.0
  0
SPLINE
  5
252
100
AcDbEntity
  8
0
100
AcDbSpline
 62
7
  6
CONTINUOUS
 70
0
 71
3
 72
26
 73
22
 74
0
 42
0.0000001
 43
0.0000001
 44
0.0000000001
 40
0.0
 40
0.0
 40
0.0
 40
0.0
 40
0.0593237192
 40
0.0890875808
 40
0.1189279654
 40
0.178860251
 40
0.2392077708
 40
0.2695634649
 40
0.3000424568
 40
0.3613716511
 40
0.4232346627
 40
0.4856375123
 40
0.5170459599
 40
0.5485838893
 40
0.6120179669
 40
0.6759121064
 40
0.7402117552
 40
0.8048503315
 40
0.8697479512
 40
0.9348346226
 40
1.0
 40
1.0
 40
1.0
 40
1.0
 10
4.5919767776
 20
4.8356764318
 30
0.0
 10
4.5863263872
 20
4.8347074667
 30
0.0
 10
4.5779045894
 20
4.8328375427
 30
0.0
 10
4.566891544
 20
4.829540587
 30
0.0
 10
4.555992771
 20
4.8256997586
 30
0.0
 10
4.5426701141
 20
4.8198999253
 30
0.0
 10
4.5299099697
 20
4.8128472131
 30
0.0
 10
4.52007627
 20
4.8064814121
 30
0.0
 10
4.5104686948
 20
4.7996147583
 30
0.0
 10
4.4989914091
 20
4.7901560053
 30
0.0
 10
4.4862140109
 20
4.7775374907
 30
0.0
 10
4.4764702093
 20
4.7660479662
 30
0.0
 10
4.469250082
 20
4.7563175649
 30
0.0
 10
4.4623987754
 20
4.7462033099
 30
0.0
 10
4.4546116159
 20
4.7329492322
 30
0.0
 10
4.4465953702
 20
4.7162325838
 30
0.0
 10
4.4399496354
 20
4.6988003736
 30
0.0
 10
4.4347269146
 20
4.6807899472
 30
0.0
 10
4.4309665618
 20
4.6623406815
 30
0.0
 10
4.4286993792
 20
4.6435992543
 30
0.0
 10
4.4281939388
 20
4.6310062422
 30
0.0
 10
4.4281939388
 20
4.6247088509
 30
0.0
  0
ENDSEC
  0
SECTION
  2
OBJECTS
  0
DICTIONARY
  5
C
100
AcDbDictionary
280
0
281
1
  3
ACAD_GROUP
350
D
  3
ACAD_MLINESTYLE
350
17
  3
ACAD_LAYOUT
350
1A
  3
ACAD_PLOTSETTINGS
350
19
  3
ACAD_PLOTSTYLENAME
350
E
  0
DICTIONARY
  5
D
102
{ACAD_REACTORS
330
C
102
}
100
AcDbDictionary
280
0
281
1
  0
ACDBDICTIONARYWDFLT
  5
E
102
{ACAD_REACTORS
330
C
102
}
100
AcDbDictionary
281
1
  3
Normal
350
F
100
AcDbDictionaryWithDefault
340
F
  0
DICTIONARY
  5
17
102
{ACAD_REACTORS
330
C
102
}
100
AcDbDictionary
280
0
281
1
  3
Standard
350
18
  0
DICTIONARY
  5
19
102
{ACAD_REACTORS
330
C
102
}
100
AcDbDictionary
281
1
  0
DICTIONARY
  5
1A
102
{ACAD_REACTORS
330
C
102
}
100
AcDbDictionary
281
1
  3
Model
350
253
  3
Layout1
350
254
  0
ACDBPLACEHOLDER
  5
F
102
{ACAD_REACTORS
330
E
102
}
  0
MLINESTYLE
  5
18
102
{ACAD_REACTORS
330
17
102
}
100
AcDbMlineStyle
  2
STANDARD
 70
0
  3

 62
256
 51
90.0
 52
90.0
 71
2
 49
0.5
 62
256
  6
BYLAYER
 49
-0.5
 62
256
  6
BYLAYER
  0
LAYOUT
  5
253
102
{ACAD_REACTORS
330
1A
102
}
100
AcDbPlotSettings
  1

  2
none_device
  4
ANSI_A_(11.00_x_8.50_Inches)
  6

 40
0.0
 41
0.0
 42
0.0
 43
0.0
 44
279.4
 45
215.9
 46
0.0
 47
0.0
 48
0.0
 49
0.0
140
0.0
141
0.0
142
1.0
143
1.0
 70
1024
 72
0
 73
0
 74
0
  7

 75
0
147
1.0
148
0.0
149
0.0
100
AcDbLayout
  1
Model
 70
0
 71
0
 10
0.0
 20
0.0
 11
11.0
 21
8.5
 12
0.0
 22
0.0
 32
0.0
 14
0.0
 24
0.0
 34
0.0
 15
0.0
 25
0.0
 35
0.0
146
0.0
 13
0.0
 23
0.0
 33
0.0
 16
1.0
 26
0.0
 36
0.0
 17
0.0
 27
1.0
 37
0.0
 76
0
330
202
345
0
346
0
  0
LAYOUT
  5
254
102
{ACAD_REACTORS
330
1A
102
}
100
AcDbPlotSettings
  1

  2
none_device
  4
ANSI_A_(11.00_x_8.50_Inches)
  6

 40
0.0
 41
0.0
 42
0.0
 43
0.0
 44
279.4
 45
215.9
 46
0.0
 47
0.0
 48
0.0
 49
0.0
140
0.0
141
0.0
142
1.0
143
1.0
 70
0
 72
0
 73
0
 74
0
  7

 75
0
147
1.0
148
0.0
149
0.0
100
AcDbLayout
  1
Layout1
 70
0
 71
1
 10
0.0
 20
0.0
 11
11.0
 21
8.5
 12
0.0
 22
0.0
 32
0.0
 14
0.0
 24
0.0
 34
0.0
 15
0.0
 25
0.0
 35
0.0
146
0.0
 13
0.0
 23
0.0
 33
0.0
 16
1.0
 26
0.0
 36
0.0
 17
0.0
 27
1.0
 37
0.0
 76
0
330
203
345
0
346
0
  0
ENDSEC
  0
EOF
