999
DXF file: 2470-5751_top.dxf
999
Pro/ENGINEER 2013150 by Parametric Technology Corporation
  0
SECTION
  2
HEADER
  9
$ACADVER
  1
AC1021
  9
$DWGCODEPAGE
  3
ANSI_1252
  9
$EXTMAX
 10
11.0
 20
8.5
 30
0.0
  9
$EXTMIN
 10
0.0
 20
0.0
 30
0.0
  9
$LIMMIN
 10
0.0
 20
0.0
  9
$LIMMAX
 10
11.0
 20
8.5
  9
$VIEWCTR
 10
5.5
 20
4.25
  9
$VIEWSIZE
 40
8.5
  9
$CLAYER
  8
0
  9
$LTSCALE
 40
0.605
  9
$CELTYPE
  6
BYLAYER
  9
$DIMSCALE
 40
1.0
  9
$DIMASZ
 40
0.1
  9
$DIMEXO
 40
0.0625
  9
$DIMDLI
 40
0.418
  9
$DIMEXE
 40
0.125
  9
$DIMCEN
 40
0.099
  9
$DIMLFAC
 40
1.0
  9
$DIMBLK
  1
_FILLED
  9
$DIMTXT
 40
0.08
  9
$DIMTOL
 70
1
  9
$DIMLIM
 70
0
  9
$DIMTFAC
 40
1.0
  9
$DIMTP
 40
0.001
  9
$DIMTM
 40
0.001
  9
$DIMGAP
 40
0.09
  9
$DIMDSEP
 70
46
  9
$PDMODE
 70
3
  9
$PDSIZE
 40
0.3125
  9
$HANDSEED
  5
247
  9
$TILEMODE
 70
1
  9
$MEASUREMENT
 70
0
  9
$INSUNITS
 70
1
  0
ENDSEC
  0
SECTION
  2
CLASSES
  0
CLASS
  1
ACDBDICTIONARYWDFLT
  2
AcDbDictionaryWithDefault
  3
AutoCAD 2000
 90
0
 91
1
280
0
281
0
  0
CLASS
  1
ACDBPLACEHOLDER
  2
AcDbPlaceHolder
  3
AutoCAD 2000
 90
0
 91
1
280
0
281
0
  0
CLASS
  1
LAYOUT
  2
AcDbLayout
  3
AutoCAD 2000
 90
0
 91
0
280
0
281
0
  0
ENDSEC
  0
SECTION
  2
TABLES
  0
TABLE
  2
VPORT
  5
8
100
AcDbSymbolTable
 70
2
  0
VPORT
  5
1F4
100
AcDbSymbolTableRecord
100
AcDbViewportTableRecord
  2
*ACTIVE
 70
0
 10
0.0
 20
0.0
 11
1.0
 21
1.0
 12
5.5
 22
4.25
 13
0.0
 23
0.0
 14
1.0
 24
1.0
 15
0.0
 25
0.0
 16
0.0
 26
0.0
 36
1.0
 17
0.0
 27
0.0
 37
0.0
 40
8.5
 41
1.2941176471
 42
50.0
 43
0.0
 44
0.0
 50
0.0
 51
0.0
 71
0
 72
100
 73
1
 74
1
 75
0
 76
0
 77
0
 78
0
  0
ENDTAB
  0
TABLE
  2
LTYPE
  5
5
100
AcDbSymbolTable
 70
6
  0
LTYPE
  5
14
100
AcDbSymbolTableRecord
100
AcDbLinetypeTableRecord
  2
BYBLOCK
 70
0
  3

 72
65
 73
0
 40
0.0
  0
LTYPE
  5
15
100
AcDbSymbolTableRecord
100
AcDbLinetypeTableRecord
  2
BYLAYER
 70
0
  3

 72
65
 73
0
 40
0.0
  0
LTYPE
  5
16
100
AcDbSymbolTableRecord
100
AcDbLinetypeTableRecord
  2
CONTINUOUS
 70
64
  3
Solid line
 72
65
 73
0
 40
0.0
  0
LTYPE
  5
1F5
100
AcDbSymbolTableRecord
100
AcDbLinetypeTableRecord
  2
CENTER
 70
64
  3
____ _ ____ _ ____ _ ____ _ ____ _ ____ _ ____
 72
65
 73
4
 40
0.6
 49
0.375
 74
0
 49
-0.075
 74
0
 49
0.075
 74
0
 49
-0.075
 74
0
  0
LTYPE
  5
1F6
100
AcDbSymbolTableRecord
100
AcDbLinetypeTableRecord
  2
HIDDEN
 70
64
  3
- - - - - - - - - - - - - - - - - - - -
 72
65
 73
2
 40
0.2
 49
0.1
 74
0
 49
-0.1
 74
0
  0
LTYPE
  5
1F7
100
AcDbSymbolTableRecord
100
AcDbLinetypeTableRecord
  2
PHANTOM
 70
64
  3
_____ _ _ _____ _ _ _____ _ _ _____
 72
65
 73
6
 40
0.8
 49
0.45
 74
0
 49
-0.05
 74
0
 49
0.1
 74
0
 49
-0.05
 74
0
 49
0.1
 74
0
 49
-0.05
 74
0
  0
LTYPE
  5
1F8
100
AcDbSymbolTableRecord
100
AcDbLinetypeTableRecord
  2
DOT
 70
64
  3
. . . . . . . . . . . . . . . . . . . .
 72
65
 73
2
 40
0.2
 49
0.1
 74
0
 49
-0.1
 74
0
  0
LTYPE
  5
1F9
100
AcDbSymbolTableRecord
100
AcDbLinetypeTableRecord
  2
DASHED
 70
64
  3
- - - - - - - - - - - - - - - - - - - -
 72
65
 73
2
 40
0.2
 49
0.1
 74
0
 49
-0.1
 74
0
  0
ENDTAB
  0
TABLE
  2
LAYER
  5
2
100
AcDbSymbolTable
 70
36
  0
LAYER
  5
10
100
AcDbSymbolTableRecord
100
AcDbLayerTableRecord
  2
0
 70
0
 62
7
  6
CONTINUOUS
370
-3
390
F
  0
LAYER
  5
1FA
100
AcDbSymbolTableRecord
100
AcDbLayerTableRecord
  2
DEFAULT_1
 70
0
 62
7
  6
CENTER
370
-3
390
F
  0
LAYER
  5
1FB
100
AcDbSymbolTableRecord
100
AcDbLayerTableRecord
  2
DEFAULT_2
 70
0
 62
8
  6
HIDDEN
370
-3
390
F
  0
LAYER
  5
1FC
100
AcDbSymbolTableRecord
100
AcDbLayerTableRecord
  2
DEFAULT_3
 70
0
 62
7
  6
PHANTOM
370
-3
390
F
  0
LAYER
  5
1FD
100
AcDbSymbolTableRecord
100
AcDbLayerTableRecord
  2
01___PRT_ALL_DTM_PLN
 70
0
 62
7
  6
CONTINUOUS
370
-3
390
F
  0
LAYER
  5
1FE
100
AcDbSymbolTableRecord
100
AcDbLayerTableRecord
  2
01___PRT_DEF_DTM_PLN
 70
0
 62
7
  6
CONTINUOUS
370
-3
390
F
  0
LAYER
  5
1FF
100
AcDbSymbolTableRecord
100
AcDbLayerTableRecord
  2
02___PRT_ALL_AXES
 70
0
 62
7
  6
CONTINUOUS
370
-3
390
F
  0
LAYER
  5
200
100
AcDbSymbolTableRecord
100
AcDbLayerTableRecord
  2
03___PRT_ALL_CURVES
 70
0
 62
7
  6
CONTINUOUS
370
-3
390
F
  0
LAYER
  5
201
100
AcDbSymbolTableRecord
100
AcDbLayerTableRecord
  2
04___PRT_ALL_DTM_PNT
 70
0
 62
7
  6
CONTINUOUS
370
-3
390
F
  0
LAYER
  5
202
100
AcDbSymbolTableRecord
100
AcDbLayerTableRecord
  2
05___PRT_ALL_DTM_CSYS
 70
0
 62
7
  6
CONTINUOUS
370
-3
390
F
  0
LAYER
  5
203
100
AcDbSymbolTableRecord
100
AcDbLayerTableRecord
  2
05___PRT_DEF_DTM_CSYS
 70
0
 62
7
  6
CONTINUOUS
370
-3
390
F
  0
LAYER
  5
204
100
AcDbSymbolTableRecord
100
AcDbLayerTableRecord
  2
06___PRT_ALL_SURFS
 70
0
 62
7
  6
CONTINUOUS
370
-3
390
F
  0
LAYER
  5
205
100
AcDbSymbolTableRecord
100
AcDbLayerTableRecord
  2
ALL_FEATURES
 70
0
 62
7
  6
CONTINUOUS
370
-3
390
F
  0
LAYER
  5
206
100
AcDbSymbolTableRecord
100
AcDbLayerTableRecord
  2
AXES_FEATURES
 70
0
 62
7
  6
CONTINUOUS
370
-3
390
F
  0
LAYER
  5
207
100
AcDbSymbolTableRecord
100
AcDbLayerTableRecord
  2
DEFAULT_DATUM_CURVES
 70
0
 62
7
  6
CONTINUOUS
370
-3
390
F
  0
LAYER
  5
208
100
AcDbSymbolTableRecord
100
AcDbLayerTableRecord
  2
DEFAULT_SURFACES
 70
0
 62
7
  6
CONTINUOUS
370
-3
390
F
  0
LAYER
  5
209
100
AcDbSymbolTableRecord
100
AcDbLayerTableRecord
  2
DIMENSIONS
 70
0
 62
7
  6
CONTINUOUS
370
-3
390
F
  0
ENDTAB
  0
TABLE
  2
STYLE
  5
3
100
AcDbSymbolTable
 70
1
  0
STYLE
  5
11
100
AcDbSymbolTableRecord
100
AcDbTextStyleTableRecord
  2
STANDARD
 70
0
 40
0.0
 41
0.8
 50
0.0
 71
0
 42
0.2
  3
txt
  4

  0
STYLE
  5
20A
100
AcDbSymbolTableRecord
100
AcDbTextStyleTableRecord
  2
TEXTSTYLE_1
 70
0
 40
0.0
 41
0.8
 50
0.0
 71
0
 42
0.2
  3
gdt
  4

  0
ENDTAB
  0
TABLE
  2
VIEW
  5
6
100
AcDbSymbolTable
 70
0
  0
ENDTAB
  0
TABLE
  2
UCS
  5
7
100
AcDbSymbolTable
 70
0
  0
ENDTAB
  0
TABLE
  2
APPID
  5
9
100
AcDbSymbolTable
 70
1
  0
APPID
  5
20B
100
AcDbSymbolTableRecord
100
AcDbRegAppTableRecord
  2
ACAD
 70
0
  0
ENDTAB
  0
TABLE
  2
BLOCK_RECORD
  5
1
100
AcDbSymbolTable
 70
0
  0
BLOCK_RECORD
  5
20C
100
AcDbSymbolTableRecord
100
AcDbBlockTableRecord
  2
*Model_Space
  0
BLOCK_RECORD
  5
20D
100
AcDbSymbolTableRecord
100
AcDbBlockTableRecord
  2
*Paper_Space
  0
ENDTAB
  0
TABLE
  2
DIMSTYLE
  5
A
100
AcDbSymbolTable
 70
1
100
AcDbDimStyleTable
 71
0
  0
DIMSTYLE
105
20E
100
AcDbSymbolTableRecord
100
AcDbDimStyleTableRecord
  2
STANDARD
 70
0
  3

  4

 40
1.0
 41
0.1
 42
0.0625
 43
0.38
 44
0.125
 45
0.0
 46
0.0
 47
0.001
 48
0.001
140
0.08
141
0.09
142
0.0
143
25.4
144
1.0
145
0.0
146
1.0
147
0.09
 71
1.0
 72
0.0
 73
1
 74
1
 75
0
 76
0
 77
0
 78
4
170
0
171
2
172
0
173
0
174
0
175
0
176
0
177
0
178
0
270
2
271
3
272
3
273
2
274
2
275
0
280
0
281
0
282
0
283
1
284
4
285
0
286
0
287
3
288
0
340
11
278
46
  0
ENDTAB
  0
ENDSEC
  0
SECTION
  2
BLOCKS
  0
BLOCK
  5
20
100
AcDbEntity
  8
0
100
AcDbBlockBegin
  2
*Model_Space
 70
0
 10
0.0
 20
0.0
 30
0.0
  3
*Model_Space
  1

  0
ENDBLK
  5
21
100
AcDbEntity
  8
0
100
AcDbBlockEnd
  0
BLOCK
  5
1C
100
AcDbEntity
  8
0
100
AcDbBlockBegin
  2
*Paper_Space
 70
0
 10
0.0
 20
0.0
 30
0.0
  3
*Paper_Space
  1

  0
ENDBLK
  5
1D
100
AcDbEntity
  8
0
100
AcDbBlockEnd
  0
ENDSEC
  0
SECTION
  2
ENTITIES
  0
LINE
  5
20F
100
AcDbEntity
  8
0
100
AcDbLine
 62
7
  6
CONTINUOUS
 10
0.0
 20
0.0
 11
0.0
 21
8.5
  0
LINE
  5
210
100
AcDbEntity
  8
0
100
AcDbLine
 62
7
  6
CONTINUOUS
 10
0.0
 20
0.0
 11
11.0
 21
0.0
  0
LINE
  5
211
100
AcDbEntity
  8
0
100
AcDbLine
 62
7
  6
CONTINUOUS
 10
0.0
 20
8.5
 11
11.0
 21
8.5
  0
LINE
  5
212
100
AcDbEntity
  8
0
100
AcDbLine
 62
7
  6
CONTINUOUS
 10
11.0
 20
0.0
 11
11.0
 21
8.5
  0
LINE
  5
213
100
AcDbEntity
  8
0
100
AcDbLine
 62
7
  6
CONTINUOUS
 10
4.4383996588
 20
3.5521921963
 11
4.4383996588
 21
3.55555064
  0
LINE
  5
214
100
AcDbEntity
  8
0
100
AcDbLine
 62
7
  6
CONTINUOUS
 10
4.4383996588
 20
3.6118358632
 11
4.4383996588
 21
3.6176345992
  0
LINE
  5
215
100
AcDbEntity
  8
0
100
AcDbLine
 62
7
  6
CONTINUOUS
 10
4.4873996588
 20
3.588186844
 11
4.4873996588
 21
3.5654110243
  0
LINE
  5
216
100
AcDbEntity
  8
0
100
AcDbLine
 62
7
  6
CONTINUOUS
 10
4.4883996588
 20
3.5258871946
 11
4.4883996588
 21
3.5116295322
  0
LINE
  5
217
100
AcDbEntity
  8
0
100
AcDbLine
 62
7
  6
CONTINUOUS
 10
5.5545733353
 20
3.6809088089
 11
5.5541529826
 21
3.6809088089
  0
LINE
  5
218
100
AcDbEntity
  8
0
100
AcDbLine
 62
7
  6
CONTINUOUS
 10
5.6697897155
 20
3.8809088089
 11
5.6701452597
 21
3.8809088089
  0
LINE
  5
219
100
AcDbEntity
  8
0
100
AcDbLine
 62
7
  6
CONTINUOUS
 10
5.6882599382
 20
3.9309088089
 11
5.6806849202
 21
3.9309088089
  0
LINE
  5
21A
100
AcDbEntity
  8
0
100
AcDbLine
 62
7
  6
CONTINUOUS
 10
5.6846792635
 20
3.9434088089
 11
5.6888538509
 21
3.9434088089
  0
LINE
  5
21B
100
AcDbEntity
  8
0
100
AcDbLine
 62
7
  6
CONTINUOUS
 10
5.689625843
 20
3.9434088089
 11
5.6922164638
 21
3.9434088089
  0
LINE
  5
21C
100
AcDbEntity
  8
0
100
AcDbLine
 62
7
  6
CONTINUOUS
 10
5.702591324
 20
3.9975754776
 11
5.7035405412
 21
3.9975754776
  0
LINE
  5
21D
100
AcDbEntity
  8
0
100
AcDbLine
 62
7
  6
CONTINUOUS
 10
5.7013595434
 20
4.0059088089
 11
5.7023732379
 21
4.0059088089
  0
LINE
  5
21E
100
AcDbEntity
  8
0
100
AcDbLine
 62
7
  6
CONTINUOUS
 10
5.7122506357
 20
4.0225754776
 11
5.7049072265
 21
4.0225754776
  0
LINE
  5
21F
100
AcDbEntity
  8
0
100
AcDbLine
 62
7
  6
CONTINUOUS
 10
5.7073259552
 20
4.0350754716
 11
5.7137837599
 21
4.0350754716
  0
LINE
  5
220
100
AcDbEntity
  8
0
100
AcDbLine
 62
7
  6
CONTINUOUS
 10
5.7227566632
 20
4.0975754716
 11
5.7236102715
 21
4.0975754716
  0
LINE
  5
221
100
AcDbEntity
  8
0
100
AcDbLine
 62
7
  6
CONTINUOUS
 10
5.3528996588
 20
3.588186844
 11
5.3528996588
 21
3.5654110243
  0
LINE
  5
222
100
AcDbEntity
  8
0
100
AcDbLine
 62
7
  6
CONTINUOUS
 10
5.3528996588
 20
3.5258871946
 11
5.3528996588
 21
3.5122756881
  0
LINE
  5
223
100
AcDbEntity
  8
0
100
AcDbLine
 62
7
  6
CONTINUOUS
 10
5.4018996588
 20
3.6176345992
 11
5.4018996588
 21
3.6118358632
  0
LINE
  5
224
100
AcDbEntity
  8
0
100
AcDbLine
 62
7
  6
CONTINUOUS
 10
5.4018996588
 20
3.55555064
 11
5.4018996588
 21
3.5520776634
  0
CIRCLE
  5
225
100
AcDbEntity
  8
02___PRT_ALL_AXES
100
AcDbCircle
 62
7
  6
CONTINUOUS
 10
4.9201496588
 20
4.1809088089
 40
1.0
  0
CIRCLE
  5
226
100
AcDbEntity
  8
02___PRT_ALL_AXES
100
AcDbCircle
 62
7
  6
CONTINUOUS
 10
4.9201496588
 20
4.1809088089
 40
0.9555263455
  0
CIRCLE
  5
227
100
AcDbEntity
  8
02___PRT_ALL_AXES
100
AcDbCircle
 62
7
  6
CONTINUOUS
 10
4.9201496588
 20
4.1809088089
 40
0.903221666
  0
CIRCLE
  5
228
100
AcDbEntity
  8
0
100
AcDbCircle
 62
7
  6
CONTINUOUS
 10
4.9201496588
 20
4.1809088089
 40
0.8795314549
  0
CIRCLE
  5
229
100
AcDbEntity
  8
02___PRT_ALL_AXES
100
AcDbCircle
 62
7
  6
CONTINUOUS
 10
4.9201496588
 20
4.1809088089
 40
0.825
  0
ARC
  5
22A
100
AcDbEntity
  8
0
100
AcDbCircle
 62
7
  6
CONTINUOUS
 10
4.9201496588
 20
4.1809088089
 40
0.8077706366
100
AcDbArc
 50
321.7577593983
 51
338.1984746274
  0
ARC
  5
22B
100
AcDbEntity
  8
0
100
AcDbCircle
 62
7
  6
CONTINUOUS
 10
4.9201496588
 20
4.1809088089
 40
0.8077706366
100
AcDbArc
 50
348.6961092076
 51
354.0785682167
  0
ARC
  5
22C
100
AcDbEntity
  8
0
100
AcDbCircle
 62
7
  6
CONTINUOUS
 10
4.9201496588
 20
4.1809088089
 40
0.8077706366
100
AcDbArc
 50
341.9712731018
 51
342.9012720309
  0
ARC
  5
22D
100
AcDbEntity
  8
0
100
AcDbCircle
 62
7
  6
CONTINUOUS
 10
4.9201496588
 20
4.1809088089
 40
0.8074405331
100
AcDbArc
 50
321.7392961581
 51
338.1891046426
  0
ARC
  5
22E
100
AcDbEntity
  8
0
100
AcDbCircle
 62
7
  6
CONTINUOUS
 10
4.9201496588
 20
4.1809088089
 40
0.8069215877
100
AcDbArc
 50
349.587832481
 51
354.0723153285
  0
ARC
  5
22F
100
AcDbEntity
  8
0
100
AcDbCircle
 62
7
  6
CONTINUOUS
 10
4.9201496588
 20
4.1809088089
 40
0.8045572602
100
AcDbArc
 50
342.8308646478
 51
346.8283806536
  0
ARC
  5
230
100
AcDbEntity
  8
0
100
AcDbCircle
 62
7
  6
CONTINUOUS
 10
4.9201496588
 20
4.1809088089
 40
0.8036330443
100
AcDbArc
 50
342.8105051748
 51
346.8129595691
  0
ARC
  5
231
100
AcDbEntity
  8
0
100
AcDbCircle
 62
7
  6
CONTINUOUS
 10
4.9201496588
 20
4.1809088089
 40
0.8015601834
100
AcDbArc
 50
342.7646633729
 51
347.3893747145
  0
ARC
  5
232
100
AcDbEntity
  8
0
100
AcDbCircle
 62
7
  6
CONTINUOUS
 10
4.9201496588
 20
4.1809088089
 40
0.8005709736
100
AcDbArc
 50
341.8034858228
 51
347.3735355674
  0
ARC
  5
233
100
AcDbEntity
  8
0
100
AcDbCircle
 62
7
  6
CONTINUOUS
 10
4.9201496588
 20
4.1809088089
 40
0.8005709736
100
AcDbArc
 50
348.5930931221
 51
349.5043042403
  0
ARC
  5
234
100
AcDbEntity
  8
0
100
AcDbCircle
 62
7
  6
CONTINUOUS
 10
4.9201496588
 20
4.1809088089
 40
0.7964564099
100
AcDbArc
 50
237.174062484
 51
302.9115870233
  0
ARC
  5
235
100
AcDbEntity
  8
0
100
AcDbCircle
 62
7
  6
CONTINUOUS
 10
4.9201496588
 20
4.1809088089
 40
0.7845134656
100
AcDbArc
 50
236.6095833167
 51
303.3904166833
  0
ARC
  5
236
100
AcDbEntity
  8
0
100
AcDbCircle
 62
7
  6
CONTINUOUS
 10
4.9201496588
 20
4.1809088089
 40
0.7524028744
100
AcDbArc
 50
234.88935178
 51
305.11064822
  0
ARC
  5
237
100
AcDbEntity
  8
0
100
AcDbCircle
 62
7
  6
CONTINUOUS
 10
4.9201496588
 20
4.1809088089
 40
0.7338882001
100
AcDbArc
 50
233.8665854105
 51
306.1334145895
  0
CIRCLE
  5
238
100
AcDbEntity
  8
02___PRT_ALL_AXES
100
AcDbCircle
 62
7
  6
CONTINUOUS
 10
4.9201496588
 20
4.1809088089
 40
0.724
  0
CIRCLE
  5
239
100
AcDbEntity
  8
02___PRT_ALL_AXES
100
AcDbCircle
 62
7
  6
CONTINUOUS
 10
4.9201496588
 20
4.1809088089
 40
0.6751905415
  0
CIRCLE
  5
23A
100
AcDbEntity
  8
02___PRT_ALL_AXES
100
AcDbCircle
 62
7
  6
CONTINUOUS
 10
4.9201496588
 20
4.1809088089
 40
0.3064864865
  0
SPLINE
  5
23B
100
AcDbEntity
  8
0
100
AcDbSpline
 62
7
  6
CONTINUOUS
 70
0
 71
3
 72
33
 73
29
 74
0
 42
0.0000001
 43
0.0000001
 44
0.0000000001
 40
0.0
 40
0.0
 40
0.0
 40
0.0
 40
0.1800373762
 40
0.2689597048
 40
0.356387635
 40
0.4417187372
 40
0.5243428914
 40
0.6035026638
 40
0.6782616127
 40
0.7476148185
 40
0.8103137024
 40
0.8387670182
 40
0.8650713204
 40
0.8890603882
 40
0.9105766952
 40
0.929479024
 40
0.9456870052
 40
0.9591999393
 40
0.9649713445
 40
0.9701136627
 40
0.9746686652
 40
0.978707621
 40
0.9823387866
 40
0.9857059244
 40
0.9889830077
 40
0.9923534783
 40
0.9959825453
 40
1.0
 40
1.0
 40
1.0
 40
1.0
 10
5.3528996588
 20
3.588186844
 30
0.0
 10
5.3557478383
 20
3.5902663176
 30
0.0
 10
5.3600132213
 20
3.5933586039
 30
0.0
 10
5.3656905807
 20
3.597420577
 30
0.0
 10
5.3698733443
 20
3.6003833341
 30
0.0
 10
5.3739728716
 20
3.6032500319
 30
0.0
 10
5.3779603137
 20
3.6059942048
 30
0.0
 10
5.3818021809
 20
3.6085843117
 30
0.0
 10
5.3854597709
 20
3.6109822328
 30
0.0
 10
5.3888854671
 20
3.6131447843
 30
0.0
 10
5.3915838426
 20
3.6147592455
 30
0.0
 10
5.3935900134
 20
3.6158858305
 30
0.0
 10
5.3949514787
 20
3.6166111496
 30
0.0
 10
5.3962108021
 20
3.6172382318
 30
0.0
 10
5.3973595239
 20
3.6177605975
 30
0.0
 10
5.3983901985
 20
3.6181721248
 30
0.0
 10
5.3992962081
 20
3.6184680084
 30
0.0
 10
5.3999753319
 20
3.6186246779
 30
0.0
 10
5.4004508771
 20
3.6186815625
 30
0.0
 10
5.4007542231
 20
3.6186909226
 30
0.0
 10
5.4010231081
 20
3.6186688381
 30
0.0
 10
5.4012574367
 20
3.618614656
 30
0.0
 10
5.4014571204
 20
3.6185280772
 30
0.0
 10
5.401621377
 20
3.6184085914
 30
0.0
 10
5.4017486164
 20
3.6182566843
 30
0.0
 10
5.4018378832
 20
3.6180742777
 30
0.0
 10
5.4018897703
 20
3.6178634507
 30
0.0
 10
5.4018996588
 20
3.6177132919
 30
0.0
 10
5.4018996588
 20
3.6176345992
 30
0.0
  0
SPLINE
  5
23C
100
AcDbEntity
  8
0
100
AcDbSpline
 62
7
  6
CONTINUOUS
 70
0
 71
3
 72
33
 73
29
 74
0
 42
0.0000001
 43
0.0000001
 44
0.0000000001
 40
0.0
 40
0.0
 40
0.0
 40
0.0
 40
0.0040192033
 40
0.0076497036
 40
0.0110216294
 40
0.0143005443
 40
0.017670164
 40
0.0213045878
 40
0.0253475749
 40
0.0299075442
 40
0.0350568827
 40
0.0408371481
 40
0.0543708148
 40
0.0705985995
 40
0.0895147517
 40
0.111044011
 40
0.1350462223
 40
0.1613631254
 40
0.1898278465
 40
0.2525406446
 40
0.3218761816
 40
0.3966284267
 40
0.4757614787
 40
0.5583738
 40
0.6436918866
 40
0.73106514
 40
0.8199454838
 40
1.0
 40
1.0
 40
1.0
 40
1.0
 10
4.4383996588
 20
3.6176345992
 30
0.0
 10
4.4383996588
 20
3.617713326
 30
0.0
 10
4.4384095599
 20
3.6178635478
 30
0.0
 10
4.4384615171
 20
3.6180744539
 30
0.0
 10
4.4385509033
 20
3.6182569088
 30
0.0
 10
4.4386783059
 20
3.6184088299
 30
0.0
 10
4.4388427595
 20
3.6185282985
 30
0.0
 10
4.4390426686
 20
3.6186148374
 30
0.0
 10
4.4392772548
 20
3.6186689644
 30
0.0
 10
4.4395464619
 20
3.618690979
 30
0.0
 10
4.4398502124
 20
3.6186814127
 30
0.0
 10
4.4403264321
 20
3.6186241396
 30
0.0
 10
4.4410064116
 20
3.6184668922
 30
0.0
 10
4.4419133424
 20
3.6181704266
 30
0.0
 10
4.4429448579
 20
3.6177585527
 30
0.0
 10
4.4440942223
 20
3.6172357095
 30
0.0
 10
4.44535412
 20
3.6166080863
 30
0.0
 10
4.4467160993
 20
3.6158821896
 30
0.0
 10
4.4487227344
 20
3.6147549239
 30
0.0
 10
4.4514211092
 20
3.6131401885
 30
0.0
 10
4.4548466479
 20
3.6109777821
 30
0.0
 10
4.4585031546
 20
3.6085800485
 30
0.0
 10
4.4623444023
 20
3.6059906256
 30
0.0
 10
4.4663308756
 20
3.6032468389
 30
0.0
 10
4.4704290171
 20
3.6003808955
 30
0.0
 10
4.4746102383
 20
3.5974196929
 30
0.0
 10
4.4802860843
 20
3.5933583019
 30
0.0
 10
4.4845512132
 20
3.5902665119
 30
0.0
 10
4.4873996588
 20
3.588186844
 30
0.0
  0
SPLINE
  5
23D
100
AcDbEntity
  8
0
100
AcDbSpline
 62
7
  6
CONTINUOUS
 70
0
 71
3
 72
32
 73
28
 74
0
 42
0.0000001
 43
0.0000001
 44
0.0000000001
 40
0.0
 40
0.0
 40
0.0
 40
0.0
 40
0.1814640027
 40
0.27101686
 40
0.3589521623
 40
0.4446294133
 40
0.5274013349
 40
0.6065922413
 40
0.6813142221
 40
0.7505879985
 40
0.8133748776
 40
0.8419546623
 40
0.8684498437
 40
0.8927064795
 40
0.9145798913
 40
0.9339489495
 40
0.9507040655
 40
0.9647503756
 40
0.9760250774
 40
0.9806354435
 40
0.9845916598
 40
0.9879373375
 40
0.9907451044
 40
0.9931375974
 40
0.9953095537
 40
0.997515488
 40
1.0
 40
1.0
 40
1.0
 40
1.0
 10
5.3518996588
 20
3.5258871946
 30
0.0
 10
5.3548720998
 20
3.5278464451
 30
0.0
 10
5.3593130868
 20
3.5307701066
 30
0.0
 10
5.3652016273
 20
3.5346323242
 30
0.0
 10
5.3695228242
 20
3.5374577697
 30
0.0
 10
5.3737389061
 20
3.5402008703
 30
0.0
 10
5.3778201318
 20
3.5428366333
 30
0.0
 10
5.3817323158
 20
3.5453379046
 30
0.0
 10
5.3854371447
 20
3.5476717589
 30
0.0
 10
5.3888905075
 20
3.5498006881
 30
0.0
 10
5.3915957561
 20
3.5514177687
 30
0.0
 10
5.3935991237
 20
3.5525724959
 30
0.0
 10
5.3949575522
 20
3.5533321928
 30
0.0
 10
5.3962123282
 20
3.5540073406
 30
0.0
 10
5.3973565616
 20
3.554592386
 30
0.0
 10
5.3983834378
 20
3.5550828353
 30
0.0
 10
5.399286707
 20
3.555474756
 30
0.0
 10
5.4000601337
 20
3.5557641576
 30
0.0
 10
5.4006253899
 20
3.5559278723
 30
0.0
 10
5.4010088786
 20
3.5559967983
 30
0.0
 10
5.4012420632
 20
3.5560175499
 30
0.0
 10
5.4014409589
 20
3.5560111237
 30
0.0
 10
5.4016062651
 20
3.5559770617
 30
0.0
 10
5.4017384623
 20
3.5559135632
 30
0.0
 10
5.4018347213
 20
3.5558178313
 30
0.0
 10
5.4018901611
 20
3.5556921814
 30
0.0
 10
5.4018996588
 20
3.5555993826
 30
0.0
 10
5.4018996588
 20
3.55555064
 30
0.0
  0
SPLINE
  5
23E
100
AcDbEntity
  8
0
100
AcDbSpline
 62
7
  6
CONTINUOUS
 70
0
 71
3
 72
32
 73
28
 74
0
 42
0.0000001
 43
0.0000001
 44
0.0000000001
 40
0.0
 40
0.0
 40
0.0
 40
0.0
 40
0.0024843554
 40
0.0046901496
 40
0.0068623426
 40
0.0092555616
 40
0.0120644034
 40
0.0154112809
 40
0.0193686054
 40
0.0239797928
 40
0.0352562226
 40
0.0493103073
 40
0.0660769936
 40
0.0854576189
 40
0.107338669
 40
0.1315976366
 40
0.1580940098
 40
0.186675097
 40
0.2494691816
 40
0.3187488695
 40
0.3934637697
 40
0.4726526582
 40
0.555420359
 40
0.6410851458
 40
0.7290062816
 40
0.8185474656
 40
1.0
 40
1.0
 40
1.0
 40
1.0
 10
4.4383996588
 20
3.55555064
 30
0.0
 10
4.4383996588
 20
3.5555993794
 30
0.0
 10
4.4384091637
 20
3.5556921737
 30
0.0
 10
4.4384646517
 20
3.555817805
 30
0.0
 10
4.4385609771
 20
3.5559134941
 30
0.0
 10
4.4386932396
 20
3.5559769439
 30
0.0
 10
4.4388586118
 20
3.5560109664
 30
0.0
 10
4.4390575731
 20
3.5560173653
 30
0.0
 10
4.4392908168
 20
3.5559966022
 30
0.0
 10
4.4396743788
 20
3.5559276913
 30
0.0
 10
4.4402398532
 20
3.5557639992
 30
0.0
 10
4.4410136205
 20
3.5554743236
 30
0.0
 10
4.4419173875
 20
3.5550820391
 30
0.0
 10
4.4429447577
 20
3.5545912325
 30
0.0
 10
4.444089363
 20
3.554005998
 30
0.0
 10
4.4453443706
 20
3.5533308279
 30
0.0
 10
4.4467028713
 20
3.5525710755
 30
0.0
 10
4.4487063667
 20
3.5514162039
 30
0.0
 10
4.4514117671
 20
3.5497988458
 30
0.0
 10
4.45486519
 20
3.5476698153
 30
0.0
 10
4.4585699866
 20
3.5453360535
 30
0.0
 10
4.462481894
 20
3.5428348626
 30
0.0
 10
4.4665627841
 20
3.5401992858
 30
0.0
 10
4.4707783739
 20
3.5374565687
 30
0.0
 10
4.4750989092
 20
3.5346315152
 30
0.0
 10
4.4809868031
 20
3.5307696882
 30
0.0
 10
4.4854274153
 20
3.5278463149
 30
0.0
 10
4.4883996588
 20
3.5258871946
 30
0.0
  0
SPLINE
  5
23F
100
AcDbEntity
  8
0
100
AcDbSpline
 62
7
  6
CONTINUOUS
 70
0
 71
3
 72
23
 73
19
 74
0
 42
0.0000001
 43
0.0000001
 44
0.0000000001
 40
0.0
 40
0.0
 40
0.0
 40
0.0
 40
0.0086009892
 40
0.0194705827
 40
0.0326897176
 40
0.0482203986
 40
0.065972085
 40
0.0858307401
 40
0.1313426105
 40
0.1836533856
 40
0.2417805682
 40
0.3048991177
 40
0.372213884
 40
0.4431213198
 40
0.5170795297
 40
0.6722231198
 40
0.8344060545
 40
1.0
 40
1.0
 40
1.0
 40
1.0
 10
5.4018996588
 20
3.6118358632
 30
0.0
 10
5.4018996588
 20
3.6116405803
 30
0.0
 10
5.4018260768
 20
3.6111995078
 30
0.0
 10
5.4015813538
 20
3.6104975164
 30
0.0
 10
5.4011946504
 20
3.609683707
 30
0.0
 10
5.4006709422
 20
3.6087662599
 30
0.0
 10
5.4000156503
 20
3.607752578
 30
0.0
 10
5.3989246142
 20
3.6062121411
 30
0.0
 10
5.3972698154
 20
3.6041123231
 30
0.0
 10
5.3949565151
 20
3.6014307303
 30
0.0
 10
5.3922803699
 20
3.5985373723
 30
0.0
 10
5.3892854329
 20
3.5954774532
 30
0.0
 10
5.3860087128
 20
3.592289299
 30
0.0
 10
5.3824830017
 20
3.5890058465
 30
0.0
 10
5.3774054458
 20
3.584464742
 30
0.0
 10
5.3706139121
 20
3.5787341083
 30
0.0
 10
5.3619870082
 20
3.5719634007
 30
0.0
 10
5.3559753036
 20
3.5675734777
 30
0.0
 10
5.3528996588
 20
3.5654110243
 30
0.0
  0
SPLINE
  5
240
100
AcDbEntity
  8
0
100
AcDbSpline
 62
7
  6
CONTINUOUS
 70
0
 71
3
 72
23
 73
19
 74
0
 42
0.0000001
 43
0.0000001
 44
0.0000000001
 40
0.0
 40
0.0
 40
0.0
 40
0.0
 40
0.165649094
 40
0.3277808828
 40
0.482953569
 40
0.5569184853
 40
0.627834515
 40
0.6951610551
 40
0.7582479127
 40
0.8163930329
 40
0.8686923977
 40
0.9141852344
 40
0.9340453583
 40
0.9517975223
 40
0.9673231415
 40
0.980534273
 40
0.9913981068
 40
1.0
 40
1.0
 40
1.0
 40
1.0
 10
4.4873996588
 20
3.5654110243
 30
0.0
 10
4.4843229831
 20
3.5675742026
 30
0.0
 10
4.4783110072
 20
3.5719639429
 30
0.0
 10
4.4696838371
 20
3.5787355725
 30
0.0
 10
4.4628925618
 20
3.5844659928
 30
0.0
 10
4.4578141991
 20
3.5890077313
 30
0.0
 10
4.4542880909
 20
3.5922916755
 30
0.0
 10
4.4510115813
 20
3.5954796907
 30
0.0
 10
4.4480167144
 20
3.5985396311
 30
0.0
 10
4.4453411117
 20
3.601432721
 30
0.0
 10
4.4430279947
 20
3.6041141137
 30
0.0
 10
4.4413739148
 20
3.6062136659
 30
0.0
 10
4.4402830856
 20
3.607753773
 30
0.0
 10
4.4396275477
 20
3.6087672075
 30
0.0
 10
4.4391036613
 20
3.6096842347
 30
0.0
 10
4.4387172541
 20
3.6104977222
 30
0.0
 10
4.4384729498
 20
3.6111995726
 30
0.0
 10
4.4383996588
 20
3.6116405594
 30
0.0
 10
4.4383996588
 20
3.6118358632
 30
0.0
  0
SPLINE
  5
241
100
AcDbEntity
  8
0
100
AcDbSpline
 62
7
  6
CONTINUOUS
 70
0
 71
3
 72
15
 73
11
 74
0
 42
0.0000001
 43
0.0000001
 44
0.0000000001
 40
0.0
 40
0.0
 40
0.0
 40
0.0
 40
0.0242428818
 40
0.053116416
 40
0.1261639675
 40
0.2205582115
 40
0.3363108859
 40
0.4729779847
 40
0.6298184761
 40
1.0
 40
1.0
 40
1.0
 40
1.0
 10
5.4018996588
 20
3.5520776634
 30
0.0
 10
5.4018996588
 20
3.5520250557
 30
0.0
 10
5.4018855719
 20
3.5519097914
 30
0.0
 10
5.4018104522
 20
3.5516458896
 30
0.0
 10
5.4016259199
 20
3.5512593276
 30
0.0
 10
5.4013010028
 20
3.5507373013
 30
0.0
 10
5.400857244
 20
3.5501287069
 30
0.0
 10
5.4002982973
 20
3.5494382734
 30
0.0
 10
5.3993505367
 20
3.5483535063
 30
0.0
 10
5.3985603925
 20
3.5475258997
 30
0.0
 10
5.3979964124
 20
3.5469538641
 30
0.0
  0
SPLINE
  5
242
100
AcDbEntity
  8
0
100
AcDbSpline
 62
7
  6
CONTINUOUS
 70
0
 71
3
 72
16
 73
12
 74
0
 42
0.0000001
 43
0.0000001
 44
0.0000000001
 40
0.0
 40
0.0
 40
0.0
 40
0.0
 40
0.0406836249
 40
0.0860918091
 40
0.1891856443
 40
0.3056683635
 40
0.4326085285
 40
0.5675163286
 40
0.7083878114
 40
0.8532960662
 40
1.0
 40
1.0
 40
1.0
 40
1.0
 10
5.3979964124
 20
3.5469538641
 30
0.0
 10
5.3974539697
 20
3.5464036735
 30
0.0
 10
5.396287097
 20
3.54525808
 30
0.0
 10
5.3936639352
 20
3.5428026358
 30
0.0
 10
5.3898882129
 20
3.539474019
 30
0.0
 10
5.3848282802
 20
3.5352654576
 30
0.0
 10
5.379192284
 20
3.5308080464
 30
0.0
 10
5.3730885406
 20
3.5261986406
 30
0.0
 10
5.366612363
 20
3.5215191154
 30
0.0
 10
5.3598566592
 20
3.5168470165
 30
0.0
 10
5.3552385951
 20
3.5137894849
 30
0.0
 10
5.3528996588
 20
3.5122756881
 30
0.0
  0
SPLINE
  5
243
100
AcDbEntity
  8
0
100
AcDbSpline
 62
7
  6
CONTINUOUS
 70
0
 71
3
 72
16
 73
12
 74
0
 42
0.0000001
 43
0.0000001
 44
0.0000000001
 40
0.0
 40
0.0
 40
0.0
 40
0.0
 40
0.1467296817
 40
0.2916570836
 40
0.4325379725
 40
0.5674466702
 40
0.6943782714
 40
0.8108473977
 40
0.9139246241
 40
0.9593243254
 40
1.0
 40
1.0
 40
1.0
 40
1.0
 10
4.4883996588
 20
3.5116295322
 30
0.0
 10
4.4860112839
 20
3.5131702655
 30
0.0
 10
4.4812959537
 20
3.5162828469
 30
0.0
 10
4.4743989331
 20
3.5210408804
 30
0.0
 10
4.4677884665
 20
3.5258080135
 30
0.0
 10
4.4615593572
 20
3.5305049702
 30
0.0
 10
4.4558087209
 20
3.535048135
 30
0.0
 10
4.4506468743
 20
3.5393385647
 30
0.0
 10
4.4467957942
 20
3.5427326058
 30
0.0
 10
4.4441206953
 20
3.5452366422
 30
0.0
 10
4.4429308494
 20
3.5464050021
 30
0.0
 10
4.442377762
 20
3.5469661517
 30
0.0
  0
SPLINE
  5
244
100
AcDbEntity
  8
0
100
AcDbSpline
 62
7
  6
CONTINUOUS
 70
0
 71
3
 72
15
 73
11
 74
0
 42
0.0000001
 43
0.0000001
 44
0.0000000001
 40
0.0
 40
0.0
 40
0.0
 40
0.0
 40
0.3700904279
 40
0.5269047502
 40
0.6635606105
 40
0.7793178106
 40
0.8737339909
 40
0.9468227557
 40
0.9757244534
 40
1.0
 40
1.0
 40
1.0
 40
1.0
 10
4.442377762
 20
3.5469661517
 30
0.0
 10
4.4418029045
 20
3.5475493889
 30
0.0
 10
4.4409975461
 20
3.5483932606
 30
0.0
 10
4.4400316303
 20
3.5494994477
 30
0.0
 10
4.4394619687
 20
3.550203616
 30
0.0
 10
4.4390097118
 20
3.5508244085
 30
0.0
 10
4.4386785762
 20
3.5513570026
 30
0.0
 10
4.4384905425
 20
3.5517514615
 30
0.0
 10
4.4384140072
 20
3.5520208116
 30
0.0
 10
4.4383996588
 20
3.5521384805
 30
0.0
 10
4.4383996588
 20
3.5521921963
 30
0.0
  0
ENDSEC
  0
SECTION
  2
OBJECTS
  0
DICTIONARY
  5
C
100
AcDbDictionary
280
0
281
1
  3
ACAD_GROUP
350
D
  3
ACAD_MLINESTYLE
350
17
  3
ACAD_LAYOUT
350
1A
  3
ACAD_PLOTSETTINGS
350
19
  3
ACAD_PLOTSTYLENAME
350
E
  0
DICTIONARY
  5
D
102
{ACAD_REACTORS
330
C
102
}
100
AcDbDictionary
280
0
281
1
  0
ACDBDICTIONARYWDFLT
  5
E
102
{ACAD_REACTORS
330
C
102
}
100
AcDbDictionary
281
1
  3
Normal
350
F
100
AcDbDictionaryWithDefault
340
F
  0
DICTIONARY
  5
17
102
{ACAD_REACTORS
330
C
102
}
100
AcDbDictionary
280
0
281
1
  3
Standard
350
18
  0
DICTIONARY
  5
19
102
{ACAD_REACTORS
330
C
102
}
100
AcDbDictionary
281
1
  0
DICTIONARY
  5
1A
102
{ACAD_REACTORS
330
C
102
}
100
AcDbDictionary
281
1
  3
Model
350
245
  3
Layout1
350
246
  0
ACDBPLACEHOLDER
  5
F
102
{ACAD_REACTORS
330
E
102
}
  0
MLINESTYLE
  5
18
102
{ACAD_REACTORS
330
17
102
}
100
AcDbMlineStyle
  2
STANDARD
 70
0
  3

 62
256
 51
90.0
 52
90.0
 71
2
 49
0.5
 62
256
  6
BYLAYER
 49
-0.5
 62
256
  6
BYLAYER
  0
LAYOUT
  5
245
102
{ACAD_REACTORS
330
1A
102
}
100
AcDbPlotSettings
  1

  2
none_device
  4
ANSI_A_(11.00_x_8.50_Inches)
  6

 40
0.0
 41
0.0
 42
0.0
 43
0.0
 44
279.4
 45
215.9
 46
0.0
 47
0.0
 48
0.0
 49
0.0
140
0.0
141
0.0
142
1.0
143
1.0
 70
1024
 72
0
 73
0
 74
0
  7

 75
0
147
1.0
148
0.0
149
0.0
100
AcDbLayout
  1
Model
 70
0
 71
0
 10
0.0
 20
0.0
 11
11.0
 21
8.5
 12
0.0
 22
0.0
 32
0.0
 14
0.0
 24
0.0
 34
0.0
 15
0.0
 25
0.0
 35
0.0
146
0.0
 13
0.0
 23
0.0
 33
0.0
 16
1.0
 26
0.0
 36
0.0
 17
0.0
 27
1.0
 37
0.0
 76
0
330
20C
345
0
346
0
  0
LAYOUT
  5
246
102
{ACAD_REACTORS
330
1A
102
}
100
AcDbPlotSettings
  1

  2
none_device
  4
ANSI_A_(11.00_x_8.50_Inches)
  6

 40
0.0
 41
0.0
 42
0.0
 43
0.0
 44
279.4
 45
215.9
 46
0.0
 47
0.0
 48
0.0
 49
0.0
140
0.0
141
0.0
142
1.0
143
1.0
 70
0
 72
0
 73
0
 74
0
  7

 75
0
147
1.0
148
0.0
149
0.0
100
AcDbLayout
  1
Layout1
 70
0
 71
1
 10
0.0
 20
0.0
 11
11.0
 21
8.5
 12
0.0
 22
0.0
 32
0.0
 14
0.0
 24
0.0
 34
0.0
 15
0.0
 25
0.0
 35
0.0
146
0.0
 13
0.0
 23
0.0
 33
0.0
 16
1.0
 26
0.0
 36
0.0
 17
0.0
 27
1.0
 37
0.0
 76
0
330
20D
345
0
346
0
  0
ENDSEC
  0
EOF
