999
DXF file: 2473_FRONT.dxf
999
Pro/ENGINEER 2018400 by Parametric Technology Corporation
  0
SECTION
  2
HEADER
  9
$ACADVER
  1
AC1027
  9
$DWGCODEPAGE
  3
ANSI_1252
  9
$EXTMAX
 10
11.0
 20
8.5
 30
0.0
  9
$EXTMIN
 10
0.0
 20
0.0
 30
0.0
  9
$LIMMIN
 10
0.0
 20
0.0
  9
$LIMMAX
 10
11.0
 20
8.5
  9
$VIEWCTR
 10
5.5
 20
4.25
  9
$VIEWSIZE
 40
8.5
  9
$CLAYER
  8
0
  9
$LTSCALE
 40
0.605
  9
$CELTYPE
  6
BYLAYER
  9
$DIMSCALE
 40
1.0
  9
$DIMASZ
 40
0.1
  9
$DIMEXO
 40
0.0625
  9
$DIMDLI
 40
0.418
  9
$DIMEXE
 40
0.125
  9
$DIMCEN
 40
0.099
  9
$DIMLFAC
 40
1.0
  9
$DIMBLK
  1
_FILLED
  9
$DIMALT
 70
1
  9
$DIMALTD
 70
2
  9
$DIMALTTD
 70
2
  9
$DIMALTF
 40
25.4
  9
$DIMTXT
 40
0.08
  9
$DIMTOL
 70
1
  9
$DIMLIM
 70
0
  9
$DIMTFAC
 40
1.0
  9
$DIMTP
 40
0.001
  9
$DIMTM
 40
0.001
  9
$DIMGAP
 40
0.09
  9
$DIMDSEP
 70
46
  9
$AUNITS
 70
0
  9
$PDMODE
 70
3
  9
$PDSIZE
 40
0.3125
  9
$HANDSEED
  5
32C
  9
$TILEMODE
 70
1
  9
$MEASUREMENT
 70
0
  9
$INSUNITS
 70
1
  0
ENDSEC
  0
SECTION
  2
CLASSES
  0
CLASS
  1
ACDBDICTIONARYWDFLT
  2
AcDbDictionaryWithDefault
  3
AutoCAD 2000
 90
0
 91
1
280
0
281
0
  0
CLASS
  1
ACDBPLACEHOLDER
  2
AcDbPlaceHolder
  3
AutoCAD 2000
 90
0
 91
1
280
0
281
0
  0
CLASS
  1
LAYOUT
  2
AcDbLayout
  3
AutoCAD 2000
 90
0
 91
0
280
0
281
0
  0
ENDSEC
  0
SECTION
  2
TABLES
  0
TABLE
  2
VPORT
  5
8
100
AcDbSymbolTable
 70
2
  0
VPORT
  5
1F4
100
AcDbSymbolTableRecord
100
AcDbViewportTableRecord
  2
*ACTIVE
 70
0
 10
0.0
 20
0.0
 11
1.0
 21
1.0
 12
5.5
 22
4.25
 13
0.0
 23
0.0
 14
1.0
 24
1.0
 15
0.0
 25
0.0
 16
0.0
 26
0.0
 36
1.0
 17
0.0
 27
0.0
 37
0.0
 40
8.5
 41
1.2941176471
 42
50.0
 43
0.0
 44
0.0
 50
0.0
 51
0.0
 71
0
 72
100
 73
1
 74
1
 75
0
 76
0
 77
0
 78
0
  0
ENDTAB
  0
TABLE
  2
LTYPE
  5
5
100
AcDbSymbolTable
 70
6
  0
LTYPE
  5
14
100
AcDbSymbolTableRecord
100
AcDbLinetypeTableRecord
  2
BYBLOCK
 70
0
  3

 72
65
 73
0
 40
0.0
  0
LTYPE
  5
15
100
AcDbSymbolTableRecord
100
AcDbLinetypeTableRecord
  2
BYLAYER
 70
0
  3

 72
65
 73
0
 40
0.0
  0
LTYPE
  5
16
100
AcDbSymbolTableRecord
100
AcDbLinetypeTableRecord
  2
CONTINUOUS
 70
64
  3
Solid line
 72
65
 73
0
 40
0.0
  0
LTYPE
  5
1F5
100
AcDbSymbolTableRecord
100
AcDbLinetypeTableRecord
  2
CENTER
 70
64
  3
____ _ ____ _ ____ _ ____ _ ____ _ ____ _ ____
 72
65
 73
4
 40
0.6
 49
0.375
 74
0
 49
-0.075
 74
0
 49
0.075
 74
0
 49
-0.075
 74
0
  0
LTYPE
  5
1F6
100
AcDbSymbolTableRecord
100
AcDbLinetypeTableRecord
  2
HIDDEN
 70
64
  3
- - - - - - - - - - - - - - - - - - - -
 72
65
 73
2
 40
0.2
 49
0.1
 74
0
 49
-0.1
 74
0
  0
LTYPE
  5
1F7
100
AcDbSymbolTableRecord
100
AcDbLinetypeTableRecord
  2
PHANTOM
 70
64
  3
_____ _ _ _____ _ _ _____ _ _ _____
 72
65
 73
6
 40
0.8
 49
0.45
 74
0
 49
-0.05
 74
0
 49
0.1
 74
0
 49
-0.05
 74
0
 49
0.1
 74
0
 49
-0.05
 74
0
  0
LTYPE
  5
1F8
100
AcDbSymbolTableRecord
100
AcDbLinetypeTableRecord
  2
DOT
 70
64
  3
. . . . . . . . . . . . . . . . . . . .
 72
65
 73
2
 40
0.2
 49
0.1
 74
0
 49
-0.1
 74
0
  0
LTYPE
  5
1F9
100
AcDbSymbolTableRecord
100
AcDbLinetypeTableRecord
  2
DASHED
 70
64
  3
- - - - - - - - - - - - - - - - - - - -
 72
65
 73
2
 40
0.2
 49
0.1
 74
0
 49
-0.1
 74
0
  0
ENDTAB
  0
TABLE
  2
LAYER
  5
2
100
AcDbSymbolTable
 70
36
  0
LAYER
  5
10
100
AcDbSymbolTableRecord
100
AcDbLayerTableRecord
  2
0
 70
0
 62
7
  6
CONTINUOUS
370
-3
390
F
  0
LAYER
  5
1FA
100
AcDbSymbolTableRecord
100
AcDbLayerTableRecord
  2
DEFAULT_1
 70
0
 62
7
  6
CENTER
370
-3
390
F
  0
LAYER
  5
1FB
100
AcDbSymbolTableRecord
100
AcDbLayerTableRecord
  2
DEFAULT_2
 70
0
 62
8
  6
HIDDEN
370
-3
390
F
  0
LAYER
  5
1FC
100
AcDbSymbolTableRecord
100
AcDbLayerTableRecord
  2
DEFAULT_3
 70
0
 62
7
  6
PHANTOM
370
-3
390
F
  0
LAYER
  5
1FD
100
AcDbSymbolTableRecord
100
AcDbLayerTableRecord
  2
DEFAULT_COORDINATE_SYSTEM
 70
0
 62
7
  6
CONTINUOUS
370
-3
390
F
  0
LAYER
  5
1FE
100
AcDbSymbolTableRecord
100
AcDbLayerTableRecord
  2
DEFAULT_DATUM_AXES
 70
0
 62
7
  6
CONTINUOUS
370
-3
390
F
  0
LAYER
  5
1FF
100
AcDbSymbolTableRecord
100
AcDbLayerTableRecord
  2
DEFAULT_DATUM_PLANES
 70
0
 62
7
  6
CONTINUOUS
370
-3
390
F
  0
ENDTAB
  0
TABLE
  2
STYLE
  5
3
100
AcDbSymbolTable
 70
1
  0
STYLE
  5
11
100
AcDbSymbolTableRecord
100
AcDbTextStyleTableRecord
  2
STANDARD
 70
0
 40
0.0
 41
0.8
 50
0.0
 71
0
 42
0.2
  3
txt
  4

  0
STYLE
  5
200
100
AcDbSymbolTableRecord
100
AcDbTextStyleTableRecord
  2
TEXTSTYLE_1
 70
0
 40
0.0
 41
0.8
 50
0.0
 71
0
 42
0.2
  3
gdt
  4

  0
ENDTAB
  0
TABLE
  2
VIEW
  5
6
100
AcDbSymbolTable
 70
0
  0
ENDTAB
  0
TABLE
  2
UCS
  5
7
100
AcDbSymbolTable
 70
0
  0
ENDTAB
  0
TABLE
  2
APPID
  5
9
100
AcDbSymbolTable
 70
1
  0
APPID
  5
201
100
AcDbSymbolTableRecord
100
AcDbRegAppTableRecord
  2
ACAD
 70
0
  0
ENDTAB
  0
TABLE
  2
BLOCK_RECORD
  5
1
100
AcDbSymbolTable
 70
0
  0
BLOCK_RECORD
  5
202
100
AcDbSymbolTableRecord
100
AcDbBlockTableRecord
  2
*Model_Space
  0
BLOCK_RECORD
  5
203
100
AcDbSymbolTableRecord
100
AcDbBlockTableRecord
  2
*Paper_Space
  0
BLOCK_RECORD
  5
204
100
AcDbSymbolTableRecord
100
AcDbBlockTableRecord
  2
_FILLED
  0
ENDTAB
  0
TABLE
  2
DIMSTYLE
  5
A
100
AcDbSymbolTable
 70
1
100
AcDbDimStyleTable
 71
0
  0
DIMSTYLE
105
205
100
AcDbSymbolTableRecord
100
AcDbDimStyleTableRecord
  2
STANDARD
 70
0
  3

  4

 40
1.0
 41
0.1
 42
0.0625
 43
0.38
 44
0.125
 45
0.0
 46
0.0
 47
0.001
 48
0.001
140
0.08
141
0.09
142
0.0
143
25.4
144
1.0
145
0.0
146
1.0
147
0.09
 71
1.0
 72
0.0
 73
1
 74
1
 75
0
 76
0
 77
0
 78
4
 79
1
170
1
171
2
172
0
173
0
174
0
175
0
176
0
177
0
178
0
270
2
179
3
271
3
272
3
273
2
274
2
275
0
280
0
281
0
282
0
283
1
284
4
285
0
286
0
287
3
288
0
340
11
278
46
341
204
342
204
343
204
344
204
  0
ENDTAB
  0
ENDSEC
  0
SECTION
  2
BLOCKS
  0
BLOCK
  5
20
100
AcDbEntity
  8
0
100
AcDbBlockBegin
  2
*Model_Space
 70
0
 10
0.0
 20
0.0
 30
0.0
  3
*Model_Space
  1

  0
ENDBLK
  5
21
100
AcDbEntity
  8
0
100
AcDbBlockEnd
  0
BLOCK
  5
1C
100
AcDbEntity
  8
0
100
AcDbBlockBegin
  2
*Paper_Space
 70
0
 10
0.0
 20
0.0
 30
0.0
  3
*Paper_Space
  1

  0
ENDBLK
  5
1D
100
AcDbEntity
  8
0
100
AcDbBlockEnd
  0
BLOCK
  5
206
100
AcDbEntity
  8
0
100
AcDbBlockBegin
  2
_FILLED
 70
64
 10
0.0
 20
0.0
  3
_FILLED
  1

  0
SOLID
  5
207
100
AcDbEntity
  8
0
  6
BYBLOCK
 62
0
100
AcDbTrace
 10
0.0
 20
0.0
 11
-1.0
 21
0.2
 12
-1.0
 22
-0.2
 13
-1.0
 23
-0.2
  0
ENDBLK
  5
208
100
AcDbEntity
  8
0
  6
BYBLOCK
 62
0
100
AcDbBlockEnd
  0
ENDSEC
  0
SECTION
  2
ENTITIES
  0
MTEXT
  5
209
100
AcDbEntity
  8
0
100
AcDbMText
 62
2
  6
CONTINUOUS
  7
STANDARD
 71
3
 72
1
 10
4.7851708075
 20
1.306383377
 30
0.0
 11
1.0
 21
0.0
 31
0.0
 73
2
 44
0.9
  1
SCALE  .500
 40
0.08
 41
0.704
  0
LINE
  5
20A
100
AcDbEntity
  8
0
100
AcDbLine
 62
7
  6
CONTINUOUS
 10
0.0
 20
0.0
 11
0.0
 21
8.5
  0
LINE
  5
20B
100
AcDbEntity
  8
0
100
AcDbLine
 62
7
  6
CONTINUOUS
 10
0.0
 20
0.0
 11
11.0
 21
0.0
  0
LINE
  5
20C
100
AcDbEntity
  8
0
100
AcDbLine
 62
7
  6
CONTINUOUS
 10
0.0
 20
8.5
 11
11.0
 21
8.5
  0
LINE
  5
20D
100
AcDbEntity
  8
0
100
AcDbLine
 62
7
  6
CONTINUOUS
 10
11.0
 20
0.0
 11
11.0
 21
8.5
  0
LINE
  5
20E
100
AcDbEntity
  8
0
100
AcDbLine
 62
7
  6
CONTINUOUS
 10
4.8872326698
 20
2.3698616379
 11
3.7614608451
 21
2.3698616379
  0
LINE
  5
20F
100
AcDbEntity
  8
0
100
AcDbLine
 62
7
  6
CONTINUOUS
 10
3.7451956546
 20
2.405127966
 11
4.9034978603
 21
2.405127966
  0
LINE
  5
210
100
AcDbEntity
  8
0
100
AcDbLine
 62
7
  6
CONTINUOUS
 10
4.8279267305
 20
2.4759177715
 11
3.8207667843
 21
2.4759177715
  0
LINE
  5
211
100
AcDbEntity
  8
0
100
AcDbLine
 62
7
  6
CONTINUOUS
 10
4.8278083748
 20
2.4918533172
 11
3.82088514
 21
2.4918533172
  0
LINE
  5
212
100
AcDbEntity
  8
0
100
AcDbLine
 62
7
  6
CONTINUOUS
 10
3.8143799159
 20
2.5174543028
 11
4.8343135989
 21
2.5174543028
  0
LINE
  5
213
100
AcDbEntity
  8
0
100
AcDbLine
 62
7
  6
CONTINUOUS
 10
3.8372834157
 20
2.5918119392
 11
4.8114100991
 21
2.5918119392
  0
LINE
  5
214
100
AcDbEntity
  8
0
100
AcDbLine
 62
7
  6
CONTINUOUS
 10
3.8653467574
 20
2.6179422331
 11
4.7833467574
 21
2.6179422331
  0
LINE
  5
215
100
AcDbEntity
  8
0
100
AcDbLine
 62
7
  6
CONTINUOUS
 10
4.6790192213
 20
2.8299350572
 11
3.9696742935
 21
2.8299350572
  0
LINE
  5
216
100
AcDbEntity
  8
0
100
AcDbLine
 62
7
  6
CONTINUOUS
 10
4.6779391156
 20
2.8484060575
 11
3.9707543992
 21
2.8484060575
  0
LINE
  5
217
100
AcDbEntity
  8
0
100
AcDbLine
 62
7
  6
CONTINUOUS
 10
4.6607607766
 20
2.9038889944
 11
3.9879327383
 21
2.9038889944
  0
LINE
  5
218
100
AcDbEntity
  8
0
100
AcDbLine
 62
7
  6
CONTINUOUS
 10
4.6480717574
 20
2.9234254415
 11
4.0006217574
 21
2.9234254415
  0
LINE
  5
219
100
AcDbEntity
  8
0
100
AcDbLine
 62
7
  6
CONTINUOUS
 10
4.6480717574
 20
3.0762382309
 11
4.0006217574
 21
3.0762382309
  0
LINE
  5
21A
100
AcDbEntity
  8
0
100
AcDbLine
 62
7
  6
CONTINUOUS
 10
4.6620855354
 20
3.1123210131
 11
3.9866079794
 21
3.1123210131
  0
LINE
  5
21B
100
AcDbEntity
  8
0
100
AcDbLine
 62
7
  6
CONTINUOUS
 10
4.650876134
 20
3.1843988582
 11
3.9978173808
 21
3.1843988582
  0
LINE
  5
21C
100
AcDbEntity
  8
0
100
AcDbLine
 62
7
  6
CONTINUOUS
 10
4.6387448064
 20
3.2025362802
 11
4.0099487085
 21
3.2025362802
  0
LINE
  5
21D
100
AcDbEntity
  8
0
100
AcDbLine
 62
7
  6
CONTINUOUS
 10
5.0086467574
 20
3.3783616379
 11
4.8143967574
 21
3.3783616379
  0
LINE
  5
21E
100
AcDbEntity
  8
0
100
AcDbLine
 62
7
  6
CONTINUOUS
 10
4.0006217574
 20
3.0762382309
 11
4.0006217574
 21
2.9234254415
  0
LINE
  5
21F
100
AcDbEntity
  8
0
100
AcDbLine
 62
7
  6
CONTINUOUS
 10
5.3933662929
 20
3.6698961126
 11
5.38004837
 21
3.6688369364
  0
LINE
  5
220
100
AcDbEntity
  8
0
100
AcDbLine
 62
7
  6
CONTINUOUS
 10
5.3441406074
 20
3.5594780709
 11
5.3384428589
 21
3.5594780709
  0
LINE
  5
221
100
AcDbEntity
  8
0
100
AcDbLine
 62
7
  6
CONTINUOUS
 10
5.3402337795
 20
3.5651971892
 11
5.3462791354
 21
3.5651971892
  0
LINE
  5
222
100
AcDbEntity
  8
0
100
AcDbLine
 62
7
  6
CONTINUOUS
 10
5.3439050214
 20
3.5769759441
 11
5.3504727358
 21
3.5769759441
  0
LINE
  5
223
100
AcDbEntity
  8
0
100
AcDbLine
 62
7
  6
CONTINUOUS
 10
5.3805395382
 20
3.5815994343
 11
5.3520253763
 21
3.5815994343
  0
LINE
  5
224
100
AcDbEntity
  8
0
100
AcDbLine
 62
7
  6
CONTINUOUS
 10
5.7401777172
 20
3.6073494343
 11
5.7140772794
 21
3.6073494343
  0
LINE
  5
225
100
AcDbEntity
  8
0
100
AcDbLine
 62
7
  6
CONTINUOUS
 10
5.3805395382
 20
3.6525571846
 11
5.3709798119
 21
3.6525571846
  0
LINE
  5
226
100
AcDbEntity
  8
0
100
AcDbLine
 62
7
  6
CONTINUOUS
 10
4.0723467574
 20
6.3683616379
 11
4.0723467574
 21
6.3283616379
  0
LINE
  5
227
100
AcDbEntity
  8
0
100
AcDbLine
 62
7
  6
CONTINUOUS
 10
4.0793467574
 20
5.5128811335
 11
4.0793467574
 21
5.5183616379
  0
LINE
  5
228
100
AcDbEntity
  8
0
100
AcDbLine
 62
7
  6
CONTINUOUS
 10
4.1368467574
 20
6.228583756
 11
4.1368467574
 21
5.5533616379
  0
LINE
  5
229
100
AcDbEntity
  8
0
100
AcDbLine
 62
7
  6
CONTINUOUS
 10
5.3948563163
 20
3.7858549676
 11
5.3804289841
 21
3.784515861
  0
LINE
  5
22A
100
AcDbEntity
  8
0
100
AcDbLine
 62
7
  6
CONTINUOUS
 10
5.3800483192
 20
3.6688390134
 11
5.3738614405
 21
3.6688371918
  0
LINE
  5
22B
100
AcDbEntity
  8
0
100
AcDbLine
 62
7
  6
CONTINUOUS
 10
5.3739100216
 20
3.7728825686
 11
5.3776745777
 21
3.7728825686
  0
LINE
  5
22C
100
AcDbEntity
  8
0
100
AcDbLine
 62
7
  6
CONTINUOUS
 10
5.3739100216
 20
3.7846631855
 11
5.3775878153
 21
3.7846631855
  0
LINE
  5
22D
100
AcDbEntity
  8
0
100
AcDbLine
 62
7
  6
CONTINUOUS
 10
5.3739100216
 20
3.7903838614
 11
5.3775456859
 21
3.7903838614
  0
LINE
  5
22E
100
AcDbEntity
  8
0
100
AcDbLine
 62
7
  6
CONTINUOUS
 10
5.3774418468
 20
3.8044830082
 11
5.3800483033
 21
3.8044823406
  0
LINE
  5
22F
100
AcDbEntity
  8
0
100
AcDbLine
 62
7
  6
CONTINUOUS
 10
5.3729465585
 20
3.7359475539
 11
5.3739100216
 21
3.7359456253
  0
LINE
  5
230
100
AcDbEntity
  8
0
100
AcDbLine
 62
7
  6
CONTINUOUS
 10
5.3948563212
 20
3.6874755963
 11
5.3804289875
 21
3.6888047071
  0
LINE
  5
231
100
AcDbEntity
  8
0
100
AcDbLine
 62
7
  6
CONTINUOUS
 10
4.010567715
 20
5.4497603311
 11
4.0097790561
 21
5.4551547455
  0
LINE
  5
232
100
AcDbEntity
  8
0
100
AcDbLine
 62
7
  6
CONTINUOUS
 10
4.1177863427
 20
5.2624350695
 11
4.1021767306
 21
5.4536881508
  0
LINE
  5
233
100
AcDbEntity
  8
0
100
AcDbLine
 62
7
  6
CONTINUOUS
 10
5.4391467953
 20
3.929747713
 11
5.5391467574
 21
3.9297927073
  0
LINE
  5
234
100
AcDbEntity
  8
0
100
AcDbLine
 62
7
  6
CONTINUOUS
 10
5.4391467574
 20
3.9563175369
 11
5.5391467574
 21
3.9563625704
  0
LINE
  5
235
100
AcDbEntity
  8
0
100
AcDbLine
 62
7
  6
CONTINUOUS
 10
5.3773219589
 20
3.8207589512
 11
5.3805395382
 21
3.8207589512
  0
LINE
  5
236
100
AcDbEntity
  8
0
100
AcDbLine
 62
7
  6
CONTINUOUS
 10
5.3739100216
 20
3.8320944349
 11
5.3772384501
 21
3.8320944349
  0
LINE
  5
237
100
AcDbEntity
  8
0
100
AcDbLine
 62
7
  6
CONTINUOUS
 10
5.7401777172
 20
3.8658494343
 11
5.7140772794
 21
3.8658494343
  0
LINE
  5
238
100
AcDbEntity
  8
0
100
AcDbLine
 62
7
  6
CONTINUOUS
 10
5.3805395382
 20
3.8915994343
 11
5.3767999553
 21
3.8915994343
  0
LINE
  5
239
100
AcDbEntity
  8
0
100
AcDbLine
 62
7
  6
CONTINUOUS
 10
5.3739100216
 20
3.9123616379
 11
5.3766467576
 21
3.9123616379
  0
LINE
  5
23A
100
AcDbEntity
  8
0
100
AcDbLine
 62
7
  6
CONTINUOUS
 10
5.5391467574
 20
3.9297927073
 11
5.6391467196
 21
3.929747713
  0
LINE
  5
23B
100
AcDbEntity
  8
0
100
AcDbLine
 62
7
  6
CONTINUOUS
 10
5.5391467574
 20
3.9563625704
 11
5.6391467574
 21
3.9563175369
  0
LINE
  5
23C
100
AcDbEntity
  8
0
100
AcDbLine
 62
7
  6
CONTINUOUS
 10
5.3933669976
 20
3.8034317205
 11
5.3800483538
 21
3.804483522
  0
LINE
  5
23D
100
AcDbEntity
  8
0
100
AcDbLine
 62
7
  6
CONTINUOUS
 10
5.3548822883
 20
3.6158011257
 11
5.3557670579
 21
3.6155294987
  0
LINE
  5
23E
100
AcDbEntity
  8
0
100
AcDbLine
 62
7
  6
CONTINUOUS
 10
4.5309071721
 20
5.2624350695
 11
4.5465167842
 21
5.4536881508
  0
LINE
  5
23F
100
AcDbEntity
  8
0
100
AcDbLine
 62
7
  6
CONTINUOUS
 10
5.4260467574
 20
3.9750895887
 11
5.5391467574
 21
3.9751405216
  0
LINE
  5
240
100
AcDbEntity
  8
0
100
AcDbLine
 62
7
  6
CONTINUOUS
 10
5.4070062903
 20
4.0092643463
 11
5.5391467574
 21
4.0093238537
  0
LINE
  5
241
100
AcDbEntity
  8
0
100
AcDbLine
 62
7
  6
CONTINUOUS
 10
5.0086467574
 20
4.0933616379
 11
4.8143967574
 21
4.0933616379
  0
LINE
  5
242
100
AcDbEntity
  8
0
100
AcDbLine
 62
7
  6
CONTINUOUS
 10
5.5391467574
 20
3.9751405216
 11
5.6522467574
 21
3.9750895887
  0
LINE
  5
243
100
AcDbEntity
  8
0
100
AcDbLine
 62
7
  6
CONTINUOUS
 10
5.6712872245
 20
4.0092643463
 11
5.5391467574
 21
4.0093238537
  0
LINE
  5
244
100
AcDbEntity
  8
0
100
AcDbLine
 62
7
  6
CONTINUOUS
 10
4.6352427906
 20
3.2687561248
 11
4.6387448064
 21
3.2025362802
  0
LINE
  5
245
100
AcDbEntity
  8
0
100
AcDbLine
 62
7
  6
CONTINUOUS
 10
4.5118467574
 20
6.228583756
 11
4.5118467574
 21
5.5533616379
  0
LINE
  5
246
100
AcDbEntity
  8
0
100
AcDbLine
 62
7
  6
CONTINUOUS
 10
4.5693467574
 20
5.5128811335
 11
4.5693467574
 21
5.5183616379
  0
LINE
  5
247
100
AcDbEntity
  8
0
100
AcDbLine
 62
7
  6
CONTINUOUS
 10
4.5763467574
 20
6.3683616379
 11
4.5763467574
 21
6.3283616379
  0
LINE
  5
248
100
AcDbEntity
  8
0
100
AcDbLine
 62
7
  6
CONTINUOUS
 10
4.6381257999
 20
5.4497603311
 11
4.6389144588
 21
5.4551547455
  0
LINE
  5
249
100
AcDbEntity
  8
0
100
AcDbLine
 62
7
  6
CONTINUOUS
 10
5.401417666
 20
4.133108249
 11
5.5391467574
 21
4.1331702732
  0
LINE
  5
24A
100
AcDbEntity
  8
0
100
AcDbLine
 62
7
  6
CONTINUOUS
 10
5.4183377816
 20
4.1693256859
 11
5.5391467574
 21
4.1693800904
  0
LINE
  5
24B
100
AcDbEntity
  8
0
100
AcDbLine
 62
7
  6
CONTINUOUS
 10
5.430356552
 20
4.1897922359
 11
5.5391467574
 21
4.1898412279
  0
LINE
  5
24C
100
AcDbEntity
  8
0
100
AcDbLine
 62
7
  6
CONTINUOUS
 10
5.6768758489
 20
4.133108249
 11
5.5391467574
 21
4.1331702732
  0
LINE
  5
24D
100
AcDbEntity
  8
0
100
AcDbLine
 62
7
  6
CONTINUOUS
 10
5.5391467574
 20
4.1693800904
 11
5.6599557333
 21
4.1693256859
  0
LINE
  5
24E
100
AcDbEntity
  8
0
100
AcDbLine
 62
7
  6
CONTINUOUS
 10
5.5391467574
 20
4.1898412279
 11
5.6479369628
 21
4.1897922359
  0
LINE
  5
24F
100
AcDbEntity
  8
0
100
AcDbLine
 62
7
  6
CONTINUOUS
 10
4.6480717574
 20
3.0762382309
 11
4.6480717574
 21
2.9234254415
  0
LINE
  5
250
100
AcDbEntity
  8
0
100
AcDbLine
 62
7
  6
CONTINUOUS
 10
5.0086467574
 20
4.1171116547
 11
5.0086467574
 21
3.3546116765
  0
LINE
  5
251
100
AcDbEntity
  8
0
100
AcDbLine
 62
7
  6
CONTINUOUS
 10
5.0451170561
 20
4.1325434284
 11
5.0451170561
 21
3.3391798876
  0
LINE
  5
252
100
AcDbEntity
  8
0
100
AcDbLine
 62
7
  6
CONTINUOUS
 10
5.0842516657
 20
4.1144868504
 11
5.0842516657
 21
3.3572364638
  0
LINE
  5
253
100
AcDbEntity
  8
0
100
AcDbLine
 62
7
  6
CONTINUOUS
 10
5.2291731916
 20
4.0819942608
 11
5.2291731916
 21
3.38972905
  0
LINE
  5
254
100
AcDbEntity
  8
0
100
AcDbLine
 62
7
  6
CONTINUOUS
 10
5.3766467576
 20
3.9123616378
 11
5.378019293
 21
3.7260798672
  0
LINE
  5
255
100
AcDbEntity
  8
0
100
AcDbLine
 62
7
  6
CONTINUOUS
 10
5.2808835256
 20
4.0852664537
 11
5.2808835256
 21
3.3864568575
  0
LINE
  5
256
100
AcDbEntity
  8
0
100
AcDbLine
 62
7
  6
CONTINUOUS
 10
5.323477944
 20
4.0768059792
 11
5.323477944
 21
3.3949173312
  0
LINE
  5
257
100
AcDbEntity
  8
0
100
AcDbLine
 62
7
  6
CONTINUOUS
 10
5.3333843455
 20
3.4218263331
 11
5.3333843455
 21
4.0498969427
  0
LINE
  5
258
100
AcDbEntity
  8
0
100
AcDbLine
 62
7
  6
CONTINUOUS
 10
5.3729465585
 20
3.7359475539
 11
5.3729465585
 21
3.9266442774
  0
LINE
  5
259
100
AcDbEntity
  8
0
100
AcDbLine
 62
7
  6
CONTINUOUS
 10
5.3739100216
 20
3.7359456253
 11
5.3739100216
 21
3.9219359423
  0
LINE
  5
25A
100
AcDbEntity
  8
0
100
AcDbLine
 62
7
  6
CONTINUOUS
 10
5.3805395382
 20
3.5815994343
 11
5.3805395376
 21
3.6647568474
  0
LINE
  5
25B
100
AcDbEntity
  8
0
100
AcDbLine
 62
7
  6
CONTINUOUS
 10
5.3805395524
 20
3.808570932
 11
5.3805395382
 21
3.8915994343
  0
LINE
  5
25C
100
AcDbEntity
  8
0
100
AcDbLine
 62
7
  6
CONTINUOUS
 10
5.3691467574
 20
4.9626620668
 11
5.5391467574
 21
4.9627386237
  0
LINE
  5
25D
100
AcDbEntity
  8
0
100
AcDbLine
 62
7
  6
CONTINUOUS
 10
5.7091467574
 20
4.9626620668
 11
5.5391467574
 21
4.9627386237
  0
LINE
  5
25E
100
AcDbEntity
  8
0
100
AcDbLine
 62
7
  6
CONTINUOUS
 10
5.390772262
 20
3.5775671763
 11
5.390772262
 21
3.6378407085
  0
LINE
  5
25F
100
AcDbEntity
  8
0
100
AcDbLine
 62
7
  6
CONTINUOUS
 10
5.390772262
 20
3.8354700121
 11
5.390772262
 21
3.8956316924
  0
LINE
  5
260
100
AcDbEntity
  8
0
100
AcDbLine
 62
7
  6
CONTINUOUS
 10
5.4391467574
 20
3.9297476739
 11
5.4391467574
 21
3.9563175369
  0
LINE
  5
261
100
AcDbEntity
  8
0
100
AcDbLine
 62
7
  6
CONTINUOUS
 10
5.3436469503
 20
5.0422475611
 11
5.3445097304
 21
5.0422558234
  0
LINE
  5
262
100
AcDbEntity
  8
0
100
AcDbLine
 62
7
  6
CONTINUOUS
 10
5.7415752617
 20
5.0422475218
 11
5.7352856353
 21
5.0422250413
  0
LINE
  5
263
100
AcDbEntity
  8
0
100
AcDbLine
 62
7
  6
CONTINUOUS
 10
5.3367182531
 20
5.0422476003
 11
5.3439739243
 21
5.0422717487
  0
LINE
  5
264
100
AcDbEntity
  8
0
100
AcDbLine
 62
7
  6
CONTINUOUS
 10
5.3373965538
 20
5.0244414784
 11
5.5391467574
 21
5.0245323335
  0
LINE
  5
265
100
AcDbEntity
  8
0
100
AcDbLine
 62
7
  6
CONTINUOUS
 10
5.3439739243
 20
5.0422717487
 11
5.5391467575
 21
5.0423387133
  0
LINE
  5
266
100
AcDbEntity
  8
0
100
AcDbLine
 62
7
  6
CONTINUOUS
 10
5.3267420797
 20
5.052937489
 11
5.7515514548
 21
5.0529374479
  0
LINE
  5
267
100
AcDbEntity
  8
0
100
AcDbLine
 62
7
  6
CONTINUOUS
 10
5.3498092943
 20
5.0864615244
 11
5.7284842381
 21
5.0864614877
  0
LINE
  5
268
100
AcDbEntity
  8
0
100
AcDbLine
 62
7
  6
CONTINUOUS
 10
5.4020418336
 20
5.1103076354
 11
5.676251694
 21
5.1103076088
  0
LINE
  5
269
100
AcDbEntity
  8
0
100
AcDbLine
 62
7
  6
CONTINUOUS
 10
5.5044557463
 20
5.1322475587
 11
5.5738377685
 21
5.1322475452
  0
LINE
  5
26A
100
AcDbEntity
  8
0
100
AcDbLine
 62
7
  6
CONTINUOUS
 10
4.5243467574
 20
5.1683616379
 11
4.1243467574
 21
5.1683616379
  0
LINE
  5
26B
100
AcDbEntity
  8
0
100
AcDbLine
 62
7
  6
CONTINUOUS
 10
5.7408969611
 20
5.0244414784
 11
5.5391467574
 21
5.0245323335
  0
LINE
  5
26C
100
AcDbEntity
  8
0
100
AcDbLine
 62
7
  6
CONTINUOUS
 10
5.5391467575
 20
5.0423387133
 11
5.7357334947
 21
5.0422693032
  0
LINE
  5
26D
100
AcDbEntity
  8
0
100
AcDbLine
 62
7
  6
CONTINUOUS
 10
5.3430078984
 20
5.0422250429
 11
5.3367182193
 21
5.0422475611
  0
LINE
  5
26E
100
AcDbEntity
  8
0
100
AcDbLine
 62
7
  6
CONTINUOUS
 10
5.7357334947
 20
5.0422693032
 11
5.7415752956
 21
5.0422475611
  0
LINE
  5
26F
100
AcDbEntity
  8
0
100
AcDbLine
 62
7
  6
CONTINUOUS
 10
5.7340440962
 20
5.0422544686
 11
5.7344882066
 21
5.0422511061
  0
LINE
  5
270
100
AcDbEntity
  8
0
100
AcDbLine
 62
7
  6
CONTINUOUS
 10
5.6391467574
 20
3.9297476739
 11
5.6391467574
 21
3.9563175369
  0
LWPOLYLINE
  5
271
100
AcDbEntity
  8
0
100
AcDbPolyline
 62
7
  6
CONTINUOUS
 90
16
 70
0
 10
5.3557670579
 20
3.6155294987
 10
5.357874552
 20
3.6226642516
 10
5.3601113472
 20
3.6307903623
 10
5.3621802036
 20
3.6389347444
 10
5.3640808423
 20
3.6470939757
 10
5.3658131207
 20
3.6552649182
 10
5.3673769615
 20
3.6634443567
 10
5.3687723084
 20
3.6716288448
 10
5.3699992359
 20
3.6798149305
 10
5.3710579601
 20
3.6879992824
 10
5.3719488031
 20
3.6961783282
 10
5.3726722951
 20
3.7043486086
 10
5.3732290974
 20
3.7125070141
 10
5.3736201014
 20
3.7206502062
 10
5.3738462898
 20
3.728774586
 10
5.373910019
 20
3.7359456253
  0
LINE
  5
272
100
AcDbEntity
  8
0
100
AcDbLine
 62
7
  6
CONTINUOUS
 10
5.3450521825
 20
3.5806713474
 11
5.355767057
 21
3.6155294989
  0
LINE
  5
273
100
AcDbEntity
  8
0
100
AcDbLine
 62
7
  6
CONTINUOUS
 10
5.3356032047
 20
3.5504486802
 11
5.3450521825
 21
3.5806713474
  0
LINE
  5
274
100
AcDbEntity
  8
0
100
AcDbLine
 62
7
  6
CONTINUOUS
 10
5.3333843455
 20
3.5434276613
 11
5.3356032047
 21
3.5504486802
  0
LINE
  5
275
100
AcDbEntity
  8
0
100
AcDbLine
 62
7
  6
CONTINUOUS
 10
4.5390568795
 20
5.2202122511
 11
4.1096366354
 21
5.2202122511
  0
LINE
  5
276
100
AcDbEntity
  8
0
100
AcDbLine
 62
7
  6
CONTINUOUS
 10
4.5309071721
 20
5.2624350695
 11
4.1177863427
 21
5.2624350695
  0
LINE
  5
277
100
AcDbEntity
  8
0
100
AcDbLine
 62
7
  6
CONTINUOUS
 10
5.7140772794
 20
3.6073494343
 11
5.7140772794
 21
3.8658494343
  0
LINE
  5
278
100
AcDbEntity
  8
0
100
AcDbLine
 62
7
  6
CONTINUOUS
 10
5.7401777172
 20
3.6073494343
 11
5.7401777172
 21
3.8658494343
  0
LINE
  5
279
100
AcDbEntity
  8
0
100
AcDbLine
 62
7
  6
CONTINUOUS
 10
5.7641467579
 20
3.6252441483
 11
5.7641467579
 21
3.8479547203
  0
LINE
  5
27A
100
AcDbEntity
  8
0
100
AcDbLine
 62
7
  6
CONTINUOUS
 10
4.6109115644
 20
5.3795595102
 11
4.5404665846
 21
5.3795595102
  0
LINE
  5
27B
100
AcDbEntity
  8
0
100
AcDbLine
 62
7
  6
CONTINUOUS
 10
4.1082269303
 20
5.3795595102
 11
4.0377819505
 21
5.3795595102
  0
LINE
  5
27C
100
AcDbEntity
  8
0
100
AcDbLine
 62
7
  6
CONTINUOUS
 10
4.6284232925
 20
5.4273334989
 11
4.5443657815
 21
5.4273334989
  0
LINE
  5
27D
100
AcDbEntity
  8
0
100
AcDbLine
 62
7
  6
CONTINUOUS
 10
4.1043277333
 20
5.4273334989
 11
4.0202702224
 21
5.4273334989
  0
LINE
  5
27E
100
AcDbEntity
  8
0
100
AcDbLine
 62
7
  6
CONTINUOUS
 10
4.010567715
 20
5.4497603311
 11
4.1024973097
 21
5.4497603311
  0
LINE
  5
27F
100
AcDbEntity
  8
0
100
AcDbLine
 62
7
  6
CONTINUOUS
 10
4.5461962051
 20
5.4497603311
 11
4.6381257999
 21
5.4497603311
  0
LINE
  5
280
100
AcDbEntity
  8
0
100
AcDbLine
 62
7
  6
CONTINUOUS
 10
4.5465167842
 20
5.4536881508
 11
4.1021767306
 21
5.4536881508
  0
LINE
  5
281
100
AcDbEntity
  8
0
100
AcDbLine
 62
7
  6
CONTINUOUS
 10
4.0097790561
 20
5.4551547455
 11
4.1020326102
 21
5.4551547455
  0
LINE
  5
282
100
AcDbEntity
  8
0
100
AcDbLine
 62
7
  6
CONTINUOUS
 10
4.5466609047
 20
5.4551547455
 11
4.6389144588
 21
5.4551547455
  0
LINE
  5
283
100
AcDbEntity
  8
0
100
AcDbLine
 62
7
  6
CONTINUOUS
 10
5.7284842381
 20
5.0864614877
 11
5.676251694
 21
5.1103076088
  0
LINE
  5
284
100
AcDbEntity
  8
0
100
AcDbLine
 62
7
  6
CONTINUOUS
 10
4.5638479226
 20
5.4972380981
 11
4.0848455923
 21
5.4972380981
  0
LINE
  5
285
100
AcDbEntity
  8
0
100
AcDbLine
 62
7
  6
CONTINUOUS
 10
4.6279495877
 20
5.5017419196
 11
4.5667226562
 21
5.5017419196
  0
LINE
  5
286
100
AcDbEntity
  8
0
100
AcDbLine
 62
7
  6
CONTINUOUS
 10
4.0819708587
 20
5.5017419196
 11
4.0205588678
 21
5.5017419196
  0
LINE
  5
287
100
AcDbEntity
  8
0
100
AcDbLine
 62
7
  6
CONTINUOUS
 10
4.0168084
 20
5.5034352609
 11
4.0812065206
 21
5.5034352609
  0
LINE
  5
288
100
AcDbEntity
  8
0
100
AcDbLine
 62
7
  6
CONTINUOUS
 10
4.5674869943
 20
5.5034352609
 11
4.6318851148
 21
5.5034352609
  0
LINE
  5
289
100
AcDbEntity
  8
0
100
AcDbLine
 62
7
  6
CONTINUOUS
 10
4.0793467574
 20
5.5128811335
 11
4.5693467574
 21
5.5128811335
  0
LINE
  5
28A
100
AcDbEntity
  8
0
100
AcDbLine
 62
7
  6
CONTINUOUS
 10
4.0793467574
 20
5.5183616379
 11
4.5693467574
 21
5.5183616379
  0
LINE
  5
28B
100
AcDbEntity
  8
0
100
AcDbLine
 62
7
  6
CONTINUOUS
 10
4.1143467574
 20
5.5533616379
 11
4.5343467574
 21
5.5533616379
  0
LINE
  5
28C
100
AcDbEntity
  8
0
100
AcDbLine
 62
7
  6
CONTINUOUS
 10
4.5118467574
 20
5.603583756
 11
4.1368467574
 21
5.603583756
  0
LINE
  5
28D
100
AcDbEntity
  8
0
100
AcDbLine
 62
7
  6
CONTINUOUS
 10
4.5172140442
 20
6.1363853749
 11
4.5118467574
 21
6.1363853749
  0
LINE
  5
28E
100
AcDbEntity
  8
0
100
AcDbLine
 62
7
  6
CONTINUOUS
 10
4.1368467574
 20
6.1363853749
 11
4.1314794706
 21
6.1363853749
  0
LINE
  5
28F
100
AcDbEntity
  8
0
100
AcDbLine
 62
7
  6
CONTINUOUS
 10
4.5663467574
 20
6.3183616379
 11
4.4889492626
 21
6.3183616379
  0
LINE
  5
290
100
AcDbEntity
  8
0
100
AcDbLine
 62
7
  6
CONTINUOUS
 10
4.1597442522
 20
6.3183616379
 11
4.0823467574
 21
6.3183616379
  0
LINE
  5
291
100
AcDbEntity
  8
0
100
AcDbLine
 62
7
  6
CONTINUOUS
 10
4.0723467574
 20
6.3283616379
 11
4.1656188733
 21
6.3283616379
  0
LINE
  5
292
100
AcDbEntity
  8
0
100
AcDbLine
 62
7
  6
CONTINUOUS
 10
4.4830746416
 20
6.3283616379
 11
4.5763467574
 21
6.3283616379
  0
LINE
  5
293
100
AcDbEntity
  8
0
100
AcDbLine
 62
7
  6
CONTINUOUS
 10
4.0723467574
 20
6.3683616379
 11
4.1993873317
 21
6.3683616379
  0
LINE
  5
294
100
AcDbEntity
  8
0
100
AcDbLine
 62
7
  6
CONTINUOUS
 10
4.4493061832
 20
6.3683616379
 11
4.5763467574
 21
6.3683616379
  0
LINE
  5
295
100
AcDbEntity
  8
0
100
AcDbLine
 62
7
  6
CONTINUOUS
 10
4.5663467574
 20
6.3783616379
 11
4.4371381777
 21
6.3783616379
  0
LINE
  5
296
100
AcDbEntity
  8
0
100
AcDbLine
 62
7
  6
CONTINUOUS
 10
4.2115553372
 20
6.3783616379
 11
4.0823467574
 21
6.3783616379
  0
ARC
  5
297
100
AcDbEntity
  8
0
100
AcDbCircle
 62
7
  6
CONTINUOUS
 10
4.0982810892
 20
2.1039222067
 40
0.4641055183
100
AcDbArc
 50
126.7234940818
 51
139.5335783123
  0
ARC
  5
298
100
AcDbEntity
  8
0
100
AcDbCircle
 62
7
  6
CONTINUOUS
 10
3.5139784347
 20
2.6506936491
 40
0.3286229872
100
AcDbArc
 50
336.0809144476
 51
349.6781735877
  0
ARC
  5
299
100
AcDbEntity
  8
0
100
AcDbCircle
 62
7
  6
CONTINUOUS
 10
3.9471617574
 20
3.0762382309
 40
0.05346
100
AcDbArc
 50
0.0
 51
42.4502024142
  0
ARC
  5
29A
100
AcDbEntity
  8
0
100
AcDbCircle
 62
7
  6
CONTINUOUS
 10
3.8688389108
 20
2.5860568973
 40
0.032076
100
AcDbArc
 50
96.2502506476
 51
169.6640834498
  0
ARC
  5
29B
100
AcDbEntity
  8
0
100
AcDbCircle
 62
7
  6
CONTINUOUS
 10
3.8339324855
 20
2.5087956379
 40
0.021384
100
AcDbArc
 50
156.1143090566
 51
232.3999954626
  0
ARC
  5
29C
100
AcDbEntity
  8
0
100
AcDbCircle
 62
7
  6
CONTINUOUS
 10
3.9885959848
 20
3.2036924144
 40
0.021384
100
AcDbArc
 50
295.5455664391
 51
356.900770582
  0
ARC
  5
29D
100
AcDbEntity
  8
0
100
AcDbCircle
 62
7
  6
CONTINUOUS
 10
3.7614608451
 20
2.3912456379
 40
0.021384
100
AcDbArc
 50
139.5192676838
 51
270.0
  0
ARC
  5
29E
100
AcDbEntity
  8
0
100
AcDbCircle
 62
7
  6
CONTINUOUS
 10
3.9792377574
 20
2.9234254415
 40
0.021384
100
AcDbArc
 50
293.9921531397
 51
360.0
  0
ARC
  5
29F
100
AcDbEntity
  8
0
100
AcDbCircle
 62
7
  6
CONTINUOUS
 10
3.9550098801
 20
2.84005965
 40
0.01782
100
AcDbArc
 50
325.3780555103
 51
27.9287385503
  0
ARC
  5
2A0
100
AcDbEntity
  8
0
100
AcDbCircle
 62
7
  6
CONTINUOUS
 10
3.8147836878
 20
2.4839304212
 40
0.01
100
AcDbArc
 50
306.7489316069
 51
52.3999954626
  0
ARC
  5
2A1
100
AcDbEntity
  8
0
100
AcDbCircle
 62
7
  6
CONTINUOUS
 10
-22.3071585208
 20
4.6276720614
 40
26.3556662976
100
AcDbArc
 50
356.9003208362
 51
1.6347839727
  0
ARC
  5
2A2
100
AcDbEntity
  8
0
100
AcDbCircle
 62
7
  6
CONTINUOUS
 10
-9.6435929344
 20
5.7897103224
 40
15.375
100
AcDbArc
 50
354.0270046788
 51
356.9164711012
  0
ARC
  5
2A3
100
AcDbEntity
  8
0
100
AcDbCircle
 62
7
  6
CONTINUOUS
 10
-1.50457504
 20
5.70136216
 40
7.1694986227
100
AcDbArc
 50
342.5076217058
 51
343.0885413561
  0
ARC
  5
2A4
100
AcDbEntity
  8
0
100
AcDbCircle
 62
7
  6
CONTINUOUS
 10
4.3243467574
 20
5.7643759398
 40
0.654
100
AcDbArc
 50
69.8536690168
 51
110.1463309832
  0
ARC
  5
2A5
100
AcDbEntity
  8
0
100
AcDbCircle
 62
7
  6
CONTINUOUS
 10
4.3243467574
 20
5.7745812709
 40
0.41
100
AcDbArc
 50
118.0607850299
 51
221.4015174661
  0
ARC
  5
2A6
100
AcDbEntity
  8
0
100
AcDbCircle
 62
7
  6
CONTINUOUS
 10
4.3243467574
 20
5.7745812709
 40
0.41
100
AcDbArc
 50
318.5984825339
 51
61.9392149701
  0
ARC
  5
2A7
100
AcDbEntity
  8
0
100
AcDbCircle
 62
7
  6
CONTINUOUS
 10
4.3243467574
 20
5.7748616379
 40
0.2675
100
AcDbArc
 50
314.5033928969
 51
45.4966071036
  0
ARC
  5
2A8
100
AcDbEntity
  8
0
100
AcDbCircle
 62
7
  6
CONTINUOUS
 10
4.3243467574
 20
5.7748616379
 40
0.2675
100
AcDbArc
 50
134.5033930184
 51
225.4966069814
  0
ARC
  5
2A9
100
AcDbEntity
  8
0
100
AcDbCircle
 62
7
  6
CONTINUOUS
 10
4.32823919
 20
6.4302488381
 40
0.255
100
AcDbArc
 50
206.0256412027
 51
222.2003104157
  0
ARC
  5
2AA
100
AcDbEntity
  8
0
100
AcDbCircle
 62
7
  6
CONTINUOUS
 10
4.3204543248
 20
6.4302488381
 40
0.255
100
AcDbArc
 50
317.7996895843
 51
333.9743587973
  0
ARC
  5
2AB
100
AcDbEntity
  8
0
100
AcDbCircle
 62
7
  6
CONTINUOUS
 10
4.3243467574
 20
5.7748616379
 40
0.2325
100
AcDbArc
 50
323.7520364473
 51
36.2479629869
  0
ARC
  5
2AC
100
AcDbEntity
  8
0
100
AcDbCircle
 62
7
  6
CONTINUOUS
 10
4.3243467574
 20
5.7748616379
 40
0.2325
100
AcDbArc
 50
143.7520364473
 51
216.2479629869
  0
ARC
  5
2AD
100
AcDbEntity
  8
0
100
AcDbCircle
 62
7
  6
CONTINUOUS
 10
4.3243467574
 20
6.228583756
 40
0.1875
100
AcDbArc
 50
0.0
 51
180.0
  0
ARC
  5
2AE
100
AcDbEntity
  8
0
100
AcDbCircle
 62
7
  6
CONTINUOUS
 10
3.9576245268
 20
5.377274005
 40
0.08019
100
AcDbArc
 50
1.6332152976
 51
38.6279712664
  0
ARC
  5
2AF
100
AcDbEntity
  8
0
100
AcDbCircle
 62
7
  6
CONTINUOUS
 10
4.0224418639
 20
5.4471803846
 40
0.08
100
AcDbArc
 50
4.666
 51
38.7351572411
  0
ARC
  5
2B0
100
AcDbEntity
  8
0
100
AcDbCircle
 62
7
  6
CONTINUOUS
 10
4.038051476
 20
5.2559273033
 40
0.08
100
AcDbArc
 50
333.4846119537
 51
4.666
  0
ARC
  5
2B1
100
AcDbEntity
  8
0
100
AcDbCircle
 62
7
  6
CONTINUOUS
 10
4.0715967574
 20
5.4643646206
 40
0.0625
100
AcDbArc
 50
143.2692107031
 51
188.473849805
  0
ARC
  5
2B2
100
AcDbEntity
  8
0
100
AcDbCircle
 62
7
  6
CONTINUOUS
 10
4.0565967574
 20
5.4563616379
 40
0.0465
100
AcDbArc
 50
188.1614865626
 51
218.6279712664
  0
ARC
  5
2B3
100
AcDbEntity
  8
0
100
AcDbCircle
 62
7
  6
CONTINUOUS
 10
4.1454292151
 20
5.2023547251
 40
0.04
100
AcDbArc
 50
153.4846119537
 51
238.1928775105
  0
ARC
  5
2B4
100
AcDbEntity
  8
0
100
AcDbCircle
 62
7
  6
CONTINUOUS
 10
4.1143467574
 20
5.5183616379
 40
0.035
100
AcDbArc
 50
90.0
 51
180.0
  0
ARC
  5
2B5
100
AcDbEntity
  8
0
100
AcDbCircle
 62
7
  6
CONTINUOUS
 10
4.1043467574
 20
5.5128811335
 40
0.025
100
AcDbArc
 50
180.0
 51
218.7351572411
  0
ARC
  5
2B6
100
AcDbEntity
  8
0
100
AcDbCircle
 62
7
  6
CONTINUOUS
 10
4.1220713103
 20
6.1540343556
 40
0.02
100
AcDbArc
 50
298.0607850299
 51
317.6330212193
  0
ARC
  5
2B7
100
AcDbEntity
  8
0
100
AcDbCircle
 62
7
  6
CONTINUOUS
 10
4.0823467574
 20
6.3283616379
 40
0.01
100
AcDbArc
 50
180.0
 51
270.0
  0
ARC
  5
2B8
100
AcDbEntity
  8
0
100
AcDbCircle
 62
7
  6
CONTINUOUS
 10
4.0823467574
 20
6.3683616379
 40
0.01
100
AcDbArc
 50
90.0
 51
180.0
  0
ARC
  5
2B9
100
AcDbEntity
  8
0
100
AcDbCircle
 62
7
  6
CONTINUOUS
 10
4.0205588678
 20
5.5067419196
 40
0.005
100
AcDbArc
 50
221.4015174661
 51
270.0
  0
ARC
  5
2BA
100
AcDbEntity
  8
0
100
AcDbCircle
 62
7
  6
CONTINUOUS
 10
4.5504124261
 20
2.1039222063
 40
0.4641055183
100
AcDbArc
 50
40.4664217599
 51
53.2765059904
  0
ARC
  5
2BB
100
AcDbEntity
  8
0
100
AcDbCircle
 62
7
  6
CONTINUOUS
 10
5.1347150804
 20
2.6506936491
 40
0.3286229872
100
AcDbArc
 50
190.3218264167
 51
203.9190855485
  0
ARC
  5
2BC
100
AcDbEntity
  8
0
100
AcDbCircle
 62
7
  6
CONTINUOUS
 10
4.7015317574
 20
3.0762382309
 40
0.05346
100
AcDbArc
 50
137.5497975858
 51
180.0
  0
ARC
  5
2BD
100
AcDbEntity
  8
0
100
AcDbCircle
 62
7
  6
CONTINUOUS
 10
4.7798546041
 20
2.5860568973
 40
0.032076
100
AcDbArc
 50
10.3359165502
 51
83.7497493524
  0
ARC
  5
2BE
100
AcDbEntity
  8
0
100
AcDbCircle
 62
7
  6
CONTINUOUS
 10
4.8147610293
 20
2.5087956379
 40
0.021384
100
AcDbArc
 50
307.6000045374
 51
23.8856909434
  0
ARC
  5
2BF
100
AcDbEntity
  8
0
100
AcDbCircle
 62
7
  6
CONTINUOUS
 10
4.8872326698
 20
2.3912456379
 40
0.021384
100
AcDbArc
 50
270.0
 51
40.4807323162
  0
ARC
  5
2C0
100
AcDbEntity
  8
0
100
AcDbCircle
 62
7
  6
CONTINUOUS
 10
4.6694557574
 20
2.9234254415
 40
0.021384
100
AcDbArc
 50
180.0
 51
246.0078468603
  0
ARC
  5
2C1
100
AcDbEntity
  8
0
100
AcDbCircle
 62
7
  6
CONTINUOUS
 10
4.6936836347
 20
2.84005965
 40
0.01782
100
AcDbArc
 50
152.0712614497
 51
214.6219444897
  0
ARC
  5
2C2
100
AcDbEntity
  8
0
100
AcDbCircle
 62
7
  6
CONTINUOUS
 10
4.8339098271
 20
2.4839304212
 40
0.01
100
AcDbArc
 50
127.6000045374
 51
233.2510683931
  0
ARC
  5
2C3
100
AcDbEntity
  8
0
100
AcDbCircle
 62
7
  6
CONTINUOUS
 10
4.497093147
 20
3.6740950992
 40
0.8962830482
100
AcDbArc
 50
359.4037121386
 51
359.7315749858
  0
ARC
  5
2C4
100
AcDbEntity
  8
0
100
AcDbCircle
 62
7
  6
CONTINUOUS
 10
5.0286606614
 20
3.5271116379
 40
0.59
100
AcDbArc
 50
70.1321580976
 51
84.5934547903
  0
ARC
  5
2C5
100
AcDbEntity
  8
0
100
AcDbCircle
 62
7
  6
CONTINUOUS
 10
5.0286606614
 20
3.9446116379
 40
0.59
100
AcDbArc
 50
275.4065452097
 51
289.8678419024
  0
ARC
  5
2C6
100
AcDbEntity
  8
0
100
AcDbCircle
 62
7
  6
CONTINUOUS
 10
4.792578968
 20
3.7689516923
 40
0.59
100
AcDbArc
 50
336.4367914604
 51
348.5844877167
  0
ARC
  5
2C7
100
AcDbEntity
  8
0
100
AcDbCircle
 62
7
  6
CONTINUOUS
 10
4.8628967574
 20
3.7366652362
 40
0.5342289826
100
AcDbArc
 50
354.7171881813
 51
5.2828505435
  0
ARC
  5
2C8
100
AcDbEntity
  8
0
100
AcDbCircle
 62
7
  6
CONTINUOUS
 10
4.8628967574
 20
3.7366602295
 40
0.5197400952
100
AcDbArc
 50
354.7169581662
 51
5.2830538374
  0
ARC
  5
2C9
100
AcDbEntity
  8
0
100
AcDbCircle
 62
7
  6
CONTINUOUS
 10
4.9143423114
 20
3.7093003229
 40
0.5075
100
AcDbArc
 50
25.3574363857
 51
34.3370438843
  0
ARC
  5
2CA
100
AcDbEntity
  8
0
100
AcDbCircle
 62
7
  6
CONTINUOUS
 10
5.0180290575
 20
3.7234281821
 40
0.36
100
AcDbArc
 50
348.5845155216
 51
0.4219811442
  0
ARC
  5
2CB
100
AcDbEntity
  8
0
100
AcDbCircle
 62
7
  6
CONTINUOUS
 10
5.1586568433
 20
4.0601052909
 40
0.2535
100
AcDbArc
 50
348.4305259944
 51
16.7370669403
  0
ARC
  5
2CC
100
AcDbEntity
  8
0
100
AcDbCircle
 62
7
  6
CONTINUOUS
 10
5.0903760984
 20
3.2925255969
 40
0.065
100
AcDbArc
 50
95.4065452097
 51
134.1303391118
  0
ARC
  5
2CD
100
AcDbEntity
  8
0
100
AcDbCircle
 62
7
  6
CONTINUOUS
 10
5.0903760984
 20
4.1791976789
 40
0.065
100
AcDbArc
 50
225.8696608882
 51
264.5934547903
  0
ARC
  5
2CE
100
AcDbEntity
  8
0
100
AcDbCircle
 62
7
  6
CONTINUOUS
 10
5.0301467574
 20
4.1171116379
 40
0.0215
100
AcDbArc
 50
45.8696608882
 51
180.0
  0
ARC
  5
2CF
100
AcDbEntity
  8
0
100
AcDbCircle
 62
7
  6
CONTINUOUS
 10
5.0301467574
 20
3.3546116379
 40
0.0215
100
AcDbArc
 50
180.0
 51
314.1303391118
  0
ARC
  5
2D0
100
AcDbEntity
  8
0
100
AcDbCircle
 62
7
  6
CONTINUOUS
 10
4.6600975301
 20
3.2036924144
 40
0.021384
100
AcDbArc
 50
183.099229418
 51
244.4544335609
  0
ARC
  5
2D1
100
AcDbEntity
  8
0
100
AcDbCircle
 62
7
  6
CONTINUOUS
 10
5.4641467574
 20
3.7365994343
 40
0.32
100
AcDbArc
 50
339.6358654354
 51
20.3641345591
  0
ARC
  5
2D2
100
AcDbEntity
  8
0
100
AcDbCircle
 62
7
  6
CONTINUOUS
 10
5.9196366715
 20
4.0601052909
 40
0.2535
100
AcDbArc
 50
163.2629330597
 51
191.5694740056
  0
ARC
  5
2D3
100
AcDbEntity
  8
0
100
AcDbCircle
 62
7
  6
CONTINUOUS
 10
5.5391467574
 20
3.7365994343
 40
0.2175
100
AcDbArc
 50
117.3722632144
 51
133.0143561528
  0
ARC
  5
2D4
100
AcDbEntity
  8
0
100
AcDbCircle
 62
7
  6
CONTINUOUS
 10
5.5391467574
 20
3.7365994343
 40
0.2175
100
AcDbArc
 50
36.4593894586
 51
62.6277367856
  0
ARC
  5
2D5
100
AcDbEntity
  8
0
100
AcDbCircle
 62
7
  6
CONTINUOUS
 10
5.5391467574
 20
3.7365994343
 40
0.2175
100
AcDbArc
 50
226.9856438472
 51
323.5406105414
  0
ARC
  5
2D6
100
AcDbEntity
  8
0
100
AcDbCircle
 62
7
  6
CONTINUOUS
 10
5.2512635551
 20
3.3285978785
 40
0.065
100
AcDbArc
 50
62.8905419182
 51
109.8678419024
  0
ARC
  5
2D7
100
AcDbEntity
  8
0
100
AcDbCircle
 62
7
  6
CONTINUOUS
 10
5.2512635551
 20
4.1431253972
 40
0.065
100
AcDbArc
 50
250.1321580976
 51
297.1094580818
  0
ARC
  5
2D8
100
AcDbEntity
  8
0
100
AcDbCircle
 62
7
  6
CONTINUOUS
 10
5.2918843455
 20
4.0498969745
 40
0.0415
100
AcDbArc
 50
0.0
 51
40.4218109117
  0
ARC
  5
2D9
100
AcDbEntity
  8
0
100
AcDbCircle
 62
7
  6
CONTINUOUS
 10
5.2918843455
 20
3.4218263013
 40
0.0415
100
AcDbArc
 50
319.5781890883
 51
360.0
  0
ARC
  5
2DA
100
AcDbEntity
  8
0
100
AcDbCircle
 62
7
  6
CONTINUOUS
 10
5.2968327404
 20
4.0541116379
 40
0.035
100
AcDbArc
 50
40.4218109117
 51
117.1094580818
  0
ARC
  5
2DB
100
AcDbEntity
  8
0
100
AcDbCircle
 62
7
  6
CONTINUOUS
 10
5.2968327404
 20
3.4176116379
 40
0.035
100
AcDbArc
 50
242.8905419182
 51
319.5781890883
  0
ARC
  5
2DC
100
AcDbEntity
  8
0
100
AcDbCircle
 62
7
  6
CONTINUOUS
 10
5.6418967574
 20
4.0032476664
 40
0.03
100
AcDbArc
 50
290.1817976482
 51
11.5694740056
  0
ARC
  5
2DD
100
AcDbEntity
  8
0
100
AcDbCircle
 62
7
  6
CONTINUOUS
 10
5.6481467574
 20
4.1417476524
 40
0.03
100
AcDbArc
 50
343.2629330597
 51
66.8192822907
  0
ARC
  5
2DE
100
AcDbEntity
  8
0
100
AcDbCircle
 62
7
  6
CONTINUOUS
 10
5.4363967574
 20
4.0032476664
 40
0.03
100
AcDbArc
 50
168.4305259944
 51
249.8182023518
  0
ARC
  5
2DF
100
AcDbEntity
  8
0
100
AcDbCircle
 62
7
  6
CONTINUOUS
 10
5.4301467574
 20
4.1417476524
 40
0.03
100
AcDbArc
 50
113.1807177093
 51
196.7370669403
  0
ARC
  5
2E0
100
AcDbEntity
  8
0
100
AcDbCircle
 62
7
  6
CONTINUOUS
 10
5.7401777172
 20
3.8408494343
 40
0.025
100
AcDbArc
 50
16.5117182468
 51
90.0
  0
ARC
  5
2E1
100
AcDbEntity
  8
0
100
AcDbCircle
 62
7
  6
CONTINUOUS
 10
5.7401777172
 20
3.6323494343
 40
0.025
100
AcDbArc
 50
270.0
 51
343.4882816836
  0
ARC
  5
2E2
100
AcDbEntity
  8
0
100
AcDbCircle
 62
7
  6
CONTINUOUS
 10
5.6591467574
 20
3.9563175369
 40
0.02
100
AcDbArc
 50
110.1817976482
 51
180.0
  0
ARC
  5
2E3
100
AcDbEntity
  8
0
100
AcDbCircle
 62
7
  6
CONTINUOUS
 10
5.4191467574
 20
3.9563175369
 40
0.02
100
AcDbArc
 50
0.0
 51
69.8182023518
  0
ARC
  5
2E4
100
AcDbEntity
  8
0
100
AcDbCircle
 62
7
  6
CONTINUOUS
 10
5.6678283838
 20
4.1877110416
 40
0.02
100
AcDbArc
 50
174.0270046788
 51
246.8192822907
  0
ARC
  5
2E5
100
AcDbEntity
  8
0
100
AcDbCircle
 62
7
  6
CONTINUOUS
 10
5.410465131
 20
4.1877110416
 40
0.02
100
AcDbArc
 50
293.1807177093
 51
5.9729953212
  0
ARC
  5
2E6
100
AcDbEntity
  8
0
100
AcDbCircle
 62
7
  6
CONTINUOUS
 10
5.3829873626
 20
3.6243750989
 40
0.0155558751
100
AcDbArc
 50
59.9666020565
 51
65.072971921
  0
ARC
  5
2E7
100
AcDbEntity
  8
0
100
AcDbCircle
 62
7
  6
CONTINUOUS
 10
5.3805395382
 20
3.5665994343
 40
0.015
100
AcDbArc
 50
46.9856438472
 51
90.0
  0
ARC
  5
2E8
100
AcDbEntity
  8
0
100
AcDbCircle
 62
7
  6
CONTINUOUS
 10
5.3805395382
 20
3.9065994343
 40
0.015
100
AcDbArc
 50
270.0
 51
313.0143561528
  0
ARC
  5
2E9
100
AcDbEntity
  8
0
100
AcDbCircle
 62
7
  6
CONTINUOUS
 10
5.3639100216
 20
3.9223616379
 40
0.01
100
AcDbArc
 50
0.0
 51
25.3574363857
  0
ARC
  5
2EA
100
AcDbEntity
  8
0
100
AcDbCircle
 62
7
  6
CONTINUOUS
 10
30.9721190764
 20
4.6275673552
 40
26.3719311711
100
AcDbArc
 50
178.3659968844
 51
180.7888004271
  0
ARC
  5
2EB
100
AcDbEntity
  8
0
100
AcDbCircle
 62
7
  6
CONTINUOUS
 10
20.7218864492
 20
5.7897103224
 40
15.375
100
AcDbArc
 50
183.0835288988
 51
185.9729953212
  0
ARC
  5
2EC
100
AcDbEntity
  8
0
100
AcDbCircle
 62
7
  6
CONTINUOUS
 10
5.5738377685
 20
4.8822475706
 40
0.25
100
AcDbArc
 50
65.8167903987
 51
90.0
  0
ARC
  5
2ED
100
AcDbEntity
  8
0
100
AcDbCircle
 62
7
  6
CONTINUOUS
 10
5.5044557463
 20
4.882247584
 40
0.25
100
AcDbArc
 50
90.0
 51
114.1832058733
  0
ARC
  5
2EE
100
AcDbEntity
  8
0
100
AcDbCircle
 62
7
  6
CONTINUOUS
 10
5.7940236923
 20
4.9580897675
 40
0.085
100
AcDbArc
 50
128.6836852001
 51
176.9164711012
  0
ARC
  5
2EF
100
AcDbEntity
  8
0
100
AcDbCircle
 62
7
  6
CONTINUOUS
 10
5.2842698226
 20
4.9580897675
 40
0.085
100
AcDbArc
 50
3.0835288988
 51
51.3163147999
  0
ARC
  5
2F0
100
AcDbEntity
  8
0
100
AcDbCircle
 62
7
  6
CONTINUOUS
 10
4.691068988
 20
5.377274005
 40
0.08019
100
AcDbArc
 50
141.3720287336
 51
178.3667847024
  0
ARC
  5
2F1
100
AcDbEntity
  8
0
100
AcDbCircle
 62
7
  6
CONTINUOUS
 10
4.6106420389
 20
5.2559273033
 40
0.08
100
AcDbArc
 50
175.334
 51
206.5153880463
  0
ARC
  5
2F2
100
AcDbEntity
  8
0
100
AcDbCircle
 62
7
  6
CONTINUOUS
 10
4.626251651
 20
5.4471803846
 40
0.08
100
AcDbArc
 50
141.2648427589
 51
175.334
  0
ARC
  5
2F3
100
AcDbEntity
  8
0
100
AcDbCircle
 62
7
  6
CONTINUOUS
 10
4.5770967574
 20
5.4643646206
 40
0.0625
100
AcDbArc
 50
351.526150195
 51
36.7307892969
  0
ARC
  5
2F4
100
AcDbEntity
  8
0
100
AcDbCircle
 62
7
  6
CONTINUOUS
 10
4.5920967574
 20
5.4563616379
 40
0.0465
100
AcDbArc
 50
321.3720287336
 51
351.8385134373
  0
ARC
  5
2F5
100
AcDbEntity
  8
0
100
AcDbCircle
 62
7
  6
CONTINUOUS
 10
5.7116467574
 20
5.0501778966
 40
0.04
100
AcDbArc
 50
3.9559082092
 51
65.1062384233
  0
ARC
  5
2F6
100
AcDbEntity
  8
0
100
AcDbCircle
 62
7
  6
CONTINUOUS
 10
5.3666467574
 20
5.0501778966
 40
0.04
100
AcDbArc
 50
114.8937615767
 51
176.0440917908
  0
ARC
  5
2F7
100
AcDbEntity
  8
0
100
AcDbCircle
 62
7
  6
CONTINUOUS
 10
4.5032642997
 20
5.2023547251
 40
0.04
100
AcDbArc
 50
301.8071224895
 51
26.5153880463
  0
ARC
  5
2F8
100
AcDbEntity
  8
0
100
AcDbCircle
 62
7
  6
CONTINUOUS
 10
4.5343467574
 20
5.5183616379
 40
0.035
100
AcDbArc
 50
0.0
 51
90.0
  0
ARC
  5
2F9
100
AcDbEntity
  8
0
100
AcDbCircle
 62
7
  6
CONTINUOUS
 10
4.5443467574
 20
5.5128811335
 40
0.025
100
AcDbArc
 50
321.2648427589
 51
360.0
  0
ARC
  5
2FA
100
AcDbEntity
  8
0
100
AcDbCircle
 62
7
  6
CONTINUOUS
 10
4.5266222045
 20
6.1540343556
 40
0.02
100
AcDbArc
 50
222.3669787807
 51
241.9392149701
  0
ARC
  5
2FB
100
AcDbEntity
  8
0
100
AcDbCircle
 62
7
  6
CONTINUOUS
 10
4.5663467574
 20
6.3283616379
 40
0.01
100
AcDbArc
 50
270.0
 51
360.0
  0
ARC
  5
2FC
100
AcDbEntity
  8
0
100
AcDbCircle
 62
7
  6
CONTINUOUS
 10
4.5663467574
 20
6.3683616379
 40
0.01
100
AcDbArc
 50
0.0
 51
90.0
  0
ARC
  5
2FD
100
AcDbEntity
  8
0
100
AcDbCircle
 62
7
  6
CONTINUOUS
 10
5.3367182344
 20
5.05224756
 40
0.01
100
AcDbArc
 50
176.0440917908
 51
270.0
  0
ARC
  5
2FE
100
AcDbEntity
  8
0
100
AcDbCircle
 62
7
  6
CONTINUOUS
 10
5.7415752805
 20
5.05224756
 40
0.01
100
AcDbArc
 50
270.0
 51
3.9559082092
  0
ARC
  5
2FF
100
AcDbEntity
  8
0
100
AcDbCircle
 62
7
  6
CONTINUOUS
 10
5.7346467574
 20
5.0322475621
 40
0.01
100
AcDbArc
 50
308.6836852001
 51
86.8596370681
  0
ARC
  5
300
100
AcDbEntity
  8
0
100
AcDbCircle
 62
7
  6
CONTINUOUS
 10
5.3436467574
 20
5.0322475621
 40
0.01
100
AcDbArc
 50
93.1403629319
 51
231.3163147999
  0
ARC
  5
301
100
AcDbEntity
  8
0
100
AcDbCircle
 62
7
  6
CONTINUOUS
 10
4.6281346471
 20
5.5067419196
 40
0.005
100
AcDbArc
 50
270.0
 51
318.5984825339
  0
SPLINE
  5
302
100
AcDbEntity
  8
0
100
AcDbSpline
 62
7
  6
CONTINUOUS
 70
0
 71
3
 72
34
 73
30
 74
0
 42
0.0000001
 43
0.0000001
 44
0.0000000001
 40
0.0
 40
0.0
 40
0.0
 40
0.0
 40
0.0285711003
 40
0.0574556478
 40
0.0868353196
 40
0.1168243287
 40
0.1474783135
 40
0.1788040328
 40
0.2107686049
 40
0.2433076892
 40
0.2763324529
 40
0.3097354021
 40
0.343395265
 40
0.3771811443
 40
0.4109561592
 40
0.4445807832
 40
0.47791608
 40
0.5108270372
 40
0.5432263382
 40
0.5751862117
 40
0.6068018619
 40
0.6381496662
 40
0.6692876806
 40
0.7002565665
 40
0.7617613842
 40
0.8227057963
 40
0.8829335293
 40
0.9421555085
 40
1.0
 40
1.0
 40
1.0
 40
1.0
 10
4.6352424804
 20
3.2687561088
 30
0.0
 10
4.635127504
 20
3.2709832611
 30
0.0
 10
4.635169386
 20
3.2754800819
 30
0.0
 10
4.635999955
 20
3.28221955
 30
0.0
 10
4.6375496711
 20
3.2889433827
 30
0.0
 10
4.6397712196
 20
3.2956196638
 30
0.0
 10
4.6426181141
 20
3.3022184283
 30
0.0
 10
4.6460446388
 20
3.3087091791
 30
0.0
 10
4.6500055581
 20
3.3150613128
 30
0.0
 10
4.6544559297
 20
3.3212439233
 30
0.0
 10
4.659350965
 20
3.3272258728
 30
0.0
 10
4.6646459473
 20
3.3329758277
 30
0.0
 10
4.6702961868
 20
3.3384623116
 30
0.0
 10
4.6762570025
 20
3.3436537502
 30
0.0
 10
4.6824837198
 20
3.3485184975
 30
0.0
 10
4.6889316821
 20
3.3530248969
 30
0.0
 10
4.6955562635
 20
3.3571411702
 30
0.0
 10
4.7023156719
 20
3.3608374009
 30
0.0
 10
4.7091817763
 20
3.3640878538
 30
0.0
 10
4.716124641
 20
3.3669112669
 30
0.0
 10
4.7231290762
 20
3.3693367388
 30
0.0
 10
4.7301829377
 20
3.3713944455
 30
0.0
 10
4.7372742839
 20
3.3731146323
 30
0.0
 10
4.7467403925
 20
3.3749939629
 30
0.0
 10
4.7586102443
 20
3.376655106
 30
0.0
 10
4.772830329
 20
3.3777826235
 30
0.0
 10
4.7869051468
 20
3.3782816712
 30
0.0
 10
4.8007441403
 20
3.3783909726
 30
0.0
 10
4.8098817038
 20
3.3783616379
 30
0.0
 10
4.8143967574
 20
3.3783616379
 30
0.0
  0
SPLINE
  5
303
100
AcDbEntity
  8
0
100
AcDbSpline
 62
7
  6
CONTINUOUS
 70
0
 71
3
 72
35
 73
31
 74
0
 42
0.0000001
 43
0.0000001
 44
0.0000000001
 40
0.0
 40
0.0
 40
0.0
 40
0.0
 40
0.058846128
 40
0.0893527461
 40
0.1205409293
 40
0.1523602596
 40
0.1847415501
 40
0.2176010494
 40
0.2508439636
 40
0.2843674399
 40
0.318063147
 40
0.3518195791
 40
0.3855241989
 40
0.4190655266
 40
0.4523352811
 40
0.4852306794
 40
0.5176570096
 40
0.5495597663
 40
0.5810049187
 40
0.6120775739
 40
0.642850952
 40
0.6733862034
 40
0.7037324833
 40
0.7339272494
 40
0.7639967376
 40
0.8238014979
 40
0.8831708927
 40
0.9126612148
 40
0.9419862517
 40
1.0
 40
1.0
 40
1.0
 40
1.0
 10
4.6026869148
 20
4.2645121055
 30
0.0
 10
4.6027683586
 20
4.2586005566
 30
0.0
 10
4.6036821038
 20
4.2496212979
 30
0.0
 10
4.6061792796
 20
4.2377667284
 30
0.0
 10
4.6087196955
 20
4.2287139238
 30
0.0
 10
4.61186981
 20
4.2196574246
 30
0.0
 10
4.6155956858
 20
4.2106404529
 30
0.0
 10
4.6198631639
 20
4.201708646
 30
0.0
 10
4.624638233
 20
4.1929071413
 30
0.0
 10
4.6298868868
 20
4.1842813406
 30
0.0
 10
4.6355751423
 20
4.1758766643
 30
0.0
 10
4.6416690279
 20
4.1677385893
 30
0.0
 10
4.6481345902
 20
4.1599126116
 30
0.0
 10
4.6549379041
 20
4.152444246
 30
0.0
 10
4.6620450872
 20
4.1453789805
 30
0.0
 10
4.6694223319
 20
4.1387624024
 30
0.0
 10
4.677038184
 20
4.1326378947
 30
0.0
 10
4.6848729305
 20
4.1270429168
 30
0.0
 10
4.692893778
 20
4.1219689492
 30
0.0
 10
4.701079974
 20
4.1173952936
 30
0.0
 10
4.7094133745
 20
4.1132997419
 30
0.0
 10
4.7178759052
 20
4.109659959
 30
0.0
 10
4.726449519
 20
4.1064536229
 30
0.0
 10
4.735116409
 20
4.1036583868
 30
0.0
 10
4.7467498368
 20
4.1004560034
 30
0.0
 10
4.7614380954
 20
4.0973636872
 30
0.0
 10
4.7762471035
 20
4.0953367491
 30
0.0
 10
4.7880744868
 20
4.0942730776
 30
0.0
 10
4.799791256
 20
4.0935551162
 30
0.0
 10
4.8085682745
 20
4.0933616379
 30
0.0
 10
4.8143967574
 20
4.0933616379
 30
0.0
  0
SPLINE
  5
304
100
AcDbEntity
  8
0
100
AcDbSpline
 62
7
  6
CONTINUOUS
 70
0
 71
3
 72
25
 73
21
 74
0
 42
0.0000001
 43
0.0000001
 44
0.0000000001
 40
0.0
 40
0.0
 40
0.0
 40
0.0
 40
0.0287394605
 40
0.057500998
 40
0.0863791536
 40
0.1154493093
 40
0.1743460337
 40
0.2344970767
 40
0.2959583289
 40
0.3586282344
 40
0.4222966165
 40
0.4866867035
 40
0.5514916316
 40
0.6164076501
 40
0.7453980286
 40
0.8093489324
 40
0.8728988707
 40
0.9362833236
 40
0.9680662923
 40
1.0
 40
1.0
 40
1.0
 40
1.0
 10
3.9978173808
 20
3.1843988582
 30
0.0
 10
3.9971036579
 20
3.1840577328
 30
0.0
 10
3.9957029756
 20
3.1833164209
 30
0.0
 10
3.9936942549
 20
3.1820402397
 30
0.0
 10
3.9917809659
 20
3.1806096404
 30
0.0
 10
3.9893501251
 20
3.1785001851
 30
0.0
 10
3.9865572731
 20
3.1755120335
 30
0.0
 10
3.983639924
 20
3.1714760846
 30
0.0
 10
3.9811521806
 20
3.1670438669
 30
0.0
 10
3.979108146
 20
3.1622862376
 30
0.0
 10
3.9775221148
 20
3.1572730251
 30
0.0
 10
3.9764092499
 20
3.1520745384
 30
0.0
 10
3.9757852867
 20
3.1467594992
 30
0.0
 10
3.9756265915
 20
3.1396331113
 30
0.0
 10
3.976505966
 20
3.1325297575
 30
0.0
 10
3.9785072229
 20
3.125746252
 30
0.0
 10
3.9805800283
 20
3.1209039384
 30
0.0
 10
3.9828025814
 20
3.1171266387
 30
0.0
 10
3.9848772526
 20
3.1143069088
 30
0.0
 10
3.9860147153
 20
3.1129695781
 30
0.0
 10
3.9866079794
 20
3.1123210131
 30
0.0
  0
SPLINE
  5
305
100
AcDbEntity
  8
0
100
AcDbSpline
 62
7
  6
CONTINUOUS
 70
0
 71
3
 72
24
 73
20
 74
0
 42
0.0000001
 43
0.0000001
 44
0.0000000001
 40
0.0
 40
0.0
 40
0.0
 40
0.0
 40
0.0608402143
 40
0.1216576916
 40
0.1826247875
 40
0.243834928
 40
0.3053228111
 40
0.3670849157
 40
0.4290997112
 40
0.4913474145
 40
0.5538293507
 40
0.6165869528
 40
0.679720213
 40
0.7434049998
 40
0.7755394685
 40
0.807838803
 40
0.8725981752
 40
0.9369514457
 40
1.0
 40
1.0
 40
1.0
 40
1.0
 10
3.9879327383
 20
2.9038889944
 30
0.0
 10
3.9867254762
 20
2.9033516848
 30
0.0
 10
3.9843727275
 20
2.9021335139
 30
0.0
 10
3.9810733167
 20
2.8999179233
 30
0.0
 10
3.9780282017
 20
2.8973516434
 30
0.0
 10
3.9752592347
 20
2.8944702087
 30
0.0
 10
3.972787538
 20
2.8913084579
 30
0.0
 10
3.9706346386
 20
2.8879010855
 30
0.0
 10
3.9688222113
 20
2.8842825948
 30
0.0
 10
3.9673721743
 20
2.8804873802
 30
0.0
 10
3.9663067013
 20
2.8765498154
 30
0.0
 10
3.9656482135
 20
2.8725041686
 30
0.0
 10
3.9654195362
 20
2.8683852734
 30
0.0
 10
3.9656054884
 20
2.8649300711
 30
0.0
 10
3.965989495
 20
2.8621727453
 30
0.0
 10
3.9665257983
 20
2.8594172611
 30
0.0
 10
3.9674548573
 20
2.8560306033
 30
0.0
 10
3.9689217897
 20
2.8521179689
 30
0.0
 10
3.9701130107
 20
2.8496159618
 30
0.0
 10
3.9707543992
 20
2.8484060575
 30
0.0
  0
SPLINE
  5
306
100
AcDbEntity
  8
0
100
AcDbSpline
 62
7
  6
CONTINUOUS
 70
0
 71
3
 72
15
 73
11
 74
0
 42
0.0000001
 43
0.0000001
 44
0.0000000001
 40
0.0
 40
0.0
 40
0.0
 40
0.0
 40
0.1254679861
 40
0.2504639961
 40
0.3751563112
 40
0.4997144431
 40
0.6243084515
 40
0.7491082493
 40
0.8742829113
 40
1.0
 40
1.0
 40
1.0
 40
1.0
 10
3.9696742935
 20
2.8299350572
 30
0.0
 10
3.964039913
 20
2.8217742464
 30
0.0
 10
3.9530859705
 20
2.8052782492
 30
0.0
 10
3.9375943275
 20
2.7799872788
 30
0.0
 10
3.9230792297
 20
2.7542054618
 30
0.0
 10
3.9095410631
 20
2.727933339
 30
0.0
 10
3.896979842
 20
2.701170977
 30
0.0
 10
3.8853956038
 20
2.6739184317
 30
0.0
 10
3.8747885327
 20
2.6461763364
 30
0.0
 10
3.8683848752
 20
2.6274029842
 30
0.0
 10
3.8653467574
 20
2.6179422331
 30
0.0
  0
SPLINE
  5
307
100
AcDbEntity
  8
0
100
AcDbSpline
 62
7
  6
CONTINUOUS
 70
0
 71
3
 72
25
 73
21
 74
0
 42
0.0000001
 43
0.0000001
 44
0.0000000001
 40
0.0
 40
0.0
 40
0.0
 40
0.0
 40
0.0287394605
 40
0.057500998
 40
0.0863791536
 40
0.1154493093
 40
0.1743460337
 40
0.2344970767
 40
0.2959583289
 40
0.3586282344
 40
0.4222966165
 40
0.4866867035
 40
0.5514916316
 40
0.6164076501
 40
0.7453980286
 40
0.8093489324
 40
0.8728988707
 40
0.9362833236
 40
0.9680662923
 40
1.0
 40
1.0
 40
1.0
 40
1.0
 10
4.650876134
 20
3.1843988582
 30
0.0
 10
4.651589857
 20
3.1840577328
 30
0.0
 10
4.6529905393
 20
3.1833164209
 30
0.0
 10
4.65499926
 20
3.1820402397
 30
0.0
 10
4.6569125489
 20
3.1806096404
 30
0.0
 10
4.6593433898
 20
3.1785001851
 30
0.0
 10
4.6621362417
 20
3.1755120335
 30
0.0
 10
4.6650535909
 20
3.1714760846
 30
0.0
 10
4.6675413343
 20
3.1670438669
 30
0.0
 10
4.6695853689
 20
3.1622862376
 30
0.0
 10
4.6711714001
 20
3.1572730251
 30
0.0
 10
4.672284265
 20
3.1520745384
 30
0.0
 10
4.6729082282
 20
3.1467594992
 30
0.0
 10
4.6730669233
 20
3.1396331113
 30
0.0
 10
4.6721875489
 20
3.1325297575
 30
0.0
 10
4.6701862919
 20
3.125746252
 30
0.0
 10
4.6681134865
 20
3.1209039384
 30
0.0
 10
4.6658909334
 20
3.1171266387
 30
0.0
 10
4.6638162623
 20
3.1143069088
 30
0.0
 10
4.6626787996
 20
3.1129695781
 30
0.0
 10
4.6620855354
 20
3.1123210131
 30
0.0
  0
SPLINE
  5
308
100
AcDbEntity
  8
0
100
AcDbSpline
 62
7
  6
CONTINUOUS
 70
0
 71
3
 72
24
 73
20
 74
0
 42
0.0000001
 43
0.0000001
 44
0.0000000001
 40
0.0
 40
0.0
 40
0.0
 40
0.0
 40
0.0608402143
 40
0.1216576916
 40
0.1826247875
 40
0.243834928
 40
0.3053228111
 40
0.3670849157
 40
0.4290997112
 40
0.4913474145
 40
0.5538293507
 40
0.6165869528
 40
0.679720213
 40
0.7434049998
 40
0.7755394685
 40
0.807838803
 40
0.8725981752
 40
0.9369514457
 40
1.0
 40
1.0
 40
1.0
 40
1.0
 10
4.6607607766
 20
2.9038889944
 30
0.0
 10
4.6619680387
 20
2.9033516848
 30
0.0
 10
4.6643207873
 20
2.9021335139
 30
0.0
 10
4.6676201982
 20
2.8999179233
 30
0.0
 10
4.6706653132
 20
2.8973516434
 30
0.0
 10
4.6734342801
 20
2.8944702087
 30
0.0
 10
4.6759059768
 20
2.8913084579
 30
0.0
 10
4.6780588762
 20
2.8879010855
 30
0.0
 10
4.6798713036
 20
2.8842825948
 30
0.0
 10
4.6813213405
 20
2.8804873802
 30
0.0
 10
4.6823868136
 20
2.8765498154
 30
0.0
 10
4.6830453013
 20
2.8725041686
 30
0.0
 10
4.6832739787
 20
2.8683852734
 30
0.0
 10
4.6830880264
 20
2.8649300711
 30
0.0
 10
4.6827040199
 20
2.8621727453
 30
0.0
 10
4.6821677166
 20
2.8594172611
 30
0.0
 10
4.6812386576
 20
2.8560306033
 30
0.0
 10
4.6797717252
 20
2.8521179689
 30
0.0
 10
4.6785805042
 20
2.8496159618
 30
0.0
 10
4.6779391156
 20
2.8484060575
 30
0.0
  0
SPLINE
  5
309
100
AcDbEntity
  8
0
100
AcDbSpline
 62
7
  6
CONTINUOUS
 70
0
 71
3
 72
15
 73
11
 74
0
 42
0.0000001
 43
0.0000001
 44
0.0000000001
 40
0.0
 40
0.0
 40
0.0
 40
0.0
 40
0.1254679861
 40
0.2504639961
 40
0.3751563112
 40
0.4997144431
 40
0.6243084515
 40
0.7491082493
 40
0.8742829113
 40
1.0
 40
1.0
 40
1.0
 40
1.0
 10
4.6790192213
 20
2.8299350572
 30
0.0
 10
4.6846536019
 20
2.8217742464
 30
0.0
 10
4.6956075444
 20
2.8052782492
 30
0.0
 10
4.7110991874
 20
2.7799872788
 30
0.0
 10
4.7256142852
 20
2.7542054618
 30
0.0
 10
4.7391524518
 20
2.727933339
 30
0.0
 10
4.7517136728
 20
2.701170977
 30
0.0
 10
4.7632979111
 20
2.6739184317
 30
0.0
 10
4.7739049822
 20
2.6461763364
 30
0.0
 10
4.7803086396
 20
2.6274029842
 30
0.0
 10
4.7833467574
 20
2.6179422331
 30
0.0
  0
SPLINE
  5
30A
100
AcDbEntity
  8
0
100
AcDbSpline
 62
7
  6
CONTINUOUS
 70
0
 71
3
 72
32
 73
28
 74
0
 42
0.0000001
 43
0.0000001
 44
0.0000000001
 40
0.0
 40
0.0
 40
0.0
 40
0.0
 40
0.0235223357
 40
0.0482092334
 40
0.074048402
 40
0.1009993188
 40
0.1290004639
 40
0.1579748246
 40
0.1878340855
 40
0.2184818568
 40
0.2498162129
 40
0.2817317472
 40
0.3141212996
 40
0.3468774732
 40
0.3798940358
 40
0.4130672801
 40
0.4462974106
 40
0.479490016
 40
0.5125774286
 40
0.5455727432
 40
0.6113685006
 40
0.6770081928
 40
0.7424966165
 40
0.8077434398
 40
0.8725777388
 40
0.9367612586
 40
1.0
 40
1.0
 40
1.0
 40
1.0
 10
4.5196712466
 20
4.2133870659
 30
0.0
 10
4.5203821787
 20
4.210667879
 30
0.0
 10
4.5221014308
 20
4.2051611815
 30
0.0
 10
4.5254097409
 20
4.1969469222
 30
0.0
 10
4.5294710307
 20
4.1886200669
 30
0.0
 10
4.5342467201
 20
4.1802240885
 30
0.0
 10
4.5396987293
 20
4.1718016437
 30
0.0
 10
4.5457889135
 20
4.1633961274
 30
0.0
 10
4.5524791255
 20
4.1550510784
 30
0.0
 10
4.5597311602
 20
4.1468102357
 30
0.0
 10
4.5675067625
 20
4.1387174416
 30
0.0
 10
4.5757676318
 20
4.130816613
 30
0.0
 10
4.5844754343
 20
4.1231517116
 30
0.0
 10
4.5935918151
 20
4.1157667252
 30
0.0
 10
4.6030784119
 20
4.1087056608
 30
0.0
 10
4.6128968681
 20
4.1020125209
 30
0.0
 10
4.6230088517
 20
4.0957313664
 30
0.0
 10
4.63337811
 20
4.0899049201
 30
0.0
 10
4.6439785143
 20
4.0845721416
 30
0.0
 10
4.6583579429
 20
4.0781171478
 30
0.0
 10
4.6767792499
 20
4.0712172587
 30
0.0
 10
4.6994084102
 20
4.0646945868
 30
0.0
 10
4.7223754707
 20
4.0598036813
 30
0.0
 10
4.7455110519
 20
4.0564153339
 30
0.0
 10
4.7686475866
 20
4.0544007318
 30
0.0
 10
4.791616264
 20
4.0536320861
 30
0.0
 10
4.8068461468
 20
4.0538677048
 30
0.0
 10
4.8143967574
 20
4.0541566729
 30
0.0
  0
SPLINE
  5
30B
100
AcDbEntity
  8
0
100
AcDbSpline
 62
7
  6
CONTINUOUS
 70
0
 71
3
 72
13
 73
9
 74
0
 42
0.0000001
 43
0.0000001
 44
0.0000000001
 40
0.0
 40
0.0
 40
0.0
 40
0.0
 40
0.2764767021
 40
0.4083626475
 40
0.535842645
 40
0.6588370095
 40
0.777265954
 40
1.0
 40
1.0
 40
1.0
 40
1.0
 10
4.5712510202
 20
3.2959785318
 30
0.0
 10
4.5738424474
 20
3.2945350802
 30
0.0
 10
4.577692558
 20
3.2924429548
 30
0.0
 10
4.5827923064
 20
3.2897886333
 30
0.0
 10
4.5864541245
 20
3.2879389926
 30
0.0
 10
4.5900084464
 20
3.2861974027
 30
0.0
 10
4.5945066916
 20
3.2840605275
 30
0.0
 10
4.5978419514
 20
3.2825510787
 30
0.0
 10
4.600033767
 20
3.2815988831
 30
0.0
  0
SPLINE
  5
30C
100
AcDbEntity
  8
0
100
AcDbSpline
 62
7
  6
CONTINUOUS
 70
0
 71
3
 72
42
 73
38
 74
0
 42
0.0000001
 43
0.0000001
 44
0.0000000001
 40
0.0
 40
0.0
 40
0.0
 40
0.0
 40
0.1202559163
 40
0.233071429
 40
0.3383011534
 40
0.4358768048
 40
0.5257580747
 40
0.6079119932
 40
0.6823107403
 40
0.7489271032
 40
0.807738337
 40
0.834209752
 40
0.858722075
 40
0.881273464
 40
0.9018619871
 40
0.9204856847
 40
0.9371449382
 40
0.9518431674
 40
0.9645838722
 40
0.9702212195
 40
0.97537046
 40
0.9800320098
 40
0.9842059384
 40
0.9878918739
 40
0.9910894175
 40
0.9937981731
 40
0.9960177505
 40
0.9969439795
 40
0.9977477748
 40
0.9984290949
 40
0.9989879049
 40
0.9994241832
 40
0.9997379426
 40
0.9998489148
 40
0.9999293421
 40
0.9999793899
 40
1.0
 40
1.0
 40
1.0
 40
1.0
 10
4.600033767
 20
3.2815988831
 30
0.0
 10
4.6014128212
 20
3.2810004394
 30
0.0
 10
4.6040926957
 20
3.2798568241
 30
0.0
 10
4.6080033584
 20
3.2782466503
 30
0.0
 10
4.611671437
 20
3.2767929021
 30
0.0
 10
4.6150898245
 20
3.27548814
 30
0.0
 10
4.6182525324
 20
3.2743231635
 30
0.0
 10
4.6211547008
 20
3.2732896711
 30
0.0
 10
4.6237919301
 20
3.2723795731
 30
0.0
 10
4.6261603577
 20
3.2715853895
 30
0.0
 10
4.6279656682
 20
3.2709966214
 30
0.0
 10
4.629273001
 20
3.2705786063
 30
0.0
 10
4.6301496136
 20
3.2703018719
 30
0.0
 10
4.6309570196
 20
3.2700502211
 30
0.0
 10
4.6316949665
 20
3.2698231209
 30
0.0
 10
4.6323632398
 20
3.2696200571
 30
0.0
 10
4.6329616618
 20
3.2694403955
 30
0.0
 10
4.6334900697
 20
3.269283297
 30
0.0
 10
4.6338866211
 20
3.2691661862
 30
0.0
 10
4.6341687161
 20
3.2690829744
 30
0.0
 10
4.6343539238
 20
3.2690282787
 30
0.0
 10
4.6345215359
 20
3.2689785929
 30
0.0
 10
4.6346715373
 20
3.2689338621
 30
0.0
 10
4.6348039298
 20
3.2688941248
 30
0.0
 10
4.6349187058
 20
3.2688594083
 30
0.0
 10
4.6350158579
 20
3.2688297421
 30
0.0
 10
4.6350857816
 20
3.2688081292
 30
0.0
 10
4.6351328943
 20
3.2687933611
 30
0.0
 10
4.6351616302
 20
3.2687842519
 30
0.0
 10
4.6351859502
 20
3.2687764274
 30
0.0
 10
4.6352058724
 20
3.268769896
 30
0.0
 10
4.6352213489
 20
3.2687646559
 30
0.0
 10
4.6352315499
 20
3.2687610765
 30
0.0
 10
4.6352373816
 20
3.268758819
 30
0.0
 10
4.6352402864
 20
3.2687576734
 30
0.0
 10
4.6352417777
 20
3.2687568458
 30
0.0
 10
4.6352427773
 20
3.2687563821
 30
0.0
 10
4.6352427906
 20
3.2687561248
 30
0.0
  0
SPLINE
  5
30D
100
AcDbEntity
  8
0
100
AcDbSpline
 62
7
  6
CONTINUOUS
 70
0
 71
3
 72
70
 73
66
 74
0
 42
0.0000001
 43
0.0000001
 44
0.0000000001
 40
0.0
 40
0.0
 40
0.0
 40
0.0
 40
0.0131210052
 40
0.0198994004
 40
0.0268068694
 40
0.0338348683
 40
0.0409750412
 40
0.0555567456
 40
0.0704861101
 40
0.0857040348
 40
0.1011569838
 40
0.1167979631
 40
0.1325879304
 40
0.1484949615
 40
0.1644925347
 40
0.1805594565
 40
0.1966787778
 40
0.2128375046
 40
0.2290256812
 40
0.2452355559
 40
0.2614614897
 40
0.2776991524
 40
0.3101941156
 40
0.3427073712
 40
0.3752299247
 40
0.3914944321
 40
0.4077595586
 40
0.4240252635
 40
0.4402911305
 40
0.4728209836
 40
0.5053514187
 40
0.5378830786
 40
0.5541508995
 40
0.5704196325
 40
0.6029577761
 40
0.6355008297
 40
0.6680469876
 40
0.6843206996
 40
0.7005918358
 40
0.716857552
 40
0.7331145348
 40
0.7493569682
 40
0.7655783624
 40
0.7817686925
 40
0.7979160583
 40
0.8140036566
 40
0.8300112297
 40
0.8459125761
 40
0.861675846
 40
0.8772628185
 40
0.8926272195
 40
0.9002093411
 40
0.9077144944
 40
0.9224618792
 40
0.929688427
 40
0.9368051174
 40
0.9438029963
 40
0.9506733886
 40
0.9574077845
 40
0.9639973158
 40
0.9704325493
 40
0.9767040835
 40
0.9828042941
 40
0.9887263154
 40
1.0
 40
1.0
 40
1.0
 40
1.0
 10
4.5196712614
 20
4.2133871191
 30
0.0
 10
4.5160561291
 20
4.2105498347
 30
0.0
 10
4.5106620452
 20
4.206132844
 30
0.0
 10
4.503549399
 20
4.2000036193
 30
0.0
 10
4.4981324613
 20
4.1951769608
 30
0.0
 10
4.4927052998
 20
4.1901729323
 30
0.0
 10
4.4854214798
 20
4.1832195196
 30
0.0
 10
4.4763706062
 20
4.1741122318
 30
0.0
 10
4.4657259177
 20
4.1626133896
 30
0.0
 10
4.4553096361
 20
4.1505014793
 30
0.0
 10
4.4451836089
 20
4.1378253956
 30
0.0
 10
4.4353981483
 20
4.1246343092
 30
0.0
 10
4.4259958818
 20
4.1109739258
 30
0.0
 10
4.4170132155
 20
4.0968856905
 30
0.0
 10
4.408478696
 20
4.0824089618
 30
0.0
 10
4.4004045171
 20
4.0675860075
 30
0.0
 10
4.392800063
 20
4.0524536375
 30
0.0
 10
4.3856698514
 20
4.0370454617
 30
0.0
 10
4.3790170898
 20
4.0213908346
 30
0.0
 10
4.3728439423
 20
4.0055158426
 30
0.0
 10
4.3671485547
 20
3.9894448551
 30
0.0
 10
4.3601837093
 20
3.9677828387
 30
0.0
 10
4.3526500123
 20
3.9403247179
 30
0.0
 10
4.3454552593
 20
3.9069146529
 30
0.0
 10
4.340963071
 20
3.8787814538
 30
0.0
 10
4.33824768
 20
3.8561575602
 30
0.0
 10
4.336643342
 20
3.8391407497
 30
0.0
 10
4.3354641366
 20
3.8220888319
 30
0.0
 10
4.3344487191
 20
3.7993220987
 30
0.0
 10
4.334213424
 20
3.7708268662
 30
0.0
 10
4.3355596512
 20
3.7366600035
 30
0.0
 10
4.3380299839
 20
3.7082700532
 30
0.0
 10
4.3408164661
 20
3.685649261
 30
0.0
 10
4.3441445131
 20
3.6630995082
 30
0.0
 10
4.3493301897
 20
3.6350701347
 30
0.0
 10
4.3572262363
 20
3.6017862687
 30
0.0
 10
4.3652359236
 20
3.5744228889
 30
0.0
 10
4.3725120813
 20
3.5528149216
 30
0.0
 10
4.3784062943
 20
3.5367650593
 30
0.0
 10
4.3847409321
 20
3.5208902096
 30
0.0
 10
4.3915186232
 20
3.5052102018
 30
0.0
 10
4.3987431866
 20
3.4897479992
 30
0.0
 10
4.4064168367
 20
3.4745296765
 30
0.0
 10
4.4145378113
 20
3.4595830279
 30
0.0
 10
4.4231019172
 20
3.4449398685
 30
0.0
 10
4.4321042656
 20
3.4306373315
 30
0.0
 10
4.4415339686
 20
3.416716612
 30
0.0
 10
4.4513717465
 20
3.4032213937
 30
0.0
 10
4.4615874421
 20
3.3901965181
 30
0.0
 10
4.4721411786
 20
3.377689119
 30
0.0
 10
4.4812192808
 20
3.3676977472
 30
0.0
 10
4.4886138301
 20
3.3600108838
 30
0.0
 10
4.4960028962
 20
3.3526214378
 30
0.0
 10
4.5035137096
 20
3.3455323373
 30
0.0
 10
4.5111232668
 20
3.3387560963
 30
0.0
 10
4.5168000691
 20
3.3338928127
 30
0.0
 10
4.5224730552
 20
3.329218969
 30
0.0
 10
4.528129356
 20
3.3247375371
 30
0.0
 10
4.5337549443
 20
3.3204496938
 30
0.0
 10
4.5393362059
 20
3.3163571041
 30
0.0
 10
4.5448606069
 20
3.3124631077
 30
0.0
 10
4.5503164266
 20
3.3087714082
 30
0.0
 10
4.5556900376
 20
3.3052809516
 30
0.0
 10
4.5626122183
 20
3.3009610623
 30
0.0
 10
4.5678060499
 20
3.2979081273
 30
0.0
 10
4.5712510202
 20
3.2959785318
 30
0.0
  0
SPLINE
  5
30E
100
AcDbEntity
  8
0
100
AcDbSpline
 62
7
  6
CONTINUOUS
 70
0
 71
3
 72
20
 73
16
 74
0
 42
0.0000001
 43
0.0000001
 44
0.0000000001
 40
0.0
 40
0.0
 40
0.0
 40
0.0
 40
0.0725828989
 40
0.1448987211
 40
0.2166581016
 40
0.2876030763
 40
0.4260275851
 40
0.4930581587
 40
0.5583517209
 40
0.6829857588
 40
0.7987035224
 40
0.8529235381
 40
0.9045898634
 40
0.9536365521
 40
1.0
 40
1.0
 40
1.0
 40
1.0
 10
5.4123681396
 20
3.7366790219
 30
0.0
 10
5.4123678433
 20
3.7342081649
 30
0.0
 10
5.412297851
 20
3.7292752831
 30
0.0
 10
5.4119903465
 20
3.7219053858
 30
0.0
 10
5.4114815894
 20
3.7146023377
 30
0.0
 10
5.4105459531
 20
3.7050771284
 30
0.0
 10
5.4092357461
 20
3.6957534894
 30
0.0
 10
5.4075561895
 20
3.6866899431
 30
0.0
 10
5.405713981
 20
3.6781377025
 30
0.0
 10
5.403077854
 20
3.6680656999
 30
0.0
 10
5.3999442986
 20
3.6585322218
 30
0.0
 10
5.3972270377
 20
3.6514933985
 30
0.0
 10
5.3951577029
 20
3.6466408324
 30
0.0
 10
5.3930258819
 20
3.6421093831
 30
0.0
 10
5.3915293075
 20
3.6392255936
 30
0.0
 10
5.390772262
 20
3.6378407085
 30
0.0
  0
SPLINE
  5
30F
100
AcDbEntity
  8
0
100
AcDbSpline
 62
7
  6
CONTINUOUS
 70
0
 71
3
 72
20
 73
16
 74
0
 42
0.0000001
 43
0.0000001
 44
0.0000000001
 40
0.0
 40
0.0
 40
0.0
 40
0.0
 40
0.0463387369
 40
0.0953629027
 40
0.1470093814
 40
0.2012124017
 40
0.3169059999
 40
0.4415292195
 40
0.5068231736
 40
0.5738579107
 40
0.7123038437
 40
0.7832657455
 40
0.8550464743
 40
0.9273878505
 40
1.0
 40
1.0
 40
1.0
 40
1.0
 10
5.390772262
 20
3.8354700121
 30
0.0
 10
5.3915293302
 20
3.8340868865
 30
0.0
 10
5.3930260191
 20
3.8312065696
 30
0.0
 10
5.3951579273
 20
3.8266801049
 30
0.0
 10
5.3972272553
 20
3.8218322426
 30
0.0
 10
5.3999446505
 20
3.8147992368
 30
0.0
 10
5.4030780136
 20
3.8052721693
 30
0.0
 10
5.4057141914
 20
3.7952061049
 30
0.0
 10
5.4075562491
 20
3.786657973
 30
0.0
 10
5.4092361269
 20
3.7775976929
 30
0.0
 10
5.4105458482
 20
3.7682766862
 30
0.0
 10
5.411481734
 20
3.7587536757
 30
0.0
 10
5.411989856
 20
3.7514516169
 30
0.0
 10
5.4122971469
 20
3.7440823658
 30
0.0
 10
5.4123677493
 20
3.7391497908
 30
0.0
 10
5.4123681396
 20
3.7366790219
 30
0.0
  0
LINE
  5
310
100
AcDbEntity
  8
0
100
AcDbLine
 62
7
  6
CONTINUOUS
 10
5.3895442453
 20
3.8348312706
 11
5.3904659982
 21
3.8378391533
  0
LINE
  5
311
100
AcDbEntity
  8
0
100
AcDbLine
 62
7
  6
CONTINUOUS
 10
5.390772262
 20
3.8354792075
 11
5.3904659982
 21
3.8378391533
  0
SPLINE
  5
312
100
AcDbEntity
  8
0
100
AcDbSpline
 62
7
  6
CONTINUOUS
 70
0
 71
3
 72
13
 73
9
 74
0
 42
0.0000001
 43
0.0000001
 44
0.0000000001
 40
0.0
 40
0.0
 40
0.0
 40
0.0
 40
0.2499808328
 40
0.499959288
 40
0.6249694267
 40
0.7499796675
 40
0.8749896809
 40
1.0
 40
1.0
 40
1.0
 40
1.0
 10
5.3548822911
 20
3.6158011248
 30
0.0
 10
5.3578403467
 20
3.6255205053
 30
0.0
 10
5.3630653442
 20
3.6451770696
 30
0.0
 10
5.3677936261
 20
3.6701569956
 30
0.0
 10
5.3704586882
 20
3.6903061239
 30
0.0
 10
5.3718922257
 20
3.7054840513
 30
0.0
 10
5.372754649
 20
3.7207047632
 30
0.0
 10
5.3729465527
 20
3.7308669702
 30
0.0
 10
5.3729465585
 20
3.7359475539
 30
0.0
  0
SPLINE
  5
313
100
AcDbEntity
  8
0
100
AcDbSpline
 62
7
  6
CONTINUOUS
 70
0
 71
3
 72
9
 73
5
 74
0
 42
0.0000001
 43
0.0000001
 44
0.0000000001
 40
0.0
 40
0.0
 40
0.0
 40
0.0
 40
0.5000475849
 40
1.0
 40
1.0
 40
1.0
 40
1.0
 10
5.3804289841
 20
3.784515861
 30
0.0
 10
5.3801223973
 20
3.7878334266
 30
0.0
 10
5.3796707839
 20
3.7944850318
 30
0.0
 10
5.3797853166
 20
3.8011616704
 30
0.0
 10
5.3800483033
 20
3.8044823406
 30
0.0
  0
SPLINE
  5
314
100
AcDbEntity
  8
0
100
AcDbSpline
 62
7
  6
CONTINUOUS
 70
0
 71
3
 72
11
 73
7
 74
0
 42
0.0000001
 43
0.0000001
 44
0.0000000001
 40
0.0
 40
0.0
 40
0.0
 40
0.0
 40
0.249996222
 40
0.5000025155
 40
0.750002626
 40
1.0
 40
1.0
 40
1.0
 40
1.0
 10
5.3800483192
 20
3.6688390134
 30
0.0
 10
5.3799166062
 20
3.6704998002
 30
0.0
 10
5.3797570435
 20
3.6738302437
 30
0.0
 10
5.3797767123
 20
3.6788299779
 30
0.0
 10
5.380009242
 20
3.6838238903
 30
0.0
 10
5.3802757136
 20
3.6871457636
 30
0.0
 10
5.3804289875
 20
3.6888047071
 30
0.0
  0
SPLINE
  5
315
100
AcDbEntity
  8
0
100
AcDbSpline
 62
7
  6
CONTINUOUS
 70
0
 71
3
 72
12
 73
8
 74
0
 42
0.0000001
 43
0.0000001
 44
0.0000000001
 40
0.0
 40
0.0
 40
0.0
 40
0.0
 40
0.2336818984
 40
0.4809299407
 40
0.7379002632
 40
0.8686332267
 40
1.0
 40
1.0
 40
1.0
 40
1.0
 10
5.3948564928
 20
3.7858530598
 30
0.0
 10
5.3958231213
 20
3.78210663
 30
0.0
 10
5.3975509782
 20
3.7743266919
 30
0.0
 10
5.3994379523
 20
3.7622482058
 30
0.0
 10
5.4004109746
 20
3.751772726
 30
0.0
 10
5.4008094208
 20
3.7431865914
 30
0.0
 10
5.4008769148
 20
3.7388466093
 30
0.0
 10
5.4008770708
 20
3.736671541
 30
0.0
  0
SPLINE
  5
316
100
AcDbEntity
  8
0
100
AcDbSpline
 62
7
  6
CONTINUOUS
 70
0
 71
3
 72
11
 73
7
 74
0
 42
0.0000001
 43
0.0000001
 44
0.0000000001
 40
0.0
 40
0.0
 40
0.0
 40
0.0
 40
0.2620281261
 40
0.5189910418
 40
0.7662646802
 40
1.0
 40
1.0
 40
1.0
 40
1.0
 10
5.4008770708
 20
3.736671541
 30
0.0
 10
5.4008768335
 20
3.7323321658
 30
0.0
 10
5.4006120216
 20
3.7237349235
 30
0.0
 10
5.3994379224
 20
3.7110915228
 30
0.0
 10
5.3975508482
 20
3.699008928
 30
0.0
 10
5.395823098
 20
3.6912259753
 30
0.0
 10
5.3948565224
 20
3.6874777725
 30
0.0
  0
SPLINE
  5
317
100
AcDbEntity
  8
0
100
AcDbSpline
 62
7
  6
CONTINUOUS
 70
0
 71
3
 72
11
 73
7
 74
0
 42
0.0000001
 43
0.0000001
 44
0.0000000001
 40
0.0
 40
0.0
 40
0.0
 40
0.0
 40
0.2501140299
 40
0.5000913796
 40
0.7500250505
 40
1.0
 40
1.0
 40
1.0
 40
1.0
 10
5.3948566172
 20
3.7858525856
 30
0.0
 10
5.394657935
 20
3.7873109315
 30
0.0
 10
5.3942801391
 20
3.790229565
 30
0.0
 10
5.3938081834
 20
3.7946183651
 30
0.0
 10
5.3934732139
 20
3.7990192497
 30
0.0
 10
5.3933745195
 20
3.8019607971
 30
0.0
 10
5.3933663301
 20
3.8034317735
 30
0.0
  0
LINE
  5
318
100
AcDbEntity
  8
0
100
AcDbLine
 62
7
  6
CONTINUOUS
 10
5.3933663301
 20
3.8034317735
 11
5.3933274457
 21
3.8085777007
  0
SPLINE
  5
319
100
AcDbEntity
  8
0
100
AcDbSpline
 62
7
  6
CONTINUOUS
 70
0
 71
3
 72
19
 73
15
 74
0
 42
0.0000001
 43
0.0000001
 44
0.0000000001
 40
0.0
 40
0.0
 40
0.0
 40
0.0
 40
0.1421949132
 40
0.2797018621
 40
0.3464413856
 40
0.4117228061
 40
0.4754925728
 40
0.5377868815
 40
0.5987686434
 40
0.6586586986
 40
0.7175813696
 40
0.7756190505
 40
0.8891902215
 40
1.0
 40
1.0
 40
1.0
 40
1.0
 10
5.3933274457
 20
3.8085777007
 30
0.0
 10
5.3933119578
 20
3.8098594716
 30
0.0
 10
5.3932682864
 20
3.8123806438
 30
0.0
 10
5.3931532371
 20
3.8155019941
 30
0.0
 10
5.3930103597
 20
3.8179276369
 30
0.0
 10
5.3928767389
 20
3.8196876924
 30
0.0
 10
5.3927130942
 20
3.8214049753
 30
0.0
 10
5.3925205923
 20
3.8230802325
 30
0.0
 10
5.3923066076
 20
3.8247175589
 30
0.0
 10
5.3920831521
 20
3.8263229117
 30
0.0
 10
5.3918548186
 20
3.8279007518
 30
0.0
 10
5.3915518488
 20
3.8299567873
 30
0.0
 10
5.3911809557
 20
3.8324753398
 30
0.0
 10
5.3908831191
 20
3.8344767176
 30
0.0
 10
5.3907725782
 20
3.8354695151
 30
0.0
  0
SPLINE
  5
31A
100
AcDbEntity
  8
0
100
AcDbSpline
 62
7
  6
CONTINUOUS
 70
0
 71
3
 72
11
 73
7
 74
0
 42
0.0000001
 43
0.0000001
 44
0.0000000001
 40
0.0
 40
0.0
 40
0.0
 40
0.0
 40
0.2499748864
 40
0.4999148074
 40
0.749890003
 40
1.0
 40
1.0
 40
1.0
 40
1.0
 10
5.3933663593
 20
3.6698961178
 30
0.0
 10
5.3933744927
 20
3.6713673348
 30
0.0
 10
5.3934732877
 20
3.674309399
 30
0.0
 10
5.3938082198
 20
3.6787110305
 30
0.0
 10
5.3942801138
 20
3.683100565
 30
0.0
 10
5.3946579518
 20
3.6860196416
 30
0.0
 10
5.3948566242
 20
3.6874782077
 30
0.0
  0
SPLINE
  5
31B
100
AcDbEntity
  8
0
100
AcDbSpline
 62
7
  6
CONTINUOUS
 70
0
 71
3
 72
21
 73
17
 74
0
 42
0.0000001
 43
0.0000001
 44
0.0000000001
 40
0.0
 40
0.0
 40
0.0
 40
0.0
 40
0.0552363055
 40
0.1108157464
 40
0.1672038554
 40
0.2244211281
 40
0.2824592116
 40
0.3413900383
 40
0.4012830861
 40
0.4622719625
 40
0.5245680629
 40
0.5883414388
 40
0.6536213834
 40
0.7203561026
 40
0.857842159
 40
1.0
 40
1.0
 40
1.0
 40
1.0
 10
5.3907727428
 20
3.6378420443
 30
0.0
 10
5.3908268538
 20
3.6383376648
 30
0.0
 10
5.3909563303
 20
3.6393296747
 30
0.0
 10
5.3911796269
 20
3.6408222314
 30
0.0
 10
5.3914009198
 20
3.6423331906
 30
0.0
 10
5.3916263715
 20
3.643865959
 30
0.0
 10
5.3918560214
 20
3.6454213107
 30
0.0
 10
5.392084004
 20
3.6470013163
 30
0.0
 10
5.3923078705
 20
3.6486088116
 30
0.0
 10
5.3925215162
 20
3.6502483615
 30
0.0
 10
5.3927142274
 20
3.6519258181
 30
0.0
 10
5.3928775795
 20
3.6536453206
 30
0.0
 10
5.393011145
 20
3.6554075553
 30
0.0
 10
5.3931538664
 20
3.6578359888
 30
0.0
 10
5.3932687032
 20
3.6609606648
 30
0.0
 10
5.3933122397
 20
3.6634844517
 30
0.0
 10
5.3933276576
 20
3.6647674828
 30
0.0
  0
SPLINE
  5
31C
100
AcDbEntity
  8
0
100
AcDbSpline
 62
7
  6
CONTINUOUS
 70
0
 71
3
 72
105
 73
101
 74
0
 42
0.0000001
 43
0.0000001
 44
0.0000000001
 40
0.0
 40
0.0
 40
0.0
 40
0.0
 40
0.0015179707
 40
0.0020794628
 40
0.0025232751
 40
0.0028638436
 40
0.0031230878
 40
0.0033371641
 40
0.003554797
 40
0.0038148813
 40
0.0041355279
 40
0.0045219704
 40
0.0049736265
 40
0.0060585162
 40
0.0073536874
 40
0.0088166385
 40
0.0104050021
 40
0.0120793278
 40
0.0138058341
 40
0.0174001624
 40
0.0212873791
 40
0.0255550207
 40
0.0302619268
 40
0.0354545649
 40
0.0411780724
 40
0.0442494377
 40
0.0474595929
 40
0.0542891195
 40
0.0616512327
 40
0.0695291085
 40
0.0779053649
 40
0.0867630235
 40
0.0960971076
 40
0.105915364
 40
0.1162262347
 40
0.1270385516
 40
0.1383618026
 40
0.1502045551
 40
0.1625523632
 40
0.1753732787
 40
0.188635128
 40
0.2023076104
 40
0.2163638284
 40
0.2235296161
 40
0.2307927921
 40
0.245652809
 40
0.2610290657
 40
0.2770266398
 40
0.2937899629
 40
0.3025195717
 40
0.311519142
 40
0.3208112146
 40
0.3303916603
 40
0.3503642543
 40
0.3713034334
 40
0.3930381584
 40
0.4153787442
 40
0.4267148901
 40
0.4381274978
 40
0.4609786416
 40
0.4834772017
 40
0.4944769943
 40
0.5052667336
 40
0.5158337341
 40
0.5261860062
 40
0.53635723
 40
0.5464116654
 40
0.5514265932
 40
0.5564522773
 40
0.5665937665
 40
0.5769189529
 40
0.5874406796
 40
0.5981260002
 40
0.608914662
 40
0.6305180621
 40
0.6518028607
 40
0.6623376748
 40
0.6729136745
 40
0.6782754909
 40
0.6837246478
 40
0.6949994836
 40
0.7068954655
 40
0.7194590024
 40
0.7326702061
 40
0.7464640547
 40
0.7607457511
 40
0.7754015615
 40
0.7903066253
 40
0.8053309376
 40
0.8203444093
 40
0.8352217162
 40
0.8425730062
 40
0.8498497209
 40
0.8641864257
 40
0.8782734442
 40
0.8921544433
 40
0.9194540967
 40
0.9463779433
 40
0.9731631113
 40
1.0
 40
1.0
 40
1.0
 40
1.0
 10
4.6026870583
 20
4.26451263
 30
0.0
 10
4.6026863537
 20
4.2645639503
 30
0.0
 10
4.6026839058
 20
4.2646343733
 30
0.0
 10
4.6026724618
 20
4.2647189886
 30
0.0
 10
4.6026620525
 20
4.2647634075
 30
0.0
 10
4.602648862
 20
4.2647963201
 30
0.0
 10
4.602632292
 20
4.2648189689
 30
0.0
 10
4.602610925
 20
4.2648306169
 30
0.0
 10
4.6025867338
 20
4.2648300777
 30
0.0
 10
4.6025613391
 20
4.2648201346
 30
0.0
 10
4.6025336909
 20
4.2648024561
 30
0.0
 10
4.6025033684
 20
4.2647775606
 30
0.0
 10
4.6024562301
 20
4.2647327293
 30
0.0
 10
4.6023914658
 20
4.2646621227
 30
0.0
 10
4.6023060671
 20
4.2645642123
 30
0.0
 10
4.6022089651
 20
4.2644538847
 30
0.0
 10
4.6021000789
 20
4.2643369037
 30
0.0
 10
4.6019794072
 20
4.264218886
 30
0.0
 10
4.6017989716
 20
4.2640655893
 30
0.0
 10
4.6015377431
 20
4.263894129
 30
0.0
 10
4.601183407
 20
4.2637136552
 30
0.0
 10
4.6007837918
 20
4.2635417264
 30
0.0
 10
4.6003386801
 20
4.2633647338
 30
0.0
 10
4.5998477562
 20
4.2631696881
 30
0.0
 10
4.599412134
 20
4.2629853779
 30
0.0
 10
4.5990418874
 20
4.2628189784
 30
0.0
 10
4.5986394934
 20
4.2626329529
 30
0.0
 10
4.5981087886
 20
4.2623788369
 30
0.0
 10
4.5974390823
 20
4.2620497106
 30
0.0
 10
4.5967240772
 20
4.2616942131
 30
0.0
 10
4.5959638685
 20
4.2613160514
 30
0.0
 10
4.5951578395
 20
4.2609194637
 30
0.0
 10
4.5943064178
 20
4.2605047183
 30
0.0
 10
4.5934111855
 20
4.2600677114
 30
0.0
 10
4.592472862
 20
4.2596050483
 30
0.0
 10
4.5914923259
 20
4.2591129796
 30
0.0
 10
4.5904702878
 20
4.2585882085
 30
0.0
 10
4.5894089978
 20
4.2580264274
 30
0.0
 10
4.5883073579
 20
4.2574327596
 30
0.0
 10
4.5871629334
 20
4.2568173397
 30
0.0
 10
4.5859743985
 20
4.2561894038
 30
0.0
 10
4.5847402236
 20
4.255558655
 30
0.0
 10
4.5836795444
 20
4.2550416929
 30
0.0
 10
4.5828059341
 20
4.2546361499
 30
0.0
 10
4.581904132
 20
4.2542269166
 30
0.0
 10
4.5807482336
 20
4.2537058395
 30
0.0
 10
4.5793361657
 20
4.2530346121
 30
0.0
 10
4.5778956524
 20
4.2522755944
 30
0.0
 10
4.5766943573
 20
4.251548862
 30
0.0
 10
4.5757301933
 20
4.2508922835
 30
0.0
 10
4.5749955244
 20
4.2503487245
 30
0.0
 10
4.574260705
 20
4.24975833
 30
0.0
 10
4.5732643032
 20
4.2489023262
 30
0.0
 10
4.5720162646
 20
4.2477364119
 30
0.0
 10
4.5705211207
 20
4.2462356953
 30
0.0
 10
4.5690021384
 20
4.2446465734
 30
0.0
 10
4.5677178805
 20
4.2432824406
 30
0.0
 10
4.5666691439
 20
4.2421759103
 30
0.0
 10
4.5656033416
 20
4.2410618008
 30
0.0
 10
4.5642554048
 20
4.239695268
 30
0.0
 10
4.5628500423
 20
4.2384062988
 30
0.0
 10
4.5616839706
 20
4.2374659472
 30
0.0
 10
4.5607971261
 20
4.2368242873
 30
0.0
 10
4.5598898477
 20
4.2362514627
 30
0.0
 10
4.5589602552
 20
4.2357581125
 30
0.0
 10
4.5580065685
 20
4.2353550179
 30
0.0
 10
4.5571892
 20
4.235103368
 30
0.0
 10
4.5565249238
 20
4.2349589687
 30
0.0
 10
4.5558502679
 20
4.2348539568
 30
0.0
 10
4.5549886532
 20
4.234795319
 30
0.0
 10
4.5539402155
 20
4.2348153527
 30
0.0
 10
4.5528770843
 20
4.2349012621
 30
0.0
 10
4.5518027295
 20
4.2350290762
 30
0.0
 10
4.550359283
 20
4.2352238404
 30
0.0
 10
4.5485589236
 20
4.2354528386
 30
0.0
 10
4.5467461759
 20
4.2355095247
 30
0.0
 10
4.5453189275
 20
4.2353503025
 30
0.0
 10
4.5444446987
 20
4.2351458135
 30
0.0
 10
4.5437607493
 20
4.2349093507
 30
0.0
 10
4.543073932
 20
4.2346145254
 30
0.0
 10
4.5422304221
 20
4.2341336952
 30
0.0
 10
4.5412561579
 20
4.2334158215
 30
0.0
 10
4.5403016981
 20
4.2325704185
 30
0.0
 10
4.5393618516
 20
4.2316172417
 30
0.0
 10
4.5384317361
 20
4.2305757364
 30
0.0
 10
4.5375069017
 20
4.2294654672
 30
0.0
 10
4.5365830645
 20
4.2283060802
 30
0.0
 10
4.5356560412
 20
4.2271173046
 30
0.0
 10
4.5347216798
 20
4.2259189124
 30
0.0
 10
4.5337758454
 20
4.2247307014
 30
0.0
 10
4.532971436
 20
4.2237616981
 30
0.0
 10
4.5323160003
 20
4.2230095249
 30
0.0
 10
4.531658434
 20
4.2222836946
 30
0.0
 10
4.5308217552
 20
4.2214131553
 30
0.0
 10
4.5297913552
 20
4.2204205366
 30
0.0
 10
4.5283978235
 20
4.2191749691
 30
0.0
 10
4.5265997327
 20
4.2177332731
 30
0.0
 10
4.5243564099
 20
4.2161590287
 30
0.0
 10
4.5220452944
 20
4.2147163606
 30
0.0
 10
4.520467466
 20
4.2138223581
 30
0.0
 10
4.5196712614
 20
4.2133871191
 30
0.0
  0
SPLINE
  5
31D
100
AcDbEntity
  8
0
100
AcDbSpline
 62
7
  6
CONTINUOUS
 70
0
 71
3
 72
36
 73
32
 74
0
 42
0.0000001
 43
0.0000001
 44
0.0000000001
 40
0.0
 40
0.0
 40
0.0
 40
0.0
 40
0.0663600661
 40
0.1319173785
 40
0.1964530883
 40
0.2282827572
 40
0.2598032008
 40
0.2910188535
 40
0.3219648502
 40
0.352735273
 40
0.3835078023
 40
0.4144402845
 40
0.4455644227
 40
0.4768220067
 40
0.5081298533
 40
0.5394101142
 40
0.5706063358
 40
0.6017263791
 40
0.632773541
 40
0.663735501
 40
0.6946098544
 40
0.7253987714
 40
0.7561064963
 40
0.7867385378
 40
0.8173065313
 40
0.8478258873
 40
0.8783033889
 40
0.9087340286
 40
0.9391190533
 40
0.9695143205
 40
1.0
 40
1.0
 40
1.0
 40
1.0
 10
5.3805395523
 20
3.8085692545
 30
0.0
 10
5.3806188194
 20
3.8091840259
 30
0.0
 10
5.3807810816
 20
3.8104055368
 30
0.0
 10
5.3810391813
 20
3.8122223575
 30
0.0
 10
5.3812702204
 20
3.8137171916
 30
0.0
 10
5.3814727117
 20
3.8148945058
 30
0.0
 10
5.3816369415
 20
3.8157624868
 30
0.0
 10
5.3818211561
 20
3.816618099
 30
0.0
 10
5.3820365071
 20
3.817459307
 30
0.0
 10
5.3822996008
 20
3.8182831156
 30
0.0
 10
5.3826376505
 20
3.8190794484
 30
0.0
 10
5.383043714
 20
3.8198463886
 30
0.0
 10
5.3834909202
 20
3.8205947077
 30
0.0
 10
5.3839527243
 20
3.8213380699
 30
0.0
 10
5.384409614
 20
3.8220862244
 30
0.0
 10
5.3848489361
 20
3.822844275
 30
0.0
 10
5.3852630491
 20
3.8236144027
 30
0.0
 10
5.3856561926
 20
3.8243929343
 30
0.0
 10
5.3860317412
 20
3.8251776777
 30
0.0
 10
5.3863884852
 20
3.8259686324
 30
0.0
 10
5.3867277685
 20
3.8267645902
 30
0.0
 10
5.3870520018
 20
3.8275642201
 30
0.0
 10
5.387362797
 20
3.8283667334
 30
0.0
 10
5.3876615795
 20
3.8291715874
 30
0.0
 10
5.3879501181
 20
3.8299782932
 30
0.0
 10
5.3882305572
 20
3.8307863158
 30
0.0
 10
5.3885042354
 20
3.8315952972
 30
0.0
 10
5.3887709641
 20
3.8324052788
 30
0.0
 10
5.3890303604
 20
3.833216827
 30
0.0
 10
5.3892868916
 20
3.8340298157
 30
0.0
 10
5.3894595305
 20
3.834571663
 30
0.0
 10
5.3895471697
 20
3.8348426042
 30
0.0
  0
SPLINE
  5
31E
100
AcDbEntity
  8
0
100
AcDbSpline
 62
7
  6
CONTINUOUS
 70
0
 71
3
 72
28
 73
24
 74
0
 42
0.0000001
 43
0.0000001
 44
0.0000000001
 40
0.0
 40
0.0
 40
0.0
 40
0.0
 40
0.0334021702
 40
0.0500382022
 40
0.0666057865
 40
0.0830991345
 40
0.0995043991
 40
0.1158226313
 40
0.1320494118
 40
0.1642917818
 40
0.1963048839
 40
0.2597944592
 40
0.3227637199
 40
0.3853494323
 40
0.447656934
 40
0.509713393
 40
0.5715427677
 40
0.6332089984
 40
0.6947044196
 40
0.7560301621
 40
0.8172161901
 40
0.8782739926
 40
1.0
 40
1.0
 40
1.0
 40
1.0
 10
5.3805395382
 20
3.8207589512
 30
0.0
 10
5.3807335471
 20
3.8207589331
 30
0.0
 10
5.3810253644
 20
3.8207890812
 30
0.0
 10
5.3813998914
 20
3.8208876289
 30
0.0
 10
5.3816715149
 20
3.8209864201
 30
0.0
 10
5.3819334386
 20
3.8211050684
 30
0.0
 10
5.3821853477
 20
3.8212406495
 30
0.0
 10
5.3824265697
 20
3.8213915069
 30
0.0
 10
5.3827329309
 20
3.8216103671
 30
0.0
 10
5.3830906242
 20
3.821912471
 30
0.0
 10
5.3836202698
 20
3.8224327369
 30
0.0
 10
5.384216325
 20
3.8231366756
 30
0.0
 10
5.3848503711
 20
3.8240341866
 30
0.0
 10
5.385423675
 20
3.8249631979
 30
0.0
 10
5.3859519677
 20
3.8259121928
 30
0.0
 10
5.3864424092
 20
3.8268763077
 30
0.0
 10
5.3868998482
 20
3.8278522936
 30
0.0
 10
5.3873337608
 20
3.8288353459
 30
0.0
 10
5.3877451254
 20
3.8298248823
 30
0.0
 10
5.3881356681
 20
3.8308197943
 30
0.0
 10
5.3885096609
 20
3.8318183147
 30
0.0
 10
5.3889878952
 20
3.8331522548
 30
0.0
 10
5.3893265903
 20
3.8341585891
 30
0.0
 10
5.3895442453
 20
3.8348312706
 30
0.0
  0
LINE
  5
31F
100
AcDbEntity
  8
0
100
AcDbLine
 62
7
  6
CONTINUOUS
 10
5.3800482112
 20
3.8044823406
 11
5.3805395524
 21
3.808570932
  0
SPLINE
  5
320
100
AcDbEntity
  8
0
100
AcDbSpline
 62
7
  6
CONTINUOUS
 70
0
 71
3
 72
35
 73
31
 74
0
 42
0.0000001
 43
0.0000001
 44
0.0000000001
 40
0.0
 40
0.0
 40
0.0
 40
0.0
 40
0.060878993
 40
0.0912670201
 40
0.1216992801
 40
0.1521782224
 40
0.1826968379
 40
0.2132620546
 40
0.24389638
 40
0.2746151552
 40
0.3054096914
 40
0.3362740827
 40
0.3672249527
 40
0.398275027
 40
0.4294049365
 40
0.460605015
 40
0.4918795914
 40
0.5231852409
 40
0.5544433987
 40
0.5855627411
 40
0.6164882643
 40
0.6472574523
 40
0.6780287854
 40
0.7089793067
 40
0.7401986961
 40
0.7717220323
 40
0.8035537147
 40
0.8680910444
 40
0.9336465446
 40
1.0
 40
1.0
 40
1.0
 40
1.0
 10
5.3895495754
 20
3.6384606744
 30
0.0
 10
5.3893749188
 20
3.6390026232
 30
0.0
 10
5.389119348
 20
3.6398170907
 30
0.0
 10
5.3887728711
 20
3.6409013283
 30
0.0
 10
5.3885059115
 20
3.6417124543
 30
0.0
 10
5.3882319746
 20
3.642522536
 30
0.0
 10
5.3879514893
 20
3.6433316907
 30
0.0
 10
5.3876631846
 20
3.6441396437
 30
0.0
 10
5.3873639278
 20
3.6449456164
 30
0.0
 10
5.3870515473
 20
3.6457489005
 30
0.0
 10
5.3867263565
 20
3.6465494027
 30
0.0
 10
5.3863880782
 20
3.6473468365
 30
0.0
 10
5.3860323433
 20
3.6481392982
 30
0.0
 10
5.385656049
 20
3.6489249658
 30
0.0
 10
5.3852608314
 20
3.6497038886
 30
0.0
 10
5.3848454775
 20
3.6504746958
 30
0.0
 10
5.3844064653
 20
3.6512341852
 30
0.0
 10
5.3839490539
 20
3.6519832782
 30
0.0
 10
5.383486096
 20
3.6527271829
 30
0.0
 10
5.3830389605
 20
3.6534767544
 30
0.0
 10
5.3826339434
 20
3.6542453698
 30
0.0
 10
5.3822970608
 20
3.6550433057
 30
0.0
 10
5.3820347118
 20
3.6558685148
 30
0.0
 10
5.381818839
 20
3.6567108252
 30
0.0
 10
5.381634416
 20
3.6575676649
 30
0.0
 10
5.3814705522
 20
3.6584369609
 30
0.0
 10
5.3812688472
 20
3.6596160393
 30
0.0
 10
5.381039531
 20
3.6611131406
 30
0.0
 10
5.3807838383
 20
3.6629326193
 30
0.0
 10
5.3806191804
 20
3.6641553339
 30
0.0
 10
5.3805395376
 20
3.6647708021
 30
0.0
  0
SPLINE
  5
321
100
AcDbEntity
  8
0
100
AcDbSpline
 62
7
  6
CONTINUOUS
 70
0
 71
3
 72
26
 73
22
 74
0
 42
0.0000001
 43
0.0000001
 44
0.0000000001
 40
0.0
 40
0.0
 40
0.0
 40
0.0
 40
0.1217416987
 40
0.2439932787
 40
0.3668180792
 40
0.4903219313
 40
0.5523736368
 40
0.6146744815
 40
0.6459371953
 40
0.6772767963
 40
0.7402382482
 40
0.7719152983
 40
0.8037431973
 40
0.8357544254
 40
0.8679961367
 40
0.9005226458
 40
0.9169212191
 40
0.9334083157
 40
0.9499723766
 40
0.9666063152
 40
1.0
 40
1.0
 40
1.0
 40
1.0
 10
5.389544476
 20
3.6384788693
 30
0.0
 10
5.3893266392
 20
3.6391518146
 30
0.0
 10
5.3888745308
 20
3.6404955651
 30
0.0
 10
5.3881429376
 20
3.6424975919
 30
0.0
 10
5.3873434864
 20
3.6444847154
 30
0.0
 10
5.3866032252
 20
3.6461172897
 30
0.0
 10
5.3859520112
 20
3.6474019421
 30
0.0
 10
5.3855128018
 20
3.6481925834
 30
0.0
 10
5.3851377962
 20
3.6488139678
 30
0.0
 10
5.3847451824
 20
3.6494288727
 30
0.0
 10
5.3843229223
 20
3.65002774
 30
0.0
 10
5.3838604717
 20
3.6505990588
 30
0.0
 10
5.3834894275
 20
3.651012138
 30
0.0
 10
5.3830908021
 20
3.651403538
 30
0.0
 10
5.3826602533
 20
3.6517663204
 30
0.0
 10
5.3822681053
 20
3.6520305393
 30
0.0
 10
5.3819335087
 20
3.6522113047
 30
0.0
 10
5.3816716941
 20
3.6523302054
 30
0.0
 10
5.3814000307
 20
3.6524289601
 30
0.0
 10
5.3810254224
 20
3.6525273311
 30
0.0
 10
5.3807335569
 20
3.6525573829
 30
0.0
 10
5.3805395382
 20
3.6525571846
 30
0.0
  0
LINE
  5
322
100
AcDbEntity
  8
0
100
AcDbLine
 62
7
  6
CONTINUOUS
 10
5.3805395376
 20
3.6647568474
 11
5.3800481196
 21
3.6688390134
  0
SPLINE
  5
323
100
AcDbEntity
  8
0
100
AcDbSpline
 62
7
  6
CONTINUOUS
 70
0
 71
3
 72
14
 73
10
 74
0
 42
0.0000001
 43
0.0000001
 44
0.0000000001
 40
0.0
 40
0.0
 40
0.0
 40
0.0
 40
0.0862137107
 40
0.1870850873
 40
0.3010968241
 40
0.426493113
 40
0.5612932371
 40
0.7033406149
 40
1.0
 40
1.0
 40
1.0
 40
1.0
 10
5.3933274458
 20
3.8085777007
 30
0.0
 10
5.3929634136
 20
3.8085232881
 30
0.0
 10
5.3921694771
 20
3.8084318313
 30
0.0
 10
5.3908870512
 20
3.8083398031
 30
0.0
 10
5.3894351234
 20
3.8082839393
 30
0.0
 10
5.3878374538
 20
3.8082653868
 30
0.0
 10
5.3861201031
 20
3.8082846886
 30
0.0
 10
5.3836727071
 20
3.8083618306
 30
0.0
 10
5.3818024993
 20
3.8084732735
 30
0.0
 10
5.3805396549
 20
3.8085699857
 30
0.0
  0
LINE
  5
324
100
AcDbEntity
  8
0
100
AcDbLine
 62
7
  6
CONTINUOUS
 10
5.3907728157
 20
3.8354702277
 11
5.3895441709
 21
3.8348310943
  0
SPLINE
  5
325
100
AcDbEntity
  8
0
100
AcDbSpline
 62
7
  6
CONTINUOUS
 70
0
 71
3
 72
14
 73
10
 74
0
 42
0.0000001
 43
0.0000001
 44
0.0000000001
 40
0.0
 40
0.0
 40
0.0
 40
0.0
 40
0.0861752548
 40
0.1870246376
 40
0.3010276851
 40
0.4264259368
 40
0.5612362619
 40
0.7032997055
 40
1.0
 40
1.0
 40
1.0
 40
1.0
 10
5.3933276688
 20
3.6647674845
 30
0.0
 10
5.3929636566
 20
3.6648210916
 30
0.0
 10
5.3921697578
 20
3.6649110349
 30
0.0
 10
5.3908874043
 20
3.6650011427
 30
0.0
 10
5.3894354354
 20
3.6650552977
 30
0.0
 10
5.3878376238
 20
3.6650723821
 30
0.0
 10
5.3861200471
 20
3.6650518779
 30
0.0
 10
5.3836722314
 20
3.6649734965
 30
0.0
 10
5.3818016832
 20
3.6648616105
 30
0.0
 10
5.3805385805
 20
3.6647648039
 30
0.0
  0
SPLINE
  5
326
100
AcDbEntity
  8
0
100
AcDbSpline
 62
7
  6
CONTINUOUS
 70
0
 71
3
 72
28
 73
24
 74
0
 42
0.0000001
 43
0.0000001
 44
0.0000000001
 40
0.0
 40
0.0
 40
0.0
 40
0.0
 40
0.1190703277
 40
0.2309686794
 40
0.3355778533
 40
0.4328040467
 40
0.5225667291
 40
0.604789649
 40
0.6794029309
 40
0.7463440257
 40
0.8055557983
 40
0.8569784092
 40
0.879752667
 40
0.9005615662
 40
0.9194005082
 40
0.9362667255
 40
0.9511594655
 40
0.9640779755
 40
0.9839875673
 40
0.990976393
 40
0.9959811093
 40
0.998992923
 40
1.0
 40
1.0
 40
1.0
 40
1.0
 10
4.8143967574
 20
4.0541566712
 30
0.0
 10
4.8143978081
 20
4.0557130272
 30
0.0
 10
4.8144036468
 20
4.0587319931
 30
0.0
 10
4.8144200063
 20
4.0631182682
 30
0.0
 10
4.8144386905
 20
4.0672190078
 30
0.0
 10
4.8144551795
 20
4.0710304212
 30
0.0
 10
4.8144655251
 20
4.0745492493
 30
0.0
 10
4.8144644065
 20
4.0777725278
 30
0.0
 10
4.8144436982
 20
4.0806974682
 30
0.0
 10
4.8143978948
 20
4.0833213005
 30
0.0
 10
4.8143422809
 20
4.0856417083
 30
0.0
 10
4.8142978016
 20
4.0873849138
 30
0.0
 10
4.8142712384
 20
4.0886264438
 30
0.0
 10
4.8142579555
 20
4.0894422536
 30
0.0
 10
4.814251984
 20
4.0901809333
 30
0.0
 10
4.8142546375
 20
4.0908423033
 30
0.0
 10
4.8142644598
 20
4.0914262206
 30
0.0
 10
4.8142839602
 20
4.0920496665
 30
0.0
 10
4.8143114389
 20
4.0925695575
 30
0.0
 10
4.81434894
 20
4.0929849106
 30
0.0
 10
4.8143709727
 20
4.0931798138
 30
0.0
 10
4.8143865317
 20
4.093296744
 30
0.0
 10
4.8143946383
 20
4.0933486456
 30
0.0
 10
4.8143967574
 20
4.0933616379
 30
0.0
  0
SPLINE
  5
327
100
AcDbEntity
  8
0
100
AcDbSpline
 62
7
  6
CONTINUOUS
 70
0
 71
3
 72
67
 73
63
 74
0
 42
0.0000001
 43
0.0000001
 44
0.0000000001
 40
0.0
 40
0.0
 40
0.0
 40
0.0
 40
0.0004605638
 40
0.0018400129
 40
0.0041349969
 40
0.0073421823
 40
0.0114577347
 40
0.0164736062
 40
0.0291658445
 40
0.0368218679
 40
0.0453345223
 40
0.0648643746
 40
0.0758487039
 40
0.0876222479
 40
0.1001630001
 40
0.1134484898
 40
0.1274562912
 40
0.1421633467
 40
0.1575431402
 40
0.1735680322
 40
0.1902103842
 40
0.1987544912
 40
0.2074424393
 40
0.2252340534
 40
0.2435534179
 40
0.2623686509
 40
0.2719522655
 40
0.2816478788
 40
0.2914512141
 40
0.3013578646
 40
0.3214634564
 40
0.3419293368
 40
0.3627202446
 40
0.3838005683
 40
0.4051333378
 40
0.4266812412
 40
0.4484069701
 40
0.4702731994
 40
0.4922418804
 40
0.5142745778
 40
0.5363327973
 40
0.5473594527
 40
0.5583780811
 40
0.5803722236
 40
0.6022771493
 40
0.6240547523
 40
0.6456669298
 40
0.6670761137
 40
0.6882455178
 40
0.7091384142
 40
0.7499482763
 40
0.7892226487
 40
0.8081984776
 40
0.8266881197
 40
0.8446598865
 40
0.8620831505
 40
0.8789272942
 40
0.895161829
 40
0.9256934805
 40
0.9534742751
 40
0.9783063271
 40
1.0
 40
1.0
 40
1.0
 40
1.0
 10
4.8143967574
 20
3.3783616379
 30
0.0
 10
4.8143960125
 20
3.3784653844
 30
0.0
 10
4.814393346
 20
3.3788798672
 30
0.0
 10
4.8143896928
 20
3.3798113335
 30
0.0
 10
4.8143869962
 20
3.3813615232
 30
0.0
 10
4.8143885517
 20
3.3835280661
 30
0.0
 10
4.8143976257
 20
3.3863075156
 30
0.0
 10
4.8144170746
 20
3.3912235936
 30
0.0
 10
4.8144333508
 20
3.3969372434
 30
0.0
 10
4.814432621
 20
3.403438616
 30
0.0
 10
4.8144205304
 20
3.4114802525
 30
0.0
 10
4.8144087436
 20
3.4202716508
 30
0.0
 10
4.8144210624
 20
3.429797615
 30
0.0
 10
4.8144461708
 20
3.4377491386
 30
0.0
 10
4.8144740908
 20
3.4462190261
 30
0.0
 10
4.8144944123
 20
3.4551922408
 30
0.0
 10
4.8144961759
 20
3.4646534813
 30
0.0
 10
4.8144679345
 20
3.4745864539
 30
0.0
 10
4.8144238178
 20
3.4849737429
 30
0.0
 10
4.8143789046
 20
3.4957969889
 30
0.0
 10
4.8143532381
 20
3.5050804554
 30
0.0
 10
4.8143470038
 20
3.5127111899
 30
0.0
 10
4.814351559
 20
3.5206008142
 30
0.0
 10
4.8143719546
 20
3.5306924484
 30
0.0
 10
4.8144041237
 20
3.5430653847
 30
0.0
 10
4.8144244765
 20
3.5535893686
 30
0.0
 10
4.8144296538
 20
3.5621707358
 30
0.0
 10
4.8144256815
 20
3.5687220335
 30
0.0
 10
4.8144153394
 20
3.5753460924
 30
0.0
 10
4.8143960944
 20
3.5843151471
 30
0.0
 10
4.8143674216
 20
3.5956860893
 30
0.0
 10
4.8143431454
 20
3.6095088972
 30
0.0
 10
4.8143472369
 20
3.6235513141
 30
0.0
 10
4.8143934012
 20
3.6377889321
 30
0.0
 10
4.8144590308
 20
3.6521969863
 30
0.0
 10
4.8145245381
 20
3.6667504306
 30
0.0
 10
4.8145701596
 20
3.6814241354
 30
0.0
 10
4.8145737098
 20
3.6961927013
 30
0.0
 10
4.81454832
 20
3.7110303812
 30
0.0
 10
4.8145110653
 20
3.725911281
 30
0.0
 10
4.8144833742
 20
3.7383273381
 30
0.0
 10
4.8144715857
 20
3.7482623292
 30
0.0
 10
4.8144686861
 20
3.7581828922
 30
0.0
 10
4.8144780589
 20
3.7705539527
 30
0.0
 10
4.8145008641
 20
3.7853486221
 30
0.0
 10
4.8145259668
 20
3.8000572438
 30
0.0
 10
4.8145431146
 20
3.814654205
 30
0.0
 10
4.814546445
 20
3.82911417
 30
0.0
 10
4.8145389201
 20
3.8434121034
 30
0.0
 10
4.8145166812
 20
3.8620803287
 30
0.0
 10
4.8144701792
 20
3.8848269461
 30
0.0
 10
4.8144125456
 20
3.9071416839
 30
0.0
 10
4.8143718884
 20
3.9244284738
 30
0.0
 10
4.8143474404
 20
3.9369165462
 30
0.0
 10
4.8143299977
 20
3.9490548909
 30
0.0
 10
4.8143204697
 20
3.9608225705
 30
0.0
 10
4.8143196754
 20
3.972198916
 30
0.0
 10
4.8143320093
 20
3.9865281247
 30
0.0
 10
4.8143673172
 20
4.0033209501
 30
0.0
 10
4.8144064899
 20
4.0220504991
 30
0.0
 10
4.8144087986
 20
4.0387892012
 30
0.0
 10
4.8144000327
 20
4.0492698367
 30
0.0
 10
4.8143967574
 20
4.0541566712
 30
0.0
  0
LINE
  5
328
100
AcDbEntity
  8
0
100
AcDbLine
 62
7
  6
CONTINUOUS
 10
5.3904658444
 20
3.6354687073
 11
5.389544476
 21
3.6384788693
  0
LINE
  5
329
100
AcDbEntity
  8
0
100
AcDbLine
 62
7
  6
CONTINUOUS
 10
5.3904658444
 20
3.6354687073
 11
5.390772262
 21
3.6378314334
  0
ENDSEC
  0
SECTION
  2
OBJECTS
  0
DICTIONARY
  5
C
100
AcDbDictionary
280
0
281
1
  3
ACAD_GROUP
350
D
  3
ACAD_MLINESTYLE
350
17
  3
ACAD_LAYOUT
350
1A
  3
ACAD_PLOTSETTINGS
350
19
  3
ACAD_PLOTSTYLENAME
350
E
  0
DICTIONARY
  5
D
102
{ACAD_REACTORS
330
C
102
}
100
AcDbDictionary
280
0
281
1
  0
ACDBDICTIONARYWDFLT
  5
E
102
{ACAD_REACTORS
330
C
102
}
100
AcDbDictionary
281
1
  3
Normal
350
F
100
AcDbDictionaryWithDefault
340
F
  0
DICTIONARY
  5
17
102
{ACAD_REACTORS
330
C
102
}
100
AcDbDictionary
280
0
281
1
  3
Standard
350
18
  0
DICTIONARY
  5
19
102
{ACAD_REACTORS
330
C
102
}
100
AcDbDictionary
281
1
  0
DICTIONARY
  5
1A
102
{ACAD_REACTORS
330
C
102
}
100
AcDbDictionary
281
1
  3
Model
350
32A
  3
Layout1
350
32B
  0
ACDBPLACEHOLDER
  5
F
102
{ACAD_REACTORS
330
E
102
}
  0
MLINESTYLE
  5
18
102
{ACAD_REACTORS
330
17
102
}
100
AcDbMlineStyle
  2
STANDARD
 70
0
  3

 62
256
 51
90.0
 52
90.0
 71
2
 49
0.5
 62
256
  6
BYLAYER
 49
-0.5
 62
256
  6
BYLAYER
  0
LAYOUT
  5
32A
102
{ACAD_REACTORS
330
1A
102
}
100
AcDbPlotSettings
  1

  2
none_device
  4
ANSI_A_(11.00_x_8.50_Inches)
  6

 40
0.0
 41
0.0
 42
0.0
 43
0.0
 44
279.4
 45
215.9
 46
0.0
 47
0.0
 48
0.0
 49
0.0
140
0.0
141
0.0
142
1.0
143
1.0
 70
1024
 72
0
 73
0
 74
0
  7

 75
0
147
1.0
148
0.0
149
0.0
100
AcDbLayout
  1
Model
 70
0
 71
0
 10
0.0
 20
0.0
 11
11.0
 21
8.5
 12
0.0
 22
0.0
 32
0.0
 14
0.0
 24
0.0
 34
0.0
 15
0.0
 25
0.0
 35
0.0
146
0.0
 13
0.0
 23
0.0
 33
0.0
 16
1.0
 26
0.0
 36
0.0
 17
0.0
 27
1.0
 37
0.0
 76
0
330
202
345
0
346
0
  0
LAYOUT
  5
32B
102
{ACAD_REACTORS
330
1A
102
}
100
AcDbPlotSettings
  1

  2
none_device
  4
ANSI_A_(11.00_x_8.50_Inches)
  6

 40
0.0
 41
0.0
 42
0.0
 43
0.0
 44
279.4
 45
215.9
 46
0.0
 47
0.0
 48
0.0
 49
0.0
140
0.0
141
0.0
142
1.0
143
1.0
 70
0
 72
0
 73
0
 74
0
  7

 75
0
147
1.0
148
0.0
149
0.0
100
AcDbLayout
  1
Layout1
 70
0
 71
1
 10
0.0
 20
0.0
 11
11.0
 21
8.5
 12
0.0
 22
0.0
 32
0.0
 14
0.0
 24
0.0
 34
0.0
 15
0.0
 25
0.0
 35
0.0
146
0.0
 13
0.0
 23
0.0
 33
0.0
 16
1.0
 26
0.0
 36
0.0
 17
0.0
 27
1.0
 37
0.0
 76
0
330
203
345
0
346
0
  0
ENDSEC
  0
EOF
