999
DXF file: 2473_RIGHT.dxf
999
Pro/ENGINEER 2018400 by Parametric Technology Corporation
  0
SECTION
  2
HEADER
  9
$ACADVER
  1
AC1027
  9
$DWGCODEPAGE
  3
ANSI_1252
  9
$EXTMAX
 10
11.0
 20
8.5
 30
0.0
  9
$EXTMIN
 10
0.0
 20
0.0
 30
0.0
  9
$LIMMIN
 10
0.0
 20
0.0
  9
$LIMMAX
 10
11.0
 20
8.5
  9
$VIEWCTR
 10
5.5
 20
4.25
  9
$VIEWSIZE
 40
8.5
  9
$CLAYER
  8
0
  9
$LTSCALE
 40
0.605
  9
$CELTYPE
  6
BYLAYER
  9
$DIMSCALE
 40
1.0
  9
$DIMASZ
 40
0.1
  9
$DIMEXO
 40
0.0625
  9
$DIMDLI
 40
0.418
  9
$DIMEXE
 40
0.125
  9
$DIMCEN
 40
0.099
  9
$DIMLFAC
 40
1.0
  9
$DIMBLK
  1
_FILLED
  9
$DIMALT
 70
1
  9
$DIMALTD
 70
2
  9
$DIMALTTD
 70
2
  9
$DIMALTF
 40
25.4
  9
$DIMTXT
 40
0.08
  9
$DIMTOL
 70
1
  9
$DIMLIM
 70
0
  9
$DIMTFAC
 40
1.0
  9
$DIMTP
 40
0.001
  9
$DIMTM
 40
0.001
  9
$DIMGAP
 40
0.09
  9
$DIMDSEP
 70
46
  9
$AUNITS
 70
0
  9
$PDMODE
 70
3
  9
$PDSIZE
 40
0.3125
  9
$HANDSEED
  5
32D
  9
$TILEMODE
 70
1
  9
$MEASUREMENT
 70
0
  9
$INSUNITS
 70
1
  0
ENDSEC
  0
SECTION
  2
CLASSES
  0
CLASS
  1
ACDBDICTIONARYWDFLT
  2
AcDbDictionaryWithDefault
  3
AutoCAD 2000
 90
0
 91
1
280
0
281
0
  0
CLASS
  1
ACDBPLACEHOLDER
  2
AcDbPlaceHolder
  3
AutoCAD 2000
 90
0
 91
1
280
0
281
0
  0
CLASS
  1
LAYOUT
  2
AcDbLayout
  3
AutoCAD 2000
 90
0
 91
0
280
0
281
0
  0
ENDSEC
  0
SECTION
  2
TABLES
  0
TABLE
  2
VPORT
  5
8
100
AcDbSymbolTable
 70
2
  0
VPORT
  5
1F4
100
AcDbSymbolTableRecord
100
AcDbViewportTableRecord
  2
*ACTIVE
 70
0
 10
0.0
 20
0.0
 11
1.0
 21
1.0
 12
5.5
 22
4.25
 13
0.0
 23
0.0
 14
1.0
 24
1.0
 15
0.0
 25
0.0
 16
0.0
 26
0.0
 36
1.0
 17
0.0
 27
0.0
 37
0.0
 40
8.5
 41
1.2941176471
 42
50.0
 43
0.0
 44
0.0
 50
0.0
 51
0.0
 71
0
 72
100
 73
1
 74
1
 75
0
 76
0
 77
0
 78
0
  0
ENDTAB
  0
TABLE
  2
LTYPE
  5
5
100
AcDbSymbolTable
 70
6
  0
LTYPE
  5
14
100
AcDbSymbolTableRecord
100
AcDbLinetypeTableRecord
  2
BYBLOCK
 70
0
  3

 72
65
 73
0
 40
0.0
  0
LTYPE
  5
15
100
AcDbSymbolTableRecord
100
AcDbLinetypeTableRecord
  2
BYLAYER
 70
0
  3

 72
65
 73
0
 40
0.0
  0
LTYPE
  5
16
100
AcDbSymbolTableRecord
100
AcDbLinetypeTableRecord
  2
CONTINUOUS
 70
64
  3
Solid line
 72
65
 73
0
 40
0.0
  0
LTYPE
  5
1F5
100
AcDbSymbolTableRecord
100
AcDbLinetypeTableRecord
  2
CENTER
 70
64
  3
____ _ ____ _ ____ _ ____ _ ____ _ ____ _ ____
 72
65
 73
4
 40
0.6
 49
0.375
 74
0
 49
-0.075
 74
0
 49
0.075
 74
0
 49
-0.075
 74
0
  0
LTYPE
  5
1F6
100
AcDbSymbolTableRecord
100
AcDbLinetypeTableRecord
  2
HIDDEN
 70
64
  3
- - - - - - - - - - - - - - - - - - - -
 72
65
 73
2
 40
0.2
 49
0.1
 74
0
 49
-0.1
 74
0
  0
LTYPE
  5
1F7
100
AcDbSymbolTableRecord
100
AcDbLinetypeTableRecord
  2
PHANTOM
 70
64
  3
_____ _ _ _____ _ _ _____ _ _ _____
 72
65
 73
6
 40
0.8
 49
0.45
 74
0
 49
-0.05
 74
0
 49
0.1
 74
0
 49
-0.05
 74
0
 49
0.1
 74
0
 49
-0.05
 74
0
  0
LTYPE
  5
1F8
100
AcDbSymbolTableRecord
100
AcDbLinetypeTableRecord
  2
DOT
 70
64
  3
. . . . . . . . . . . . . . . . . . . .
 72
65
 73
2
 40
0.2
 49
0.1
 74
0
 49
-0.1
 74
0
  0
LTYPE
  5
1F9
100
AcDbSymbolTableRecord
100
AcDbLinetypeTableRecord
  2
DASHED
 70
64
  3
- - - - - - - - - - - - - - - - - - - -
 72
65
 73
2
 40
0.2
 49
0.1
 74
0
 49
-0.1
 74
0
  0
ENDTAB
  0
TABLE
  2
LAYER
  5
2
100
AcDbSymbolTable
 70
36
  0
LAYER
  5
10
100
AcDbSymbolTableRecord
100
AcDbLayerTableRecord
  2
0
 70
0
 62
7
  6
CONTINUOUS
370
-3
390
F
  0
LAYER
  5
1FA
100
AcDbSymbolTableRecord
100
AcDbLayerTableRecord
  2
DEFAULT_1
 70
0
 62
7
  6
CENTER
370
-3
390
F
  0
LAYER
  5
1FB
100
AcDbSymbolTableRecord
100
AcDbLayerTableRecord
  2
DEFAULT_2
 70
0
 62
8
  6
HIDDEN
370
-3
390
F
  0
LAYER
  5
1FC
100
AcDbSymbolTableRecord
100
AcDbLayerTableRecord
  2
DEFAULT_3
 70
0
 62
7
  6
PHANTOM
370
-3
390
F
  0
LAYER
  5
1FD
100
AcDbSymbolTableRecord
100
AcDbLayerTableRecord
  2
DEFAULT_COORDINATE_SYSTEM
 70
0
 62
7
  6
CONTINUOUS
370
-3
390
F
  0
LAYER
  5
1FE
100
AcDbSymbolTableRecord
100
AcDbLayerTableRecord
  2
DEFAULT_DATUM_AXES
 70
0
 62
7
  6
CONTINUOUS
370
-3
390
F
  0
LAYER
  5
1FF
100
AcDbSymbolTableRecord
100
AcDbLayerTableRecord
  2
DEFAULT_DATUM_PLANES
 70
0
 62
7
  6
CONTINUOUS
370
-3
390
F
  0
ENDTAB
  0
TABLE
  2
STYLE
  5
3
100
AcDbSymbolTable
 70
1
  0
STYLE
  5
11
100
AcDbSymbolTableRecord
100
AcDbTextStyleTableRecord
  2
STANDARD
 70
0
 40
0.0
 41
0.8
 50
0.0
 71
0
 42
0.2
  3
txt
  4

  0
STYLE
  5
200
100
AcDbSymbolTableRecord
100
AcDbTextStyleTableRecord
  2
TEXTSTYLE_1
 70
0
 40
0.0
 41
0.8
 50
0.0
 71
0
 42
0.2
  3
gdt
  4

  0
ENDTAB
  0
TABLE
  2
VIEW
  5
6
100
AcDbSymbolTable
 70
0
  0
ENDTAB
  0
TABLE
  2
UCS
  5
7
100
AcDbSymbolTable
 70
0
  0
ENDTAB
  0
TABLE
  2
APPID
  5
9
100
AcDbSymbolTable
 70
1
  0
APPID
  5
201
100
AcDbSymbolTableRecord
100
AcDbRegAppTableRecord
  2
ACAD
 70
0
  0
ENDTAB
  0
TABLE
  2
BLOCK_RECORD
  5
1
100
AcDbSymbolTable
 70
0
  0
BLOCK_RECORD
  5
202
100
AcDbSymbolTableRecord
100
AcDbBlockTableRecord
  2
*Model_Space
  0
BLOCK_RECORD
  5
203
100
AcDbSymbolTableRecord
100
AcDbBlockTableRecord
  2
*Paper_Space
  0
BLOCK_RECORD
  5
204
100
AcDbSymbolTableRecord
100
AcDbBlockTableRecord
  2
_FILLED
  0
ENDTAB
  0
TABLE
  2
DIMSTYLE
  5
A
100
AcDbSymbolTable
 70
1
100
AcDbDimStyleTable
 71
0
  0
DIMSTYLE
105
205
100
AcDbSymbolTableRecord
100
AcDbDimStyleTableRecord
  2
STANDARD
 70
0
  3

  4

 40
1.0
 41
0.1
 42
0.0625
 43
0.38
 44
0.125
 45
0.0
 46
0.0
 47
0.001
 48
0.001
140
0.08
141
0.09
142
0.0
143
25.4
144
1.0
145
0.0
146
1.0
147
0.09
 71
1.0
 72
0.0
 73
1
 74
1
 75
0
 76
0
 77
0
 78
4
 79
1
170
1
171
2
172
0
173
0
174
0
175
0
176
0
177
0
178
0
270
2
179
3
271
3
272
3
273
2
274
2
275
0
280
0
281
0
282
0
283
1
284
4
285
0
286
0
287
3
288
0
340
11
278
46
341
204
342
204
343
204
344
204
  0
ENDTAB
  0
ENDSEC
  0
SECTION
  2
BLOCKS
  0
BLOCK
  5
20
100
AcDbEntity
  8
0
100
AcDbBlockBegin
  2
*Model_Space
 70
0
 10
0.0
 20
0.0
 30
0.0
  3
*Model_Space
  1

  0
ENDBLK
  5
21
100
AcDbEntity
  8
0
100
AcDbBlockEnd
  0
BLOCK
  5
1C
100
AcDbEntity
  8
0
100
AcDbBlockBegin
  2
*Paper_Space
 70
0
 10
0.0
 20
0.0
 30
0.0
  3
*Paper_Space
  1

  0
ENDBLK
  5
1D
100
AcDbEntity
  8
0
100
AcDbBlockEnd
  0
BLOCK
  5
206
100
AcDbEntity
  8
0
100
AcDbBlockBegin
  2
_FILLED
 70
64
 10
0.0
 20
0.0
  3
_FILLED
  1

  0
SOLID
  5
207
100
AcDbEntity
  8
0
  6
BYBLOCK
 62
0
100
AcDbTrace
 10
0.0
 20
0.0
 11
-1.0
 21
0.2
 12
-1.0
 22
-0.2
 13
-1.0
 23
-0.2
  0
ENDBLK
  5
208
100
AcDbEntity
  8
0
  6
BYBLOCK
 62
0
100
AcDbBlockEnd
  0
ENDSEC
  0
SECTION
  2
ENTITIES
  0
MTEXT
  5
209
100
AcDbEntity
  8
0
100
AcDbMText
 62
2
  6
CONTINUOUS
  7
STANDARD
 71
3
 72
1
 10
4.8046695603
 20
1.306383377
 30
0.0
 11
1.0
 21
0.0
 31
0.0
 73
2
 44
0.9
  1
SCALE  .500
 40
0.08
 41
0.704
  0
LINE
  5
20A
100
AcDbEntity
  8
0
100
AcDbLine
 62
7
  6
CONTINUOUS
 10
0.0
 20
0.0
 11
0.0
 21
8.5
  0
LINE
  5
20B
100
AcDbEntity
  8
0
100
AcDbLine
 62
7
  6
CONTINUOUS
 10
0.0
 20
0.0
 11
11.0
 21
0.0
  0
LINE
  5
20C
100
AcDbEntity
  8
0
100
AcDbLine
 62
7
  6
CONTINUOUS
 10
0.0
 20
8.5
 11
11.0
 21
8.5
  0
LINE
  5
20D
100
AcDbEntity
  8
0
100
AcDbLine
 62
7
  6
CONTINUOUS
 10
11.0
 20
0.0
 11
11.0
 21
8.5
  0
LINE
  5
20E
100
AcDbEntity
  8
0
100
AcDbLine
 62
7
  6
CONTINUOUS
 10
5.5012557852
 20
2.3698616379
 11
6.62702761
 21
2.3698616379
  0
LINE
  5
20F
100
AcDbEntity
  8
0
100
AcDbLine
 62
7
  6
CONTINUOUS
 10
2.8756617646
 20
5.5183616379
 11
2.8756617646
 21
5.5128811335
  0
LINE
  5
210
100
AcDbEntity
  8
0
100
AcDbLine
 62
7
  6
CONTINUOUS
 10
2.9331617646
 20
5.603583756
 11
2.9331617646
 21
5.5533616379
  0
LINE
  5
211
100
AcDbEntity
  8
0
100
AcDbLine
 62
7
  6
CONTINUOUS
 10
5.4849905947
 20
2.405127966
 11
6.6432928005
 21
2.405127966
  0
LINE
  5
212
100
AcDbEntity
  8
0
100
AcDbLine
 62
7
  6
CONTINUOUS
 10
6.5677216707
 20
2.4759177715
 11
5.5605617245
 21
2.4759177715
  0
LINE
  5
213
100
AcDbEntity
  8
0
100
AcDbLine
 62
7
  6
CONTINUOUS
 10
6.567603315
 20
2.4918533172
 11
5.5606800802
 21
2.4918533172
  0
LINE
  5
214
100
AcDbEntity
  8
0
100
AcDbLine
 62
7
  6
CONTINUOUS
 10
5.5541748561
 20
2.5174543028
 11
6.5741085391
 21
2.5174543028
  0
LINE
  5
215
100
AcDbEntity
  8
0
100
AcDbLine
 62
7
  6
CONTINUOUS
 10
2.8984917378
 20
5.4536881508
 11
2.9141013499
 21
5.2624350695
  0
LINE
  5
216
100
AcDbEntity
  8
0
100
AcDbLine
 62
7
  6
CONTINUOUS
 10
5.5770783559
 20
2.5918119392
 11
6.5512050393
 21
2.5918119392
  0
LINE
  5
217
100
AcDbEntity
  8
0
100
AcDbLine
 62
7
  6
CONTINUOUS
 10
5.6051416976
 20
2.6179422331
 11
6.5231416976
 21
2.6179422331
  0
LINE
  5
218
100
AcDbEntity
  8
0
100
AcDbLine
 62
7
  6
CONTINUOUS
 10
3.3081617646
 20
5.603583756
 11
3.3081617646
 21
5.5533616379
  0
LINE
  5
219
100
AcDbEntity
  8
0
100
AcDbLine
 62
7
  6
CONTINUOUS
 10
3.3428317914
 20
5.4536881508
 11
3.3272221793
 21
5.2624350695
  0
LINE
  5
21A
100
AcDbEntity
  8
0
100
AcDbLine
 62
7
  6
CONTINUOUS
 10
6.4188141615
 20
2.8299350572
 11
5.7094692337
 21
2.8299350572
  0
LINE
  5
21B
100
AcDbEntity
  8
0
100
AcDbLine
 62
7
  6
CONTINUOUS
 10
6.4177340558
 20
2.8484060575
 11
5.7105493394
 21
2.8484060575
  0
LINE
  5
21C
100
AcDbEntity
  8
0
100
AcDbLine
 62
7
  6
CONTINUOUS
 10
6.4005557167
 20
2.9038889944
 11
5.7277276785
 21
2.9038889944
  0
LINE
  5
21D
100
AcDbEntity
  8
0
100
AcDbLine
 62
7
  6
CONTINUOUS
 10
6.3878666976
 20
2.9234254415
 11
5.7404166976
 21
2.9234254415
  0
LINE
  5
21E
100
AcDbEntity
  8
0
100
AcDbLine
 62
7
  6
CONTINUOUS
 10
3.3656617646
 20
5.5183616379
 11
3.3656617646
 21
5.5128811335
  0
LINE
  5
21F
100
AcDbEntity
  8
0
100
AcDbLine
 62
7
  6
CONTINUOUS
 10
3.8952955773
 20
6.0146992775
 11
4.0235531311
 21
6.3670840103
  0
LINE
  5
220
100
AcDbEntity
  8
0
100
AcDbLine
 62
7
  6
CONTINUOUS
 10
6.3878666976
 20
3.0762382309
 11
5.7404166976
 21
3.0762382309
  0
LINE
  5
221
100
AcDbEntity
  8
0
100
AcDbLine
 62
7
  6
CONTINUOUS
 10
6.4018804756
 20
3.1123210131
 11
5.7264029196
 21
3.1123210131
  0
LINE
  5
222
100
AcDbEntity
  8
0
100
AcDbLine
 62
7
  6
CONTINUOUS
 10
6.3906710742
 20
3.1843988582
 11
5.737612321
 21
3.1843988582
  0
LINE
  5
223
100
AcDbEntity
  8
0
100
AcDbLine
 62
7
  6
CONTINUOUS
 10
6.3785397466
 20
3.2025362802
 11
5.7497436487
 21
3.2025362802
  0
LINE
  5
224
100
AcDbEntity
  8
0
100
AcDbLine
 62
7
  6
CONTINUOUS
 10
5.9458953802
 20
3.4871801909
 11
5.9484850164
 21
3.4871790247
  0
LINE
  5
225
100
AcDbEntity
  8
0
100
AcDbLine
 62
7
  6
CONTINUOUS
 10
6.1795743511
 20
3.4870749571
 11
6.1821639875
 21
3.4870737909
  0
LINE
  5
226
100
AcDbEntity
  8
0
100
AcDbLine
 62
7
  6
CONTINUOUS
 10
5.9247158948
 20
3.5071567426
 11
5.9268277744
 21
3.5071557916
  0
LINE
  5
227
100
AcDbEntity
  8
0
100
AcDbLine
 62
7
  6
CONTINUOUS
 10
6.2012495768
 20
3.5070322099
 11
6.2033614562
 21
3.5070312589
  0
LINE
  5
228
100
AcDbEntity
  8
0
100
AcDbLine
 62
7
  6
CONTINUOUS
 10
5.964361248
 20
3.9297927073
 11
6.1643612277
 21
3.9297026404
  0
LINE
  5
229
100
AcDbEntity
  8
0
100
AcDbLine
 62
7
  6
CONTINUOUS
 10
5.9643732133
 20
3.9563625704
 11
6.1643731931
 21
3.9562725035
  0
LINE
  5
22A
100
AcDbEntity
  8
0
100
AcDbLine
 62
7
  6
CONTINUOUS
 10
5.9512816684
 20
3.9751405216
 11
6.1774816454
 21
3.9750386559
  0
LINE
  5
22B
100
AcDbEntity
  8
0
100
AcDbLine
 62
7
  6
CONTINUOUS
 10
6.1965375007
 20
4.0092048388
 11
5.9322565933
 21
4.0093238537
  0
LINE
  5
22C
100
AcDbEntity
  8
0
100
AcDbLine
 62
7
  6
CONTINUOUS
 10
4.9347703982
 20
5.6363613835
 11
5.0630279519
 21
5.9887461163
  0
LINE
  5
22D
100
AcDbEntity
  8
0
100
AcDbLine
 62
7
  6
CONTINUOUS
 10
5.8755446848
 20
5.0865467529
 11
5.9277879623
 21
5.1103693519
  0
LINE
  5
22E
100
AcDbEntity
  8
0
100
AcDbLine
 62
7
  6
CONTINUOUS
 10
6.2021818957
 20
4.1330462249
 11
5.9267237407
 21
4.1331702732
  0
LINE
  5
22F
100
AcDbEntity
  8
0
100
AcDbLine
 62
7
  6
CONTINUOUS
 10
5.9436601646
 20
4.1693800904
 11
6.1852780917
 21
4.1692712815
  0
LINE
  5
230
100
AcDbEntity
  8
0
100
AcDbLine
 62
7
  6
CONTINUOUS
 10
5.9556881506
 20
4.1898412279
 11
6.1732685393
 21
4.1897432439
  0
LINE
  5
231
100
AcDbEntity
  8
0
100
AcDbLine
 62
7
  6
CONTINUOUS
 10
6.1928044554
 20
3.5421050891
 11
6.2078017904
 21
3.5361838832
  0
LINE
  5
232
100
AcDbEntity
  8
0
100
AcDbLine
 62
7
  6
CONTINUOUS
 10
6.187763617
 20
3.5202508018
 11
6.2012484657
 21
3.5070321918
  0
LINE
  5
233
100
AcDbEntity
  8
0
100
AcDbLine
 62
7
  6
CONTINUOUS
 10
5.2051617646
 20
5.5423616379
 11
5.2051617646
 21
6.0073616379
  0
LINE
  5
234
100
AcDbEntity
  8
0
100
AcDbLine
 62
7
  6
CONTINUOUS
 10
5.2401617646
 20
5.5073616379
 11
5.2401617646
 21
6.0423616379
  0
LINE
  5
235
100
AcDbEntity
  8
0
100
AcDbLine
 62
7
  6
CONTINUOUS
 10
5.2442905731
 20
5.5073616379
 11
5.2442905731
 21
6.0423616379
  0
LINE
  5
236
100
AcDbEntity
  8
0
100
AcDbLine
 62
7
  6
CONTINUOUS
 10
5.2761059259
 20
5.5277745429
 11
5.2761059259
 21
6.0219487329
  0
LINE
  5
237
100
AcDbEntity
  8
0
100
AcDbLine
 62
7
  6
CONTINUOUS
 10
5.2948114018
 20
5.542029901
 11
5.2948114018
 21
6.0076933747
  0
LINE
  5
238
100
AcDbEntity
  8
0
100
AcDbLine
 62
7
  6
CONTINUOUS
 10
6.2348263778
 20
4.96258551
 11
5.8948264123
 21
4.9627386237
  0
LINE
  5
239
100
AcDbEntity
  8
0
100
AcDbLine
 62
7
  6
CONTINUOUS
 10
6.169473396
 20
3.4981641729
 11
6.1795743518
 21
3.4870749578
  0
LINE
  5
23A
100
AcDbEntity
  8
0
100
AcDbLine
 62
7
  6
CONTINUOUS
 10
6.1797633066
 20
3.5084483483
 11
6.1908484597
 21
3.4955256948
  0
LINE
  5
23B
100
AcDbEntity
  8
0
100
AcDbLine
 62
7
  6
CONTINUOUS
 10
6.2666043996
 20
5.0243506233
 11
5.8631040332
 21
5.0245323335
  0
LINE
  5
23C
100
AcDbEntity
  8
0
100
AcDbLine
 62
7
  6
CONTINUOUS
 10
5.8624339327
 20
5.0423387215
 11
6.2672905376
 21
5.0421564006
  0
LINE
  5
23D
100
AcDbEntity
  8
0
100
AcDbLine
 62
7
  6
CONTINUOUS
 10
5.8524623733
 20
5.053033101
 11
6.277271725
 21
5.0528417947
  0
LINE
  5
23E
100
AcDbEntity
  8
0
100
AcDbLine
 62
7
  6
CONTINUOUS
 10
5.8755446848
 20
5.0865467529
 11
6.2542196076
 21
5.0863762224
  0
LINE
  5
23F
100
AcDbEntity
  8
0
100
AcDbLine
 62
7
  6
CONTINUOUS
 10
5.9277879623
 20
5.1103693519
 11
6.2019978075
 21
5.1102458657
  0
LINE
  5
240
100
AcDbEntity
  8
0
100
AcDbLine
 62
7
  6
CONTINUOUS
 10
6.0302117545
 20
5.1322631745
 11
6.099593776
 21
5.1322319294
  0
LINE
  5
241
100
AcDbEntity
  8
0
100
AcDbLine
 62
7
  6
CONTINUOUS
 10
5.6405121274
 20
6.0076933747
 11
5.6405121274
 21
5.542029901
  0
LINE
  5
242
100
AcDbEntity
  8
0
100
AcDbLine
 62
7
  6
CONTINUOUS
 10
5.6592176034
 20
6.0219487329
 11
5.6592176034
 21
5.5277745429
  0
LINE
  5
243
100
AcDbEntity
  8
0
100
AcDbLine
 62
7
  6
CONTINUOUS
 10
5.6910329562
 20
5.5073616379
 11
5.6910329562
 21
6.0423616379
  0
LINE
  5
244
100
AcDbEntity
  8
0
100
AcDbLine
 62
7
  6
CONTINUOUS
 10
5.6951617646
 20
5.5073616379
 11
5.6951617646
 21
6.0423616379
  0
LINE
  5
245
100
AcDbEntity
  8
0
100
AcDbLine
 62
7
  6
CONTINUOUS
 10
5.7298555317
 20
6.0118904887
 11
5.7298569659
 21
6.0119706518
  0
LINE
  5
246
100
AcDbEntity
  8
0
100
AcDbLine
 62
7
  6
CONTINUOUS
 10
2.920662072
 20
5.1683616379
 11
3.3206614572
 21
5.1683616379
  0
LINE
  5
247
100
AcDbEntity
  8
0
100
AcDbLine
 62
7
  6
CONTINUOUS
 10
3.3353718867
 20
5.2202122511
 11
2.9059516426
 21
5.2202122511
  0
LINE
  5
248
100
AcDbEntity
  8
0
100
AcDbLine
 62
7
  6
CONTINUOUS
 10
3.3272221793
 20
5.2624350695
 11
2.9141013499
 21
5.2624350695
  0
LINE
  5
249
100
AcDbEntity
  8
0
100
AcDbLine
 62
7
  6
CONTINUOUS
 10
5.8733871479
 20
3.6158011248
 11
5.8733771517
 21
3.6323793731
  0
LINE
  5
24A
100
AcDbEntity
  8
0
100
AcDbLine
 62
7
  6
CONTINUOUS
 10
5.7404166976
 20
2.9234254415
 11
5.7404166976
 21
3.0762382309
  0
LINE
  5
24B
100
AcDbEntity
  8
0
100
AcDbLine
 62
7
  6
CONTINUOUS
 10
5.8121416976
 20
6.3283616379
 11
5.8121416976
 21
6.3683616379
  0
LINE
  5
24C
100
AcDbEntity
  8
0
100
AcDbLine
 62
7
  6
CONTINUOUS
 10
5.7298336168
 20
5.8382103809
 11
5.7298569659
 21
6.0119706518
  0
LINE
  5
24D
100
AcDbEntity
  8
0
100
AcDbLine
 62
7
  6
CONTINUOUS
 10
5.7298366512
 20
5.8443803934
 11
5.7298371139
 21
5.8504964265
  0
LINE
  5
24E
100
AcDbEntity
  8
0
100
AcDbLine
 62
7
  6
CONTINUOUS
 10
5.7298476759
 20
5.9408837033
 11
5.7298479676
 21
5.9450875662
  0
LINE
  5
24F
100
AcDbEntity
  8
0
100
AcDbLine
 62
7
  6
CONTINUOUS
 10
5.7298458418
 20
5.9274565847
 11
5.7298461353
 21
5.9320693303
  0
LINE
  5
250
100
AcDbEntity
  8
0
100
AcDbLine
 62
7
  6
CONTINUOUS
 10
5.7298408536
 20
5.8914972332
 11
5.7298411699
 21
5.896990368
  0
LINE
  5
251
100
AcDbEntity
  8
0
100
AcDbLine
 62
7
  6
CONTINUOUS
 10
5.729852571
 20
5.9771311803
 11
5.7298528851
 21
5.9829189079
  0
LINE
  5
252
100
AcDbEntity
  8
0
100
AcDbLine
 62
7
  6
CONTINUOUS
 10
6.3507065046
 20
5.3795595102
 11
5.7775768907
 21
5.3795595102
  0
LINE
  5
253
100
AcDbEntity
  8
0
100
AcDbLine
 62
7
  6
CONTINUOUS
 10
6.3682182326
 20
5.4273334989
 11
5.7600651626
 21
5.4273334989
  0
LINE
  5
254
100
AcDbEntity
  8
0
100
AcDbLine
 62
7
  6
CONTINUOUS
 10
5.7503626552
 20
5.4497603311
 11
6.37792074
 21
5.4497603311
  0
LINE
  5
255
100
AcDbEntity
  8
0
100
AcDbLine
 62
7
  6
CONTINUOUS
 10
3.3428317914
 20
5.4536881508
 11
2.8984917378
 21
5.4536881508
  0
LINE
  5
256
100
AcDbEntity
  8
0
100
AcDbLine
 62
7
  6
CONTINUOUS
 10
5.7495739963
 20
5.4551547455
 11
6.378709399
 21
5.4551547455
  0
LINE
  5
257
100
AcDbEntity
  8
0
100
AcDbLine
 62
7
  6
CONTINUOUS
 10
3.3601629298
 20
5.4972380981
 11
2.8811605995
 21
5.4972380981
  0
LINE
  5
258
100
AcDbEntity
  8
0
100
AcDbLine
 62
7
  6
CONTINUOUS
 10
6.3679295872
 20
5.5017419196
 11
5.760353808
 21
5.5017419196
  0
LINE
  5
259
100
AcDbEntity
  8
0
100
AcDbLine
 62
7
  6
CONTINUOUS
 10
5.7566033402
 20
5.5034352609
 11
6.371680055
 21
5.5034352609
  0
LINE
  5
25A
100
AcDbEntity
  8
0
100
AcDbLine
 62
7
  6
CONTINUOUS
 10
5.6951617646
 20
5.5073616379
 11
5.6910329562
 21
5.5073616379
  0
LINE
  5
25B
100
AcDbEntity
  8
0
100
AcDbLine
 62
7
  6
CONTINUOUS
 10
5.2442905731
 20
5.5073616379
 11
5.2401617646
 21
5.5073616379
  0
LINE
  5
25C
100
AcDbEntity
  8
0
100
AcDbLine
 62
7
  6
CONTINUOUS
 10
2.8756617646
 20
5.5128811335
 11
3.3656617646
 21
5.5128811335
  0
LINE
  5
25D
100
AcDbEntity
  8
0
100
AcDbLine
 62
7
  6
CONTINUOUS
 10
2.8756617646
 20
5.5183616379
 11
3.3656617646
 21
5.5183616379
  0
LINE
  5
25E
100
AcDbEntity
  8
0
100
AcDbLine
 62
7
  6
CONTINUOUS
 10
5.9516416976
 20
6.1908616379
 11
5.9516416976
 21
6.2033616379
  0
LINE
  5
25F
100
AcDbEntity
  8
0
100
AcDbLine
 62
7
  6
CONTINUOUS
 10
6.0641416976
 20
3.2687561088
 11
6.0641416976
 21
3.3331116787
  0
LINE
  5
260
100
AcDbEntity
  8
0
100
AcDbLine
 62
7
  6
CONTINUOUS
 10
5.9065745599
 20
3.5868129911
 11
5.9065529248
 21
3.5387708005
  0
LINE
  5
261
100
AcDbEntity
  8
0
100
AcDbLine
 62
7
  6
CONTINUOUS
 10
5.920318602
 20
3.5735800078
 11
5.9203018195
 21
3.5363133544
  0
LINE
  5
262
100
AcDbEntity
  8
0
100
AcDbLine
 62
7
  6
CONTINUOUS
 10
5.9353131509
 20
3.561472105
 11
5.9353044815
 21
3.5422210503
  0
LINE
  5
263
100
AcDbEntity
  8
0
100
AcDbLine
 62
7
  6
CONTINUOUS
 10
5.9643732133
 20
3.9563625704
 11
5.964361248
 21
3.9297927073
  0
LINE
  5
264
100
AcDbEntity
  8
0
100
AcDbLine
 62
7
  6
CONTINUOUS
 10
5.9353044815
 20
3.5422210502
 11
5.9203018195
 21
3.5363133544
  0
LINE
  5
265
100
AcDbEntity
  8
0
100
AcDbLine
 62
7
  6
CONTINUOUS
 10
2.9106617646
 20
5.5533616379
 11
3.3306617646
 21
5.5533616379
  0
LINE
  5
266
100
AcDbEntity
  8
0
100
AcDbLine
 62
7
  6
CONTINUOUS
 10
3.3081617646
 20
5.603583756
 11
2.9331617646
 21
5.603583756
  0
LINE
  5
267
100
AcDbEntity
  8
0
100
AcDbLine
 62
7
  6
CONTINUOUS
 10
4.9347703982
 20
5.6363613835
 11
3.8952955773
 21
6.0146992775
  0
LINE
  5
268
100
AcDbEntity
  8
0
100
AcDbLine
 62
7
  6
CONTINUOUS
 10
6.2542196076
 20
5.0863762224
 11
6.2019978075
 21
5.1102458657
  0
LINE
  5
269
100
AcDbEntity
  8
0
100
AcDbLine
 62
7
  6
CONTINUOUS
 10
6.2179968463
 20
3.5593394267
 11
6.2162699896
 21
3.5650601026
  0
LINE
  5
26A
100
AcDbEntity
  8
0
100
AcDbLine
 62
7
  6
CONTINUOUS
 10
6.1766416976
 20
6.1908616379
 11
6.1766416976
 21
6.2033616379
  0
LINE
  5
26B
100
AcDbEntity
  8
0
100
AcDbLine
 62
7
  6
CONTINUOUS
 10
6.1643731931
 20
3.9562725035
 11
6.1643612277
 21
3.9297026404
  0
LINE
  5
26C
100
AcDbEntity
  8
0
100
AcDbLine
 62
7
  6
CONTINUOUS
 10
6.1928044554
 20
3.5421050891
 11
6.1928130359
 21
3.5611586672
  0
LINE
  5
26D
100
AcDbEntity
  8
0
100
AcDbLine
 62
7
  6
CONTINUOUS
 10
6.2078017904
 20
3.5361838832
 11
6.2078184684
 21
3.5732186173
  0
LINE
  5
26E
100
AcDbEntity
  8
0
100
AcDbLine
 62
7
  6
CONTINUOUS
 10
6.2215528929
 20
3.5386289451
 11
6.2215744057
 21
3.5863996668
  0
LINE
  5
26F
100
AcDbEntity
  8
0
100
AcDbLine
 62
7
  6
CONTINUOUS
 10
6.2548121394
 20
3.6317358591
 11
6.2547880351
 21
3.6156293668
  0
LINE
  5
270
100
AcDbEntity
  8
0
100
AcDbLine
 62
7
  6
CONTINUOUS
 10
5.9101276232
 20
3.5594780709
 11
5.9118596317
 21
3.5651971892
  0
LINE
  5
271
100
AcDbEntity
  8
0
100
AcDbLine
 62
7
  6
CONTINUOUS
 10
5.9483176127
 20
3.5085539556
 11
5.9372202028
 21
3.4956414569
  0
LINE
  5
272
100
AcDbEntity
  8
0
100
AcDbLine
 62
7
  6
CONTINUOUS
 10
5.9585959552
 20
3.4982591383
 11
5.9484850157
 21
3.4871790253
  0
LINE
  5
273
100
AcDbEntity
  8
0
100
AcDbLine
 62
7
  6
CONTINUOUS
 10
5.9403211176
 20
3.5203626797
 11
5.926824659
 21
3.5071554786
  0
LINE
  5
274
100
AcDbEntity
  8
0
100
AcDbLine
 62
7
  6
CONTINUOUS
 10
6.3161416976
 20
6.3283616379
 11
6.3161416976
 21
6.3683616379
  0
LINE
  5
275
100
AcDbEntity
  8
0
100
AcDbLine
 62
7
  6
CONTINUOUS
 10
6.3878666976
 20
2.9234254415
 11
6.3878666976
 21
3.0762382309
  0
LINE
  5
276
100
AcDbEntity
  8
0
100
AcDbLine
 62
7
  6
CONTINUOUS
 10
5.6951617646
 20
6.0423616379
 11
5.6910329562
 21
6.0423616379
  0
LINE
  5
277
100
AcDbEntity
  8
0
100
AcDbLine
 62
7
  6
CONTINUOUS
 10
5.2442905731
 20
6.0423616379
 11
5.2401617646
 21
6.0423616379
  0
LINE
  5
278
100
AcDbEntity
  8
0
100
AcDbLine
 62
7
  6
CONTINUOUS
 10
5.0630279519
 20
5.9887461163
 11
4.0235531311
 21
6.3670840103
  0
LINE
  5
279
100
AcDbEntity
  8
0
100
AcDbLine
 62
7
  6
CONTINUOUS
 10
6.2570089844
 20
6.1363853749
 11
5.8712744108
 21
6.1363853749
  0
LINE
  5
27A
100
AcDbEntity
  8
0
100
AcDbLine
 62
7
  6
CONTINUOUS
 10
6.2464338714
 20
6.1532165606
 11
5.8818495238
 21
6.1532165606
  0
LINE
  5
27B
100
AcDbEntity
  8
0
100
AcDbLine
 62
7
  6
CONTINUOUS
 10
6.2072166976
 20
6.1908616379
 11
5.9210666976
 21
6.1908616379
  0
LINE
  5
27C
100
AcDbEntity
  8
0
100
AcDbLine
 62
7
  6
CONTINUOUS
 10
6.1766416976
 20
6.2033616379
 11
5.9516416976
 21
6.2033616379
  0
LINE
  5
27D
100
AcDbEntity
  8
0
100
AcDbLine
 62
7
  6
CONTINUOUS
 10
5.8221416976
 20
6.3183616379
 11
6.3061416976
 21
6.3183616379
  0
LINE
  5
27E
100
AcDbEntity
  8
0
100
AcDbLine
 62
7
  6
CONTINUOUS
 10
5.8121416976
 20
6.3283616379
 11
6.3161416976
 21
6.3283616379
  0
LINE
  5
27F
100
AcDbEntity
  8
0
100
AcDbLine
 62
7
  6
CONTINUOUS
 10
5.8121416976
 20
6.3683616379
 11
6.3161416976
 21
6.3683616379
  0
LINE
  5
280
100
AcDbEntity
  8
0
100
AcDbLine
 62
7
  6
CONTINUOUS
 10
5.8221416976
 20
6.3783616379
 11
6.3061416976
 21
6.3783616379
  0
ARC
  5
281
100
AcDbEntity
  8
0
100
AcDbCircle
 62
7
  6
CONTINUOUS
 10
4.0966144267
 20
3.6757476774
 40
1.82
100
AcDbArc
 50
356.8890191719
 51
356.9627950461
  0
ARC
  5
282
100
AcDbEntity
  8
0
100
AcDbCircle
 62
7
  6
CONTINUOUS
 10
5.8380760294
 20
2.1039222067
 40
0.4641055183
100
AcDbArc
 50
126.7234940814
 51
139.533578312
  0
ARC
  5
283
100
AcDbEntity
  8
0
100
AcDbCircle
 62
7
  6
CONTINUOUS
 10
5.2537733748
 20
2.6506936491
 40
0.3286229872
100
AcDbArc
 50
336.0809144482
 51
349.6781735879
  0
ARC
  5
284
100
AcDbEntity
  8
0
100
AcDbCircle
 62
7
  6
CONTINUOUS
 10
5.6869566976
 20
3.0762382309
 40
0.05346
100
AcDbArc
 50
0.0
 51
42.4502024163
  0
ARC
  5
285
100
AcDbEntity
  8
0
100
AcDbCircle
 62
7
  6
CONTINUOUS
 10
5.608633851
 20
2.5860568973
 40
0.032076
100
AcDbArc
 50
96.2502506476
 51
169.6640834498
  0
ARC
  5
286
100
AcDbEntity
  8
0
100
AcDbCircle
 62
7
  6
CONTINUOUS
 10
5.7190326976
 20
2.9234254415
 40
0.021384
100
AcDbArc
 50
293.9921531391
 51
360.0
  0
ARC
  5
287
100
AcDbEntity
  8
0
100
AcDbCircle
 62
7
  6
CONTINUOUS
 10
5.5012557852
 20
2.3912456379
 40
0.021384
100
AcDbArc
 50
139.519267679
 51
270.0
  0
ARC
  5
288
100
AcDbEntity
  8
0
100
AcDbCircle
 62
7
  6
CONTINUOUS
 10
5.7283909249
 20
3.2036924144
 40
0.021384
100
AcDbArc
 50
295.5455664382
 51
356.9007705819
  0
ARC
  5
289
100
AcDbEntity
  8
0
100
AcDbCircle
 62
7
  6
CONTINUOUS
 10
5.5737274257
 20
2.5087956379
 40
0.021384
100
AcDbArc
 50
156.1143090559
 51
232.3999954626
  0
ARC
  5
28A
100
AcDbEntity
  8
0
100
AcDbCircle
 62
7
  6
CONTINUOUS
 10
5.6948048203
 20
2.84005965
 40
0.01782
100
AcDbArc
 50
325.3780555017
 51
27.9287385579
  0
ARC
  5
28B
100
AcDbEntity
  8
0
100
AcDbCircle
 62
7
  6
CONTINUOUS
 10
5.5545786279
 20
2.4839304212
 40
0.01
100
AcDbArc
 50
306.7489316068
 51
52.3999954627
  0
ARC
  5
28C
100
AcDbEntity
  8
0
100
AcDbCircle
 62
7
  6
CONTINUOUS
 10
5.4676617646
 20
4.4810172941
 40
1.075
100
AcDbArc
 50
80.7471863004
 51
99.2528136995
  0
ARC
  5
28D
100
AcDbEntity
  8
0
100
AcDbCircle
 62
7
  6
CONTINUOUS
 10
5.6839300669
 20
4.0602766387
 40
0.2535
100
AcDbArc
 50
348.4047225792
 51
16.7112662688
  0
ARC
  5
28E
100
AcDbEntity
  8
0
100
AcDbCircle
 62
7
  6
CONTINUOUS
 10
5.7810494345
 20
3.3384361139
 40
0.2216003213
100
AcDbArc
 50
49.5854392656
 51
50.6729435362
  0
ARC
  5
28F
100
AcDbEntity
  8
0
100
AcDbCircle
 62
7
  6
CONTINUOUS
 10
5.8640059559
 20
3.5796894533
 40
0.05
100
AcDbArc
 50
343.1513064909
 51
356.8890191719
  0
ARC
  5
290
100
AcDbEntity
  8
0
100
AcDbCircle
 62
7
  6
CONTINUOUS
 10
5.9579812989
 20
3.5449858068
 40
0.05
100
AcDbArc
 50
163.1513064909
 51
212.9886624815
  0
ARC
  5
291
100
AcDbEntity
  8
0
100
AcDbCircle
 62
7
  6
CONTINUOUS
 10
5.9853044764
 20
3.5421985335
 40
0.05
100
AcDbArc
 50
179.9741977263
 51
222.2907514201
  0
ARC
  5
292
100
AcDbEntity
  8
0
100
AcDbCircle
 62
7
  6
CONTINUOUS
 10
6.0640883879
 20
3.6388351479
 40
0.2011949966
100
AcDbArc
 50
210.1961314411
 51
251.3968367516
  0
ARC
  5
293
100
AcDbEntity
  8
0
100
AcDbCircle
 62
7
  6
CONTINUOUS
 10
6.0641076224
 20
3.6388351322
 40
0.2011949889
100
AcDbArc
 50
288.5515582854
 51
329.7522534871
  0
ARC
  5
294
100
AcDbEntity
  8
0
100
AcDbCircle
 62
7
  6
CONTINUOUS
 10
6.0640857384
 20
3.615916668
 40
0.1906984719
100
AcDbArc
 50
180.0347151927
 51
204.2341056477
  0
ARC
  5
295
100
AcDbEntity
  8
0
100
AcDbCircle
 62
7
  6
CONTINUOUS
 10
6.0640899089
 20
3.6159166144
 40
0.1906981873
100
AcDbArc
 50
335.7142602923
 51
359.9136957251
  0
ARC
  5
296
100
AcDbEntity
  8
0
100
AcDbCircle
 62
7
  6
CONTINUOUS
 10
6.0616107938
 20
3.6224189184
 40
0.1812494857
100
AcDbArc
 50
303.8991761735
 51
311.6917589592
  0
ARC
  5
297
100
AcDbEntity
  8
0
100
AcDbCircle
 62
7
  6
CONTINUOUS
 10
6.0640887833
 20
3.6183616498
 40
0.1765
100
AcDbArc
 50
182.8959409566
 51
208.7259026969
  0
ARC
  5
298
100
AcDbEntity
  8
0
100
AcDbCircle
 62
7
  6
CONTINUOUS
 10
6.0640867568
 20
3.6138616503
 40
0.1765
100
AcDbArc
 50
323.8421922396
 51
326.9597329711
  0
ARC
  5
299
100
AcDbEntity
  8
0
100
AcDbCircle
 62
7
  6
CONTINUOUS
 10
6.0640867568
 20
3.6138616503
 40
0.1765
100
AcDbArc
 50
212.9886624815
 51
216.1062032924
  0
ARC
  5
29A
100
AcDbEntity
  8
0
100
AcDbCircle
 62
7
  6
CONTINUOUS
 10
6.0640887833
 20
3.6183616498
 40
0.1765
100
AcDbArc
 50
331.2224927516
 51
356.9231098376
  0
ARC
  5
29B
100
AcDbEntity
  8
0
100
AcDbCircle
 62
7
  6
CONTINUOUS
 10
6.0640887833
 20
3.6183616498
 40
0.1765
100
AcDbArc
 50
235.981773281
 51
303.9666218185
  0
ARC
  5
29C
100
AcDbEntity
  8
0
100
AcDbCircle
 62
7
  6
CONTINUOUS
 10
6.0640867568
 20
3.6138616503
 40
0.1715
100
AcDbArc
 50
227.618600036
 51
312.3297954166
  0
ARC
  5
29D
100
AcDbEntity
  8
0
100
AcDbCircle
 62
7
  6
CONTINUOUS
 10
6.0640692282
 20
3.598772878
 40
0.1637254076
100
AcDbArc
 50
269.9779539653
 51
293.029354557
  0
ARC
  5
29E
100
AcDbEntity
  8
0
100
AcDbCircle
 62
7
  6
CONTINUOUS
 10
6.0640906661
 20
3.5987727108
 40
0.1637252498
100
AcDbArc
 50
246.9190287114
 51
269.9704517013
  0
ARC
  5
29F
100
AcDbEntity
  8
0
100
AcDbCircle
 62
7
  6
CONTINUOUS
 10
6.0369622067
 20
3.6166865626
 40
0.1568452323
100
AcDbArc
 50
230.5112465299
 51
235.6598223655
  0
ARC
  5
2A0
100
AcDbEntity
  8
0
100
AcDbCircle
 62
7
  6
CONTINUOUS
 10
6.0640867568
 20
3.6138616503
 40
0.1565
100
AcDbArc
 50
222.2907514201
 51
317.6576440324
  0
ARC
  5
2A1
100
AcDbEntity
  8
0
100
AcDbCircle
 62
7
  6
CONTINUOUS
 10
6.0641416976
 20
3.7358616379
 40
0.40275
100
AcDbArc
 50
109.2714202474
 51
70.6401411986
  0
ARC
  5
2A2
100
AcDbEntity
  8
0
100
AcDbCircle
 62
7
  6
CONTINUOUS
 10
6.0641416976
 20
3.7358616379
 40
0.3966817905
100
AcDbArc
 50
109.3827794641
 51
70.5277450844
  0
ARC
  5
2A3
100
AcDbEntity
  8
0
100
AcDbCircle
 62
7
  6
CONTINUOUS
 10
6.0641416976
 20
3.7358616379
 40
0.3786252125
100
AcDbArc
 50
109.8726154908
 51
70.0348827591
  0
ARC
  5
2A4
100
AcDbEntity
  8
0
100
AcDbCircle
 62
7
  6
CONTINUOUS
 10
6.0641416976
 20
3.7358616379
 40
0.35325
100
AcDbArc
 50
111.0341003648
 51
68.8688207634
  0
ARC
  5
2A5
100
AcDbEntity
  8
0
100
AcDbCircle
 62
7
  6
CONTINUOUS
 10
6.0641416976
 20
3.7358616379
 40
0.3409443413
100
AcDbArc
 50
111.844023406
 51
68.0559406053
  0
ARC
  5
2A6
100
AcDbEntity
  8
0
100
AcDbCircle
 62
7
  6
CONTINUOUS
 10
6.0641416976
 20
3.7358616379
 40
0.2947924269
100
AcDbArc
 50
282.5343888096
 51
63.2424644531
  0
ARC
  5
2A7
100
AcDbEntity
  8
0
100
AcDbCircle
 62
7
  6
CONTINUOUS
 10
6.0641416976
 20
3.7358616379
 40
0.2947924269
100
AcDbArc
 50
116.6515334615
 51
257.414006643
  0
ARC
  5
2A8
100
AcDbEntity
  8
0
100
AcDbCircle
 62
7
  6
CONTINUOUS
 10
6.0641416976
 20
3.7358616379
 40
0.263722269
100
AcDbArc
 50
311.217064371
 51
64.8375976383
  0
ARC
  5
2A9
100
AcDbEntity
  8
0
100
AcDbCircle
 62
7
  6
CONTINUOUS
 10
6.0641416976
 20
3.7358616379
 40
0.263722269
100
AcDbArc
 50
115.0799249758
 51
228.73132257
  0
ARC
  5
2AA
100
AcDbEntity
  8
0
100
AcDbCircle
 62
7
  6
CONTINUOUS
 10
5.9616443479
 20
4.0032939383
 40
0.03
100
AcDbArc
 50
168.4047225792
 51
249.7924019594
  0
ARC
  5
2AB
100
AcDbEntity
  8
0
100
AcDbCircle
 62
7
  6
CONTINUOUS
 10
5.9554567199
 20
4.1417967388
 40
0.03
100
AcDbArc
 50
113.1549133333
 51
196.7112662688
  0
ARC
  5
2AC
100
AcDbEntity
  8
0
100
AcDbCircle
 62
7
  6
CONTINUOUS
 10
5.9443732154
 20
3.9563715771
 40
0.02
100
AcDbArc
 50
359.9741977263
 51
69.7924019594
  0
ARC
  5
2AD
100
AcDbEntity
  8
0
100
AcDbCircle
 62
7
  6
CONTINUOUS
 10
5.9357957943
 20
4.1877689914
 40
0.02
100
AcDbArc
 50
293.1549133329
 51
5.947193649
  0
ARC
  5
2AE
100
AcDbEntity
  8
0
100
AcDbCircle
 62
7
  6
CONTINUOUS
 10
-20.5950707244
 20
4.6289761326
 40
26.3834034007
100
AcDbArc
 50
356.9007465927
 51
357.4794675753
  0
ARC
  5
2AF
100
AcDbEntity
  8
0
100
AcDbCircle
 62
7
  6
CONTINUOUS
 10
-20.5766269626
 20
4.6276525929
 40
26.3649279299
100
AcDbArc
 50
358.6849627721
 51
1.6342519565
  0
ARC
  5
2B0
100
AcDbEntity
  8
0
100
AcDbCircle
 62
7
  6
CONTINUOUS
 10
-9.1175393087
 20
5.7965476357
 40
15.375
100
AcDbArc
 50
354.0012018038
 51
356.8906685154
  0
ARC
  5
2B1
100
AcDbEntity
  8
0
100
AcDbCircle
 62
7
  6
CONTINUOUS
 10
4.7604907747
 20
5.3077967435
 40
1.0
100
AcDbArc
 50
8.1614865627
 51
8.473849805
  0
ARC
  5
2B2
100
AcDbEntity
  8
0
100
AcDbCircle
 62
7
  6
CONTINUOUS
 10
3.7456617646
 20
5.603583756
 40
0.8125
100
AcDbArc
 50
70.0
 51
180.0
  0
ARC
  5
2B3
100
AcDbEntity
  8
0
100
AcDbCircle
 62
7
  6
CONTINUOUS
 10
6.0641416976
 20
5.7643759398
 40
0.654
100
AcDbArc
 50
69.8536690168
 51
110.1463309832
  0
ARC
  5
2B4
100
AcDbEntity
  8
0
100
AcDbCircle
 62
7
  6
CONTINUOUS
 10
3.7456617646
 20
5.603583756
 40
0.4375
100
AcDbArc
 50
70.0
 51
180.0
  0
ARC
  5
2B5
100
AcDbEntity
  8
0
100
AcDbCircle
 62
7
  6
CONTINUOUS
 10
6.0641416976
 20
5.7745812709
 40
0.41
100
AcDbArc
 50
118.0607850299
 51
144.6198674558
  0
ARC
  5
2B6
100
AcDbEntity
  8
0
100
AcDbCircle
 62
7
  6
CONTINUOUS
 10
6.0641416976
 20
5.7745812709
 40
0.41
100
AcDbArc
 50
318.5984825339
 51
61.9392149701
  0
ARC
  5
2B7
100
AcDbEntity
  8
0
100
AcDbCircle
 62
7
  6
CONTINUOUS
 10
6.0641416976
 20
5.7745812709
 40
0.41
100
AcDbArc
 50
215.2598031279
 51
221.4015174661
  0
ARC
  5
2B8
100
AcDbEntity
  8
0
100
AcDbCircle
 62
7
  6
CONTINUOUS
 10
6.0300991708
 20
4.8822631998
 40
0.25
100
AcDbArc
 50
89.9741977263
 51
114.1574052763
  0
ARC
  5
2B9
100
AcDbEntity
  8
0
100
AcDbCircle
 62
7
  6
CONTINUOUS
 10
5.8099474269
 20
4.9582045475
 40
0.085
100
AcDbArc
 50
3.0577269372
 51
51.2905153608
  0
ARC
  5
2BA
100
AcDbEntity
  8
0
100
AcDbCircle
 62
7
  6
CONTINUOUS
 10
5.697419467
 20
5.377274005
 40
0.08019
100
AcDbArc
 50
1.6332152977
 51
38.6279712675
  0
ARC
  5
2BB
100
AcDbEntity
  8
0
100
AcDbCircle
 62
7
  6
CONTINUOUS
 10
3.4225666582
 20
5.4471803846
 40
0.08
100
AcDbArc
 50
141.2648427589
 51
175.334
  0
ARC
  5
2BC
100
AcDbEntity
  8
0
100
AcDbCircle
 62
7
  6
CONTINUOUS
 10
2.818756871
 20
5.4471803846
 40
0.08
100
AcDbArc
 50
4.666
 51
38.7351572411
  0
ARC
  5
2BD
100
AcDbEntity
  8
0
100
AcDbCircle
 62
7
  6
CONTINUOUS
 10
3.4069570461
 20
5.2559273033
 40
0.08
100
AcDbArc
 50
175.334
 51
206.5153880463
  0
ARC
  5
2BE
100
AcDbEntity
  8
0
100
AcDbCircle
 62
7
  6
CONTINUOUS
 10
2.8343664832
 20
5.2559273033
 40
0.08
100
AcDbArc
 50
333.4846119537
 51
4.666
  0
ARC
  5
2BF
100
AcDbEntity
  8
0
100
AcDbCircle
 62
7
  6
CONTINUOUS
 10
5.8113916976
 20
5.4643646206
 40
0.0625
100
AcDbArc
 50
143.2690079112
 51
188.473849805
  0
ARC
  5
2C0
100
AcDbEntity
  8
0
100
AcDbCircle
 62
7
  6
CONTINUOUS
 10
5.7963916976
 20
5.4563616379
 40
0.0465
100
AcDbArc
 50
188.1614865627
 51
218.6279712664
  0
ARC
  5
2C1
100
AcDbEntity
  8
0
100
AcDbCircle
 62
7
  6
CONTINUOUS
 10
3.2995793069
 20
5.2023547251
 40
0.04
100
AcDbArc
 50
301.8071224895
 51
26.5153880463
  0
ARC
  5
2C2
100
AcDbEntity
  8
0
100
AcDbCircle
 62
7
  6
CONTINUOUS
 10
2.9417442223
 20
5.2023547251
 40
0.04
100
AcDbArc
 50
153.4846119537
 51
238.1928775105
  0
ARC
  5
2C3
100
AcDbEntity
  8
0
100
AcDbCircle
 62
7
  6
CONTINUOUS
 10
5.8923658239
 20
5.0502555793
 40
0.04
100
AcDbArc
 50
114.8679570846
 51
176.0182891172
  0
ARC
  5
2C4
100
AcDbEntity
  8
0
100
AcDbCircle
 62
7
  6
CONTINUOUS
 10
3.3306617646
 20
5.5183616379
 40
0.035
100
AcDbArc
 50
0.0
 51
90.0
  0
ARC
  5
2C5
100
AcDbEntity
  8
0
100
AcDbCircle
 62
7
  6
CONTINUOUS
 10
2.9106617646
 20
5.5183616379
 40
0.035
100
AcDbArc
 50
90.0
 51
180.0
  0
ARC
  5
2C6
100
AcDbEntity
  8
0
100
AcDbCircle
 62
7
  6
CONTINUOUS
 10
5.6910329559
 20
5.5423616379
 40
0.035
100
AcDbArc
 50
204.6310925507
 51
270.0
  0
ARC
  5
2C7
100
AcDbEntity
  8
0
100
AcDbCircle
 62
7
  6
CONTINUOUS
 10
5.6951617646
 20
5.5423616379
 40
0.035
100
AcDbArc
 50
270.0
 51
347.6928747255
  0
ARC
  5
2C8
100
AcDbEntity
  8
0
100
AcDbCircle
 62
7
  6
CONTINUOUS
 10
5.2401617646
 20
5.5423616379
 40
0.035
100
AcDbArc
 50
180.0
 51
270.0
  0
ARC
  5
2C9
100
AcDbEntity
  8
0
100
AcDbCircle
 62
7
  6
CONTINUOUS
 10
5.2442905733
 20
5.5423616379
 40
0.035
100
AcDbArc
 50
269.9999995862
 51
335.3689074498
  0
ARC
  5
2CA
100
AcDbEntity
  8
0
100
AcDbCircle
 62
7
  6
CONTINUOUS
 10
3.3406617646
 20
5.5128811335
 40
0.025
100
AcDbArc
 50
321.2648427589
 51
360.0
  0
ARC
  5
2CB
100
AcDbEntity
  8
0
100
AcDbCircle
 62
7
  6
CONTINUOUS
 10
2.9006617646
 20
5.5128811335
 40
0.025
100
AcDbArc
 50
180.0
 51
218.7351572411
  0
ARC
  5
2CC
100
AcDbEntity
  8
0
100
AcDbCircle
 62
7
  6
CONTINUOUS
 10
5.2988311777
 20
5.5173551893
 40
0.025
100
AcDbArc
 50
99.2528136999
 51
155.3689074455
  0
ARC
  5
2CD
100
AcDbEntity
  8
0
100
AcDbCircle
 62
7
  6
CONTINUOUS
 10
5.6364923515
 20
5.5173551893
 40
0.025
100
AcDbArc
 50
24.6310925496
 51
80.7471863003
  0
ARC
  5
2CE
100
AcDbEntity
  8
0
100
AcDbCircle
 62
7
  6
CONTINUOUS
 10
5.8624382359
 20
5.0523387206
 40
0.01
100
AcDbArc
 50
176.0182891172
 51
269.9741977263
  0
ARC
  5
2CF
100
AcDbEntity
  8
0
100
AcDbCircle
 62
7
  6
CONTINUOUS
 10
5.8693577516
 20
5.0323356025
 40
0.01
100
AcDbArc
 50
89.9741977263
 51
231.2905153608
  0
ARC
  5
2D0
100
AcDbEntity
  8
0
100
AcDbCircle
 62
7
  6
CONTINUOUS
 10
5.760353808
 20
5.5067419196
 40
0.005
100
AcDbArc
 50
221.4015174662
 51
270.0
  0
ARC
  5
2D1
100
AcDbEntity
  8
0
100
AcDbCircle
 62
7
  6
CONTINUOUS
 10
5.4676617646
 20
7.0687059817
 40
1.075
100
AcDbArc
 50
260.7471863005
 51
279.2528136996
  0
ARC
  5
2D2
100
AcDbEntity
  8
0
100
AcDbCircle
 62
7
  6
CONTINUOUS
 10
5.2126617646
 20
6.3998616379
 40
0.8125
100
AcDbArc
 50
250.0
 51
269.4711083703
  0
ARC
  5
2D3
100
AcDbEntity
  8
0
100
AcDbCircle
 62
7
  6
CONTINUOUS
 10
5.2126617646
 20
6.3998616379
 40
0.4375
100
AcDbArc
 50
250.0
 51
269.0177385221
  0
ARC
  5
2D4
100
AcDbEntity
  8
0
100
AcDbCircle
 62
7
  6
CONTINUOUS
 10
6.060249265
 20
6.4302488381
 40
0.255
100
AcDbArc
 50
297.157683443
 51
333.9743587973
  0
ARC
  5
2D5
100
AcDbEntity
  8
0
100
AcDbCircle
 62
7
  6
CONTINUOUS
 10
5.9210666976
 20
6.1516116379
 40
0.03925
100
AcDbArc
 50
90.0
 51
177.6565365187
  0
ARC
  5
2D6
100
AcDbEntity
  8
0
100
AcDbCircle
 62
7
  6
CONTINUOUS
 10
5.6910329559
 20
6.0073616379
 40
0.035
100
AcDbArc
 50
90.0
 51
155.3689074477
  0
ARC
  5
2D7
100
AcDbEntity
  8
0
100
AcDbCircle
 62
7
  6
CONTINUOUS
 10
5.6951617646
 20
6.0073616379
 40
0.035
100
AcDbArc
 50
7.5670370891
 51
90.0
  0
ARC
  5
2D8
100
AcDbEntity
  8
0
100
AcDbCircle
 62
7
  6
CONTINUOUS
 10
5.2401617646
 20
6.0073616379
 40
0.035
100
AcDbArc
 50
90.0
 51
180.0
  0
ARC
  5
2D9
100
AcDbEntity
  8
0
100
AcDbCircle
 62
7
  6
CONTINUOUS
 10
5.2442905733
 20
6.0073616379
 40
0.035
100
AcDbArc
 50
24.6310925529
 51
90.0000004232
  0
ARC
  5
2DA
100
AcDbEntity
  8
0
100
AcDbCircle
 62
7
  6
CONTINUOUS
 10
5.2988311777
 20
6.0323680865
 40
0.025
100
AcDbArc
 50
204.6310925482
 51
260.7471863004
  0
ARC
  5
2DB
100
AcDbEntity
  8
0
100
AcDbCircle
 62
7
  6
CONTINUOUS
 10
5.6364923515
 20
6.0323680865
 40
0.025
100
AcDbArc
 50
279.2528136999
 51
335.3689074468
  0
ARC
  5
2DC
100
AcDbEntity
  8
0
100
AcDbCircle
 62
7
  6
CONTINUOUS
 10
5.8618662505
 20
6.1540343556
 40
0.02
100
AcDbArc
 50
298.0607850298
 51
357.6565365187
  0
ARC
  5
2DD
100
AcDbEntity
  8
0
100
AcDbCircle
 62
7
  6
CONTINUOUS
 10
5.8221416976
 20
6.3283616379
 40
0.01
100
AcDbArc
 50
180.0
 51
270.0
  0
ARC
  5
2DE
100
AcDbEntity
  8
0
100
AcDbCircle
 62
7
  6
CONTINUOUS
 10
5.8221416976
 20
6.3683616379
 40
0.01
100
AcDbArc
 50
90.0
 51
180.0
  0
ARC
  5
2DF
100
AcDbEntity
  8
0
100
AcDbCircle
 62
7
  6
CONTINUOUS
 10
8.0316140277
 20
3.6739756107
 40
1.82
100
AcDbArc
 50
182.9933267274
 51
183.0593762806
  0
ARC
  5
2E0
100
AcDbEntity
  8
0
100
AcDbCircle
 62
7
  6
CONTINUOUS
 10
6.2902073663
 20
2.1039222063
 40
0.4641055183
100
AcDbArc
 50
40.46642176
 51
53.2765059906
  0
ARC
  5
2E1
100
AcDbEntity
  8
0
100
AcDbCircle
 62
7
  6
CONTINUOUS
 10
6.8745100206
 20
2.6506936491
 40
0.3286229872
100
AcDbArc
 50
190.3218264164
 51
203.9190855479
  0
ARC
  5
2E2
100
AcDbEntity
  8
0
100
AcDbCircle
 62
7
  6
CONTINUOUS
 10
6.4449098179
 20
4.0599339431
 40
0.2535
100
AcDbArc
 50
163.2371291837
 51
191.5436728734
  0
ARC
  5
2E3
100
AcDbEntity
  8
0
100
AcDbCircle
 62
7
  6
CONTINUOUS
 10
6.3506187671
 20
3.3336920257
 40
0.2274449502
100
AcDbArc
 50
129.2894241456
 51
130.3489822237
  0
ARC
  5
2E4
100
AcDbEntity
  8
0
100
AcDbCircle
 62
7
  6
CONTINUOUS
 10
6.0642742565
 20
3.7365994343
 40
0.2175
100
AcDbArc
 50
117.3464721622
 51
62.6019232903
  0
ARC
  5
2E5
100
AcDbEntity
  8
0
100
AcDbCircle
 62
7
  6
CONTINUOUS
 10
6.0665705418
 20
3.6224168241
 40
0.1812496665
100
AcDbArc
 50
228.2566385595
 51
236.0492078218
  0
ARC
  5
2E6
100
AcDbEntity
  8
0
100
AcDbCircle
 62
7
  6
CONTINUOUS
 10
6.0899687257
 20
3.6183226865
 40
0.1589186765
100
AcDbArc
 50
304.3221873268
 51
309.4035449537
  0
CIRCLE
  5
2E7
100
AcDbEntity
  8
0
100
AcDbCircle
 62
7
  6
CONTINUOUS
 10
6.0642742565
 20
3.7365994343
 40
0.12925
  0
CIRCLE
  5
2E8
100
AcDbEntity
  8
0
100
AcDbCircle
 62
7
  6
CONTINUOUS
 10
6.0642742565
 20
3.7365994343
 40
0.111355286
  0
ARC
  5
2E9
100
AcDbEntity
  8
0
100
AcDbCircle
 62
7
  6
CONTINUOUS
 10
6.4413266976
 20
3.0762382309
 40
0.05346
100
AcDbArc
 50
137.5497975837
 51
180.0
  0
ARC
  5
2EA
100
AcDbEntity
  8
0
100
AcDbCircle
 62
7
  6
CONTINUOUS
 10
6.2641366986
 20
3.5795092605
 40
0.05
100
AcDbArc
 50
183.0593762806
 51
196.7970889617
  0
ARC
  5
2EB
100
AcDbEntity
  8
0
100
AcDbCircle
 62
7
  6
CONTINUOUS
 10
6.1701301373
 20
3.5448902688
 40
0.05
100
AcDbArc
 50
326.9597329711
 51
16.7970889617
  0
ARC
  5
2EC
100
AcDbEntity
  8
0
100
AcDbCircle
 62
7
  6
CONTINUOUS
 10
6.1428044604
 20
3.5421276058
 40
0.05
100
AcDbArc
 50
317.6576440325
 51
359.9741977263
  0
ARC
  5
2ED
100
AcDbEntity
  8
0
100
AcDbCircle
 62
7
  6
CONTINUOUS
 10
6.5196495442
 20
2.5860568973
 40
0.032076
100
AcDbArc
 50
10.3359165502
 51
83.7497493524
  0
ARC
  5
2EE
100
AcDbEntity
  8
0
100
AcDbCircle
 62
7
  6
CONTINUOUS
 10
6.167144327
 20
4.0032013945
 40
0.03
100
AcDbArc
 50
290.1559934932
 51
11.5436728734
  0
ARC
  5
2EF
100
AcDbEntity
  8
0
100
AcDbCircle
 62
7
  6
CONTINUOUS
 10
6.1734566978
 20
4.1416985659
 40
0.03
100
AcDbArc
 50
343.2371291837
 51
66.7934821193
  0
ARC
  5
2F0
100
AcDbEntity
  8
0
100
AcDbCircle
 62
7
  6
CONTINUOUS
 10
6.4092506976
 20
2.9234254415
 40
0.021384
100
AcDbArc
 50
180.0
 51
246.0078468609
  0
ARC
  5
2F1
100
AcDbEntity
  8
0
100
AcDbCircle
 62
7
  6
CONTINUOUS
 10
6.62702761
 20
2.3912456379
 40
0.021384
100
AcDbArc
 50
270.0
 51
40.480732321
  0
ARC
  5
2F2
100
AcDbEntity
  8
0
100
AcDbCircle
 62
7
  6
CONTINUOUS
 10
6.3998924703
 20
3.2036924144
 40
0.021384
100
AcDbArc
 50
183.0992294181
 51
244.4544335618
  0
ARC
  5
2F3
100
AcDbEntity
  8
0
100
AcDbCircle
 62
7
  6
CONTINUOUS
 10
6.5545559695
 20
2.5087956379
 40
0.021384
100
AcDbArc
 50
307.6000045374
 51
23.8856909441
  0
ARC
  5
2F4
100
AcDbEntity
  8
0
100
AcDbCircle
 62
7
  6
CONTINUOUS
 10
6.184373191
 20
3.9562634968
 40
0.02
100
AcDbArc
 50
110.1559934932
 51
179.9741977263
  0
ARC
  5
2F5
100
AcDbEntity
  8
0
100
AcDbCircle
 62
7
  6
CONTINUOUS
 10
6.1931590211
 20
4.1876530919
 40
0.02
100
AcDbArc
 50
174.0012018036
 51
246.7934821196
  0
ARC
  5
2F6
100
AcDbEntity
  8
0
100
AcDbCircle
 62
7
  6
CONTINUOUS
 10
6.4334785749
 20
2.84005965
 40
0.01782
100
AcDbArc
 50
152.0712614421
 51
214.6219444983
  0
ARC
  5
2F7
100
AcDbEntity
  8
0
100
AcDbCircle
 62
7
  6
CONTINUOUS
 10
6.5737047673
 20
2.4839304212
 40
0.01
100
AcDbArc
 50
127.6000045373
 51
233.2510683932
  0
ARC
  5
2F8
100
AcDbEntity
  8
0
100
AcDbCircle
 62
7
  6
CONTINUOUS
 10
32.7233543175
 20
4.6289761429
 40
26.3834035988
100
AcDbArc
 50
182.5205436352
 51
183.0992534065
  0
ARC
  5
2F9
100
AcDbEntity
  8
0
100
AcDbCircle
 62
7
  6
CONTINUOUS
 10
32.7049102305
 20
4.6276525942
 40
26.3649278026
100
AcDbArc
 50
178.3657480384
 51
181.3150483362
  0
ARC
  5
2FA
100
AcDbEntity
  8
0
100
AcDbCircle
 62
7
  6
CONTINUOUS
 10
21.2479369958
 20
5.7828730092
 40
15.375
100
AcDbArc
 50
183.0577269372
 51
185.9471936488
  0
ARC
  5
2FB
100
AcDbEntity
  8
0
100
AcDbCircle
 62
7
  6
CONTINUOUS
 10
7.3677926206
 20
5.3077967435
 40
1.0
100
AcDbArc
 50
171.526150195
 51
171.8385134373
  0
ARC
  5
2FC
100
AcDbEntity
  8
0
100
AcDbCircle
 62
7
  6
CONTINUOUS
 10
6.0680341302
 20
6.4302488381
 40
0.255
100
AcDbArc
 50
206.0256412027
 51
242.842316557
  0
ARC
  5
2FD
100
AcDbEntity
  8
0
100
AcDbCircle
 62
7
  6
CONTINUOUS
 10
6.0994811924
 20
4.8822319547
 40
0.25
100
AcDbArc
 50
65.7909901763
 51
89.9741977263
  0
ARC
  5
2FE
100
AcDbEntity
  8
0
100
AcDbCircle
 62
7
  6
CONTINUOUS
 10
6.319701245
 20
4.9579749876
 40
0.085
100
AcDbArc
 50
128.6578800917
 51
176.8906685154
  0
ARC
  5
2FF
100
AcDbEntity
  8
0
100
AcDbCircle
 62
7
  6
CONTINUOUS
 10
6.4308639282
 20
5.377274005
 40
0.08019
100
AcDbArc
 50
141.3720287325
 51
178.3667847023
  0
ARC
  5
300
100
AcDbEntity
  8
0
100
AcDbCircle
 62
7
  6
CONTINUOUS
 10
6.3168916976
 20
5.4643646206
 40
0.0625
100
AcDbArc
 50
351.526150195
 51
36.7309920888
  0
ARC
  5
301
100
AcDbEntity
  8
0
100
AcDbCircle
 62
7
  6
CONTINUOUS
 10
6.3318916976
 20
5.4563616379
 40
0.0465
100
AcDbArc
 50
321.3720287336
 51
351.8385134374
  0
ARC
  5
302
100
AcDbEntity
  8
0
100
AcDbCircle
 62
7
  6
CONTINUOUS
 10
6.2373657889
 20
5.0501002139
 40
0.04
100
AcDbArc
 50
3.9301063354
 51
65.0804383679
  0
ARC
  5
303
100
AcDbEntity
  8
0
100
AcDbCircle
 62
7
  6
CONTINUOUS
 10
6.2072166976
 20
6.1516116379
 40
0.03925
100
AcDbArc
 50
2.3434634813
 51
90.0
  0
ARC
  5
304
100
AcDbEntity
  8
0
100
AcDbCircle
 62
7
  6
CONTINUOUS
 10
6.2664171447
 20
6.1540343556
 40
0.02
100
AcDbArc
 50
182.3434634813
 51
241.9392149702
  0
ARC
  5
305
100
AcDbEntity
  8
0
100
AcDbCircle
 62
7
  6
CONTINUOUS
 10
6.267295241
 20
5.0521563995
 40
0.01
100
AcDbArc
 50
269.9741977263
 51
3.9301063354
  0
ARC
  5
306
100
AcDbEntity
  8
0
100
AcDbCircle
 62
7
  6
CONTINUOUS
 10
6.3061416976
 20
6.3283616379
 40
0.01
100
AcDbArc
 50
270.0
 51
360.0
  0
ARC
  5
307
100
AcDbEntity
  8
0
100
AcDbCircle
 62
7
  6
CONTINUOUS
 10
6.3061416976
 20
6.3683616379
 40
0.01
100
AcDbArc
 50
0.0
 51
90.0
  0
ARC
  5
308
100
AcDbEntity
  8
0
100
AcDbCircle
 62
7
  6
CONTINUOUS
 10
6.260357712
 20
5.0321595217
 40
0.01
100
AcDbArc
 50
308.6578800917
 51
89.9741977263
  0
ARC
  5
309
100
AcDbEntity
  8
0
100
AcDbCircle
 62
7
  6
CONTINUOUS
 10
6.3679295872
 20
5.5067419196
 40
0.005
100
AcDbArc
 50
270.0
 51
318.5984825338
  0
SPLINE
  5
30A
100
AcDbEntity
  8
0
100
AcDbSpline
 62
7
  6
CONTINUOUS
 70
0
 71
3
 72
15
 73
11
 74
0
 42
0.0000001
 43
0.0000001
 44
0.0000000001
 40
0.0
 40
0.0
 40
0.0
 40
0.0
 40
0.1257170887
 40
0.2508917507
 40
0.3756915485
 40
0.5002855569
 40
0.6248436888
 40
0.7495360039
 40
0.8745320139
 40
1.0
 40
1.0
 40
1.0
 40
1.0
 10
5.6051416976
 20
2.6179422331
 30
0.0
 10
5.6081798154
 20
2.6274029842
 30
0.0
 10
5.6145834729
 20
2.6461763364
 30
0.0
 10
5.6251905439
 20
2.6739184317
 30
0.0
 10
5.6367747822
 20
2.701170977
 30
0.0
 10
5.6493360033
 20
2.727933339
 30
0.0
 10
5.6628741698
 20
2.7542054618
 30
0.0
 10
5.6773892677
 20
2.7799872788
 30
0.0
 10
5.6928809106
 20
2.8052782492
 30
0.0
 10
5.7038348532
 20
2.8217742464
 30
0.0
 10
5.7094692337
 20
2.8299350572
 30
0.0
  0
SPLINE
  5
30B
100
AcDbEntity
  8
0
100
AcDbSpline
 62
7
  6
CONTINUOUS
 70
0
 71
3
 72
15
 73
11
 74
0
 42
0.0000001
 43
0.0000001
 44
0.0000000001
 40
0.0
 40
0.0
 40
0.0
 40
0.0
 40
0.1257170887
 40
0.2508917507
 40
0.3756915485
 40
0.5002855569
 40
0.6248436888
 40
0.7495360039
 40
0.8745320139
 40
1.0
 40
1.0
 40
1.0
 40
1.0
 10
6.5231416976
 20
2.6179422331
 30
0.0
 10
6.5201035798
 20
2.6274029842
 30
0.0
 10
6.5136999223
 20
2.6461763364
 30
0.0
 10
6.5030928513
 20
2.6739184317
 30
0.0
 10
6.491508613
 20
2.701170977
 30
0.0
 10
6.4789473919
 20
2.727933339
 30
0.0
 10
6.4654092254
 20
2.7542054618
 30
0.0
 10
6.4508941275
 20
2.7799872788
 30
0.0
 10
6.4354024846
 20
2.8052782492
 30
0.0
 10
6.424448542
 20
2.8217742464
 30
0.0
 10
6.4188141615
 20
2.8299350572
 30
0.0
  0
SPLINE
  5
30C
100
AcDbEntity
  8
0
100
AcDbSpline
 62
7
  6
CONTINUOUS
 70
0
 71
3
 72
24
 73
20
 74
0
 42
0.0000001
 43
0.0000001
 44
0.0000000001
 40
0.0
 40
0.0
 40
0.0
 40
0.0
 40
0.0630485543
 40
0.1274018248
 40
0.192161197
 40
0.2244605315
 40
0.2565950002
 40
0.320279787
 40
0.3834130472
 40
0.4461706493
 40
0.5086525855
 40
0.5709002888
 40
0.6329150843
 40
0.6946771889
 40
0.756165072
 40
0.8173752125
 40
0.8783423084
 40
0.9391597857
 40
1.0
 40
1.0
 40
1.0
 40
1.0
 10
6.4177340558
 20
2.8484060575
 30
0.0
 10
6.4183754444
 20
2.8496159618
 30
0.0
 10
6.4195666653
 20
2.8521179689
 30
0.0
 10
6.4210335977
 20
2.8560306033
 30
0.0
 10
6.4219626568
 20
2.8594172611
 30
0.0
 10
6.4224989601
 20
2.8621727453
 30
0.0
 10
6.4228829666
 20
2.8649300711
 30
0.0
 10
6.4230689189
 20
2.8683852734
 30
0.0
 10
6.4228402415
 20
2.8725041686
 30
0.0
 10
6.4221817538
 20
2.8765498154
 30
0.0
 10
6.4211162807
 20
2.8804873802
 30
0.0
 10
6.4196662438
 20
2.8842825948
 30
0.0
 10
6.4178538164
 20
2.8879010855
 30
0.0
 10
6.415700917
 20
2.8913084579
 30
0.0
 10
6.4132292203
 20
2.8944702087
 30
0.0
 10
6.4104602534
 20
2.8973516434
 30
0.0
 10
6.4074151383
 20
2.8999179233
 30
0.0
 10
6.4041157275
 20
2.9021335139
 30
0.0
 10
6.4017629788
 20
2.9033516848
 30
0.0
 10
6.4005557167
 20
2.9038889944
 30
0.0
  0
SPLINE
  5
30D
100
AcDbEntity
  8
0
100
AcDbSpline
 62
7
  6
CONTINUOUS
 70
0
 71
3
 72
24
 73
20
 74
0
 42
0.0000001
 43
0.0000001
 44
0.0000000001
 40
0.0
 40
0.0
 40
0.0
 40
0.0
 40
0.0630485543
 40
0.1274018248
 40
0.192161197
 40
0.2244605315
 40
0.2565950002
 40
0.320279787
 40
0.3834130472
 40
0.4461706493
 40
0.5086525855
 40
0.5709002888
 40
0.6329150843
 40
0.6946771889
 40
0.756165072
 40
0.8173752125
 40
0.8783423084
 40
0.9391597857
 40
1.0
 40
1.0
 40
1.0
 40
1.0
 10
5.7105493394
 20
2.8484060575
 30
0.0
 10
5.7099079509
 20
2.8496159618
 30
0.0
 10
5.7087167299
 20
2.8521179689
 30
0.0
 10
5.7072497975
 20
2.8560306033
 30
0.0
 10
5.7063207385
 20
2.8594172611
 30
0.0
 10
5.7057844351
 20
2.8621727453
 30
0.0
 10
5.7054004286
 20
2.8649300711
 30
0.0
 10
5.7052144763
 20
2.8683852734
 30
0.0
 10
5.7054431537
 20
2.8725041686
 30
0.0
 10
5.7061016414
 20
2.8765498154
 30
0.0
 10
5.7071671145
 20
2.8804873802
 30
0.0
 10
5.7086171514
 20
2.8842825948
 30
0.0
 10
5.7104295788
 20
2.8879010855
 30
0.0
 10
5.7125824782
 20
2.8913084579
 30
0.0
 10
5.7150541749
 20
2.8944702087
 30
0.0
 10
5.7178231419
 20
2.8973516434
 30
0.0
 10
5.7208682569
 20
2.8999179233
 30
0.0
 10
5.7241676677
 20
2.9021335139
 30
0.0
 10
5.7265204164
 20
2.9033516848
 30
0.0
 10
5.7277276785
 20
2.9038889944
 30
0.0
  0
SPLINE
  5
30E
100
AcDbEntity
  8
0
100
AcDbSpline
 62
7
  6
CONTINUOUS
 70
0
 71
3
 72
25
 73
21
 74
0
 42
0.0000001
 43
0.0000001
 44
0.0000000001
 40
0.0
 40
0.0
 40
0.0
 40
0.0
 40
0.0319337077
 40
0.0637166764
 40
0.1271011293
 40
0.1906510676
 40
0.2546019714
 40
0.3835923499
 40
0.4485083684
 40
0.5133132965
 40
0.5777033835
 40
0.6413717656
 40
0.7040416711
 40
0.7655029233
 40
0.8256539663
 40
0.8845506907
 40
0.9136208464
 40
0.942499002
 40
0.9712605395
 40
1.0
 40
1.0
 40
1.0
 40
1.0
 10
6.4018804756
 20
3.1123210131
 30
0.0
 10
6.4024737398
 20
3.1129695781
 30
0.0
 10
6.4036112025
 20
3.1143069088
 30
0.0
 10
6.4056858736
 20
3.1171266387
 30
0.0
 10
6.4079084267
 20
3.1209039384
 30
0.0
 10
6.4099812321
 20
3.125746252
 30
0.0
 10
6.411982489
 20
3.1325297575
 30
0.0
 10
6.4128618635
 20
3.1396331113
 30
0.0
 10
6.4127031683
 20
3.1467594992
 30
0.0
 10
6.4120792051
 20
3.1520745384
 30
0.0
 10
6.4109663402
 20
3.1572730251
 30
0.0
 10
6.4093803091
 20
3.1622862376
 30
0.0
 10
6.4073362745
 20
3.1670438669
 30
0.0
 10
6.404848531
 20
3.1714760846
 30
0.0
 10
6.4019311819
 20
3.1755120335
 30
0.0
 10
6.39913833
 20
3.1785001851
 30
0.0
 10
6.3967074891
 20
3.1806096404
 30
0.0
 10
6.3947942002
 20
3.1820402397
 30
0.0
 10
6.3927854794
 20
3.1833164209
 30
0.0
 10
6.3913847972
 20
3.1840577328
 30
0.0
 10
6.3906710742
 20
3.1843988582
 30
0.0
  0
SPLINE
  5
30F
100
AcDbEntity
  8
0
100
AcDbSpline
 62
7
  6
CONTINUOUS
 70
0
 71
3
 72
25
 73
21
 74
0
 42
0.0000001
 43
0.0000001
 44
0.0000000001
 40
0.0
 40
0.0
 40
0.0
 40
0.0
 40
0.0319337077
 40
0.0637166764
 40
0.1271011293
 40
0.1906510676
 40
0.2546019714
 40
0.3835923499
 40
0.4485083684
 40
0.5133132965
 40
0.5777033835
 40
0.6413717656
 40
0.7040416711
 40
0.7655029233
 40
0.8256539663
 40
0.8845506907
 40
0.9136208464
 40
0.942499002
 40
0.9712605395
 40
1.0
 40
1.0
 40
1.0
 40
1.0
 10
5.7264029196
 20
3.1123210131
 30
0.0
 10
5.7258096554
 20
3.1129695781
 30
0.0
 10
5.7246721927
 20
3.1143069088
 30
0.0
 10
5.7225975216
 20
3.1171266387
 30
0.0
 10
5.7203749685
 20
3.1209039384
 30
0.0
 10
5.7183021631
 20
3.125746252
 30
0.0
 10
5.7163009062
 20
3.1325297575
 30
0.0
 10
5.7154215317
 20
3.1396331113
 30
0.0
 10
5.7155802269
 20
3.1467594992
 30
0.0
 10
5.7162041901
 20
3.1520745384
 30
0.0
 10
5.717317055
 20
3.1572730251
 30
0.0
 10
5.7189030862
 20
3.1622862376
 30
0.0
 10
5.7209471207
 20
3.1670438669
 30
0.0
 10
5.7234348642
 20
3.1714760846
 30
0.0
 10
5.7263522133
 20
3.1755120335
 30
0.0
 10
5.7291450653
 20
3.1785001851
 30
0.0
 10
5.7315759061
 20
3.1806096404
 30
0.0
 10
5.7334891951
 20
3.1820402397
 30
0.0
 10
5.7354979158
 20
3.1833164209
 30
0.0
 10
5.736898598
 20
3.1840577328
 30
0.0
 10
5.737612321
 20
3.1843988582
 30
0.0
  0
LINE
  5
310
100
AcDbEntity
  8
0
100
AcDbLine
 62
7
  6
CONTINUOUS
 10
5.7293574322
 20
5.5349013217
 11
5.7298336168
 21
5.8382103809
  0
SPLINE
  5
311
100
AcDbEntity
  8
0
100
AcDbSpline
 62
7
  6
CONTINUOUS
 70
0
 71
3
 72
13
 73
9
 74
0
 42
0.0000001
 43
0.0000001
 44
0.0000000001
 40
0.0
 40
0.0
 40
0.0
 40
0.0
 40
0.1221256942
 40
0.2488118026
 40
0.5083166111
 40
0.7635821708
 40
0.8850212003
 40
1.0
 40
1.0
 40
1.0
 40
1.0
 10
6.2547880201
 20
3.6156293763
 30
0.0
 10
6.2543973644
 20
3.6155768253
 30
0.0
 10
6.253598989
 20
3.6154875195
 30
0.0
 10
6.2519622043
 20
3.6153702454
 30
0.0
 10
6.2498901182
 20
3.6153390381
 30
0.0
 10
6.2478378721
 20
3.6154558347
 30
0.0
 10
6.2462614747
 20
3.6156419709
 30
0.0
 10
6.2455080161
 20
3.6157648396
 30
0.0
 10
6.2451434142
 20
3.6158340191
 30
0.0
  0
SPLINE
  5
312
100
AcDbEntity
  8
0
100
AcDbSpline
 62
7
  6
CONTINUOUS
 70
0
 71
3
 72
15
 73
11
 74
0
 42
0.0000001
 43
0.0000001
 44
0.0000000001
 40
0.0
 40
0.0
 40
0.0
 40
0.0
 40
0.1278754896
 40
0.255182361
 40
0.3818239778
 40
0.5076573842
 40
0.63252862
 40
0.7563144841
 40
0.8788725078
 40
1.0
 40
1.0
 40
1.0
 40
1.0
 10
6.194308609
 20
3.4985959289
 30
0.0
 10
6.1946422747
 20
3.4989220216
 30
0.0
 10
6.1952971598
 20
3.4995840526
 30
0.0
 10
6.1962474228
 20
3.500602921
 30
0.0
 10
6.1971673994
 20
3.5016392185
 30
0.0
 10
6.1980595842
 20
3.5026878973
 30
0.0
 10
6.1989183918
 20
3.5037507983
 30
0.0
 10
6.1997379758
 20
3.5048293152
 30
0.0
 10
6.2005153943
 20
3.5059218635
 30
0.0
 10
6.2010093731
 20
3.5066612588
 30
0.0
 10
6.2012495768
 20
3.5070322099
 30
0.0
  0
SPLINE
  5
313
100
AcDbEntity
  8
0
100
AcDbSpline
 62
7
  6
CONTINUOUS
 70
0
 71
3
 72
15
 73
11
 74
0
 42
0.0000001
 43
0.0000001
 44
0.0000000001
 40
0.0
 40
0.0
 40
0.0
 40
0.0
 40
0.121127492
 40
0.2436855156
 40
0.3674713797
 40
0.4923426155
 40
0.618176022
 40
0.7448176388
 40
0.8721245103
 40
1.0
 40
1.0
 40
1.0
 40
1.0
 10
5.9268277744
 20
3.5071557916
 30
0.0
 10
5.9270676439
 20
3.5067846242
 30
0.0
 10
5.9275609566
 20
3.5060447843
 30
0.0
 10
5.9283373909
 20
3.5049515361
 30
0.0
 10
5.9291560032
 20
3.5038722814
 30
0.0
 10
5.9300138532
 20
3.5028086072
 30
0.0
 10
5.9309050932
 20
3.5017591252
 30
0.0
 10
5.9318241362
 20
3.5007219995
 30
0.0
 10
5.9327734812
 20
3.4997022756
 30
0.0
 10
5.9334277698
 20
3.499039655
 30
0.0
 10
5.9337611418
 20
3.4987132619
 30
0.0
  0
SPLINE
  5
314
100
AcDbEntity
  8
0
100
AcDbSpline
 62
7
  6
CONTINUOUS
 70
0
 71
3
 72
11
 73
7
 74
0
 42
0.0000001
 43
0.0000001
 44
0.0000000001
 40
0.0
 40
0.0
 40
0.0
 40
0.0
 40
0.2509650173
 40
0.5008955128
 40
0.7503685171
 40
1.0
 40
1.0
 40
1.0
 40
1.0
 10
5.9203018195
 20
3.5363133544
 30
0.0
 10
5.9203038761
 20
3.5337946472
 30
0.0
 10
5.9205790595
 20
3.5287635485
 30
0.0
 10
5.9218121674
 20
3.5213191743
 30
0.0
 10
5.9238676471
 20
3.5140725809
 30
0.0
 10
5.9257595346
 20
3.509421959
 30
0.0
 10
5.9268277744
 20
3.5071557916
 30
0.0
  0
SPLINE
  5
315
100
AcDbEntity
  8
0
100
AcDbSpline
 62
7
  6
CONTINUOUS
 70
0
 71
3
 72
11
 73
7
 74
0
 42
0.0000001
 43
0.0000001
 44
0.0000000001
 40
0.0
 40
0.0
 40
0.0
 40
0.0
 40
0.2496314829
 40
0.4991044872
 40
0.7490349827
 40
1.0
 40
1.0
 40
1.0
 40
1.0
 10
6.2012495768
 20
3.5070322099
 30
0.0
 10
6.2023198572
 20
3.5092974143
 30
0.0
 10
6.2042159327
 20
3.5139463304
 30
0.0
 10
6.2062779383
 20
3.5211910695
 30
0.0
 10
6.2075177506
 20
3.5286343301
 30
0.0
 10
6.2077974653
 20
3.5336651789
 30
0.0
 10
6.2078017904
 20
3.5361838832
 30
0.0
  0
LINE
  5
316
100
AcDbEntity
  8
0
100
AcDbLine
 62
7
  6
CONTINUOUS
 10
5.9337611418
 20
3.4987132619
 11
5.937220125
 21
3.4956413856
  0
LINE
  5
317
100
AcDbEntity
  8
0
100
AcDbLine
 62
7
  6
CONTINUOUS
 10
6.1908468598
 20
3.4955271687
 11
6.194308609
 21
3.4985959289
  0
SPLINE
  5
318
100
AcDbEntity
  8
0
100
AcDbSpline
 62
7
  6
CONTINUOUS
 70
0
 71
3
 72
27
 73
23
 74
0
 42
0.0000001
 43
0.0000001
 44
0.0000000001
 40
0.0
 40
0.0
 40
0.0
 40
0.0
 40
0.0295633557
 40
0.058992295
 40
0.0883059264
 40
0.1175288091
 40
0.1467003511
 40
0.175860524
 40
0.2342838396
 40
0.2930757508
 40
0.3226907208
 40
0.3524856846
 40
0.4126913496
 40
0.4738231358
 40
0.5359632979
 40
0.5991600562
 40
0.6634364358
 40
0.728784968
 40
0.7951688658
 40
0.8625371004
 40
0.930834444
 40
1.0
 40
1.0
 40
1.0
 40
1.0
 10
5.8647878466
 20
4.2133871191
 30
0.0
 10
5.8631934522
 20
4.2121320904
 30
0.0
 10
5.8600634304
 20
4.2095615203
 30
0.0
 10
5.8555374771
 20
4.205528111
 30
0.0
 10
5.8511890213
 20
4.2013375449
 30
0.0
 10
5.8470153819
 20
4.1969974341
 30
0.0
 10
5.8430164993
 20
4.1925097953
 30
0.0
 10
5.8379134537
 20
4.1863291225
 30
0.0
 10
5.8319528815
 20
4.1782299982
 30
0.0
 10
5.8265645153
 20
4.1697039959
 30
0.0
 10
5.8225760081
 20
4.1626379602
 30
0.0
 10
5.8187712138
 20
4.1553615958
 30
0.0
 10
5.8143915188
 20
4.1459513664
 30
0.0
 10
5.8097147463
 20
4.1342530324
 30
0.0
 10
5.8055552163
 20
4.1221445756
 30
0.0
 10
5.8018694455
 20
4.1096594567
 30
0.0
 10
5.7986157103
 20
4.0968283265
 30
0.0
 10
5.795752333
 20
4.0836812007
 30
0.0
 10
5.793237492
 20
4.0702475738
 30
0.0
 10
5.791031799
 20
4.0565551048
 30
0.0
 10
5.7891000747
 20
4.0426288969
 30
0.0
 10
5.7879786723
 20
4.0332604377
 30
0.0
 10
5.7874522282
 20
4.0285425281
 30
0.0
  0
SPLINE
  5
319
100
AcDbEntity
  8
0
100
AcDbSpline
 62
7
  6
CONTINUOUS
 70
0
 71
3
 72
29
 73
25
 74
0
 42
0.0000001
 43
0.0000001
 44
0.0000000001
 40
0.0
 40
0.0
 40
0.0
 40
0.0
 40
0.0682551029
 40
0.1353790169
 40
0.2013348629
 40
0.2661092549
 40
0.3297218772
 40
0.3922286313
 40
0.453718141
 40
0.5143193724
 40
0.5742196392
 40
0.6039960402
 40
0.6337043086
 40
0.663384165
 40
0.6930774323
 40
0.7526706015
 40
0.7826737771
 40
0.8128651281
 40
0.8432819582
 40
0.8739624652
 40
0.9049454251
 40
0.9362657577
 40
0.9679459898
 40
1.0
 40
1.0
 40
1.0
 40
1.0
 10
5.777079245
 20
3.4533804655
 30
0.0
 10
5.7777123329
 20
3.4489610183
 30
0.0
 10
5.7790908338
 20
3.4402122578
 30
0.0
 10
5.7815608855
 20
3.4272740955
 30
0.0
 10
5.7844572676
 20
3.4146572696
 30
0.0
 10
5.7878224904
 20
3.4023944355
 30
0.0
 10
5.7916985313
 20
3.3905193471
 30
0.0
 10
5.7961270896
 20
3.379067826
 30
0.0
 10
5.80115115
 20
3.3680793229
 30
0.0
 10
5.8068128009
 20
3.3575971786
 30
0.0
 10
5.8121096175
 20
3.3493044633
 30
0.0
 10
5.8166904226
 20
3.3429781086
 30
0.0
 10
5.8202967892
 20
3.3383924968
 30
0.0
 10
5.824082204
 20
3.3339605399
 30
0.0
 10
5.8293762098
 20
3.3282550407
 30
0.0
 10
5.8350368839
 20
3.3228694158
 30
0.0
 10
5.8410353244
 20
3.3178260236
 30
0.0
 10
5.8457246381
 20
3.3141984953
 30
0.0
 10
5.8505929014
 20
3.3107381399
 30
0.0
 10
5.8556388923
 20
3.3074467978
 30
0.0
 10
5.860858419
 20
3.3043218244
 30
0.0
 10
5.866247121
 20
3.3013604085
 30
0.0
 10
5.8718013879
 20
3.2985633969
 30
0.0
 10
5.8755899097
 20
3.2968212938
 30
0.0
 10
5.8775097266
 20
3.2959785318
 30
0.0
  0
SPLINE
  5
31A
100
AcDbEntity
  8
0
100
AcDbSpline
 62
7
  6
CONTINUOUS
 70
0
 71
3
 72
13
 73
9
 74
0
 42
0.0000001
 43
0.0000001
 44
0.0000000001
 40
0.0
 40
0.0
 40
0.0
 40
0.0
 40
0.2415107985
 40
0.3643883974
 40
0.4886786125
 40
0.6143935611
 40
0.741538399
 40
1.0
 40
1.0
 40
1.0
 40
1.0
 10
5.8775097266
 20
3.2959785318
 30
0.0
 10
5.8809546535
 20
3.2944749785
 30
0.0
 10
5.8862127975
 20
3.2923418683
 30
0.0
 10
5.8933619103
 20
3.2897453943
 30
0.0
 10
5.898863527
 20
3.287896604
 30
0.0
 10
5.904469803
 20
3.286155933
 30
0.0
 10
5.9121206874
 20
3.2839650499
 30
0.0
 10
5.917943021
 20
3.2825003579
 30
0.0
 10
5.9218632699
 20
3.2815988831
 30
0.0
  0
SPLINE
  5
31B
100
AcDbEntity
  8
0
100
AcDbSpline
 62
7
  6
CONTINUOUS
 70
0
 71
3
 72
18
 73
14
 74
0
 42
0.0000001
 43
0.0000001
 44
0.0000000001
 40
0.0
 40
0.0
 40
0.0
 40
0.0
 40
0.0645551974
 40
0.1301601503
 40
0.2634025437
 40
0.397475424
 40
0.5300980889
 40
0.6589724388
 40
0.7817897248
 40
0.8402039793
 40
0.8962362938
 40
0.9495977358
 40
1.0
 40
1.0
 40
1.0
 40
1.0
 10
5.8647876936
 20
4.2133870659
 30
0.0
 10
5.8653681823
 20
4.2109080401
 30
0.0
 10
5.8665056042
 20
4.2059019043
 30
0.0
 10
5.8686919388
 20
4.1957456991
 30
0.0
 10
5.8712646485
 20
4.1828689405
 30
0.0
 10
5.8741275677
 20
4.167356838
 30
0.0
 10
5.8767956214
 20
4.1519850244
 30
0.0
 10
5.8792831217
 20
4.1370329595
 30
0.0
 10
5.8812487011
 20
4.1249612341
 30
0.0
 10
5.8827563264
 20
4.1157256983
 30
0.0
 10
5.8838321365
 20
4.1091952993
 30
0.0
 10
5.8848738441
 20
4.1029795572
 30
0.0
 10
5.8855678629
 20
4.0989463275
 30
0.0
 10
5.885911369
 20
4.096988346
 30
0.0
  0
SPLINE
  5
31C
100
AcDbEntity
  8
0
100
AcDbSpline
 62
7
  6
CONTINUOUS
 70
0
 71
3
 72
11
 73
7
 74
0
 42
0.0000001
 43
0.0000001
 44
0.0000000001
 40
0.0
 40
0.0
 40
0.0
 40
0.0
 40
0.2603207919
 40
0.5167466449
 40
0.7648731242
 40
1.0
 40
1.0
 40
1.0
 40
1.0
 10
6.3281945087
 20
3.3705918456
 30
0.0
 10
6.3263746203
 20
3.374565336
 30
0.0
 10
6.3229970251
 20
3.3825618925
 30
0.0
 10
6.3185793623
 20
3.394623191
 30
0.0
 10
6.3147715293
 20
3.4064459404
 30
0.0
 10
6.3125312686
 20
3.4142449298
 30
0.0
 10
6.3114907609
 20
3.4180527824
 30
0.0
  0
SPLINE
  5
31D
100
AcDbEntity
  8
0
100
AcDbSpline
 62
7
  6
CONTINUOUS
 70
0
 71
3
 72
20
 73
16
 74
0
 42
0.0000001
 43
0.0000001
 44
0.0000000001
 40
0.0
 40
0.0
 40
0.0
 40
0.0
 40
0.1171016356
 40
0.2372399275
 40
0.3600777816
 40
0.4223910135
 40
0.4852284771
 40
0.548535944
 40
0.6122572274
 40
0.6763341485
 40
0.7407075113
 40
0.8053204672
 40
0.8701167438
 40
0.9350335348
 40
1.0
 40
1.0
 40
1.0
 40
1.0
 10
5.9218632699
 20
3.2815988831
 30
0.0
 10
5.9273086899
 20
3.2803481091
 30
0.0
 10
5.9384022636
 20
3.2780759307
 30
0.0
 10
5.9553673641
 20
3.2753405259
 30
0.0
 10
5.9698238617
 20
3.2735340397
 30
0.0
 10
5.9815947918
 20
3.2723290387
 30
0.0
 10
5.990551934
 20
3.2715367314
 30
0.0
 10
5.9995854472
 20
3.2708546035
 30
0.0
 10
6.0086854769
 20
3.2702768773
 30
0.0
 10
6.0178422176
 20
3.269799331
 30
0.0
 10
6.0270460279
 20
3.2694179442
 30
0.0
 10
6.0362874502
 20
3.2691268986
 30
0.0
 10
6.0455570259
 20
3.2689187381
 30
0.0
 10
6.0548448993
 20
3.2687896165
 30
0.0
 10
6.0610419808
 20
3.268758036
 30
0.0
 10
6.0641416976
 20
3.2687561248
 30
0.0
  0
SPLINE
  5
31E
100
AcDbEntity
  8
0
100
AcDbSpline
 62
7
  6
CONTINUOUS
 70
0
 71
3
 72
33
 73
29
 74
0
 42
0.0000001
 43
0.0000001
 44
0.0000000001
 40
0.0
 40
0.0
 40
0.0
 40
0.0
 40
0.0723954478
 40
0.1084816499
 40
0.1444293529
 40
0.2157362175
 40
0.2859666526
 40
0.320573521
 40
0.3547874883
 40
0.3885712748
 40
0.4218906302
 40
0.4547153016
 40
0.4870203638
 40
0.5499941957
 40
0.610758708
 40
0.6403380707
 40
0.6694080823
 40
0.7261611973
 40
0.7539752165
 40
0.7814999617
 40
0.808811939
 40
0.8359850519
 40
0.8630894272
 40
0.8901949768
 40
0.9173708234
 40
0.9446945278
 40
0.9722308616
 40
1.0
 40
1.0
 40
1.0
 40
1.0
 10
6.0641416976
 20
3.2687561248
 30
0.0
 10
6.0713757433
 20
3.2687547519
 30
0.0
 10
6.0822161172
 20
3.2688714757
 30
0.0
 10
6.0966432517
 20
3.2692522836
 30
0.0
 10
6.1109565901
 20
3.2697909996
 30
0.0
 10
6.1286657918
 20
3.270785013
 30
0.0
 10
6.1462077062
 20
3.2722614942
 30
0.0
 10
6.1600216566
 20
3.2737614508
 30
0.0
 10
6.170193888
 20
3.2750480513
 30
0.0
 10
6.1802115383
 20
3.2765168303
 30
0.0
 10
6.1900575245
 20
3.2781836713
 30
0.0
 10
6.199714155
 20
3.2800675603
 30
0.0
 10
6.2122060371
 20
3.282868132
 30
0.0
 10
6.2272590194
 20
3.2869805944
 30
0.0
 10
6.2417163103
 20
3.2921026031
 30
0.0
 10
6.2526880173
 20
3.2968029977
 30
0.0
 10
6.2630731879
 20
3.3018215659
 30
0.0
 10
6.2729353516
 20
3.3074984189
 30
0.0
 10
6.2821516033
 20
3.313872216
 30
0.0
 10
6.2886699818
 20
3.3189513856
 30
0.0
 10
6.2948312338
 20
3.3243614948
 30
0.0
 10
6.300637144
 20
3.3300915169
 30
0.0
 10
6.3060904942
 20
3.3361300298
 30
0.0
 10
6.3111965332
 20
3.3424649904
 30
0.0
 10
6.3159619188
 20
3.3490868037
 30
0.0
 10
6.3203889968
 20
3.3559905326
 30
0.0
 10
6.3244806696
 20
3.3631658272
 30
0.0
 10
6.3269889634
 20
3.3680926013
 30
0.0
 10
6.3281945008
 20
3.3705918452
 30
0.0
  0
SPLINE
  5
31F
100
AcDbEntity
  8
0
100
AcDbSpline
 62
7
  6
CONTINUOUS
 70
0
 71
3
 72
16
 73
12
 74
0
 42
0.0000001
 43
0.0000001
 44
0.0000000001
 40
0.0
 40
0.0
 40
0.0
 40
0.0
 40
0.1185218303
 40
0.1785037556
 40
0.2389262773
 40
0.3610506863
 40
0.4850112891
 40
0.6109092918
 40
0.738741755
 40
0.8684576467
 40
1.0
 40
1.0
 40
1.0
 40
1.0
 10
6.3281945008
 20
3.3705918452
 30
0.0
 10
6.3296779726
 20
3.3736584818
 30
0.0
 10
6.3317718912
 20
3.3783462643
 30
0.0
 10
6.3343272401
 20
3.3847208603
 30
0.0
 10
6.3367652695
 20
3.3912521395
 30
0.0
 10
6.3395681428
 20
3.3996072492
 30
0.0
 10
6.3425486408
 20
3.4098779161
 30
0.0
 10
6.3451798647
 20
3.4204123585
 30
0.0
 10
6.3474890887
 20
3.4311907978
 30
0.0
 10
6.3495029004
 20
3.4421928652
 30
0.0
 10
6.3506564402
 20
3.4496138712
 30
0.0
 10
6.3511928821
 20
3.4533564664
 30
0.0
  0
SPLINE
  5
320
100
AcDbEntity
  8
0
100
AcDbSpline
 62
7
  6
CONTINUOUS
 70
0
 71
3
 72
34
 73
30
 74
0
 42
0.0000001
 43
0.0000001
 44
0.0000000001
 40
0.0
 40
0.0
 40
0.0
 40
0.0
 40
0.0685228073
 40
0.102307959
 40
0.1357556903
 40
0.2015839645
 40
0.2659269685
 40
0.297525711
 40
0.3287396189
 40
0.390036334
 40
0.4201646195
 40
0.4499805813
 40
0.4795181212
 40
0.5088175146
 40
0.5379336966
 40
0.5669348397
 40
0.5958957737
 40
0.6248952838
 40
0.6540126467
 40
0.6833244993
 40
0.7129060744
 40
0.7428279367
 40
0.7731550025
 40
0.8039432656
 40
0.8352374137
 40
0.8670700377
 40
0.9324057341
 40
0.9659268818
 40
1.0
 40
1.0
 40
1.0
 40
1.0
 10
6.3408228072
 20
4.0285318997
 30
0.0
 10
6.3400654784
 20
4.0353165116
 30
0.0
 10
6.3388191206
 20
4.0454342477
 30
0.0
 10
6.3368714822
 20
4.0588187497
 30
0.0
 10
6.3347503747
 20
4.0719049956
 30
0.0
 10
6.3317099563
 20
4.0879242185
 30
0.0
 10
6.3280088808
 20
4.1036175203
 30
0.0
 10
6.3246007665
 20
4.115820489
 30
0.0
 10
6.3209221258
 20
4.1276265244
 30
0.0
 10
6.3167222162
 20
4.1391132828
 30
0.0
 10
6.311924638
 20
4.1502015395
 30
0.0
 10
6.3080490027
 20
4.158232959
 30
0.0
 10
6.3038606483
 20
4.166012473
 30
0.0
 10
6.2993431796
 20
4.173524871
 30
0.0
 10
6.29448403
 20
4.180756983
 30
0.0
 10
6.2892747268
 20
4.1876993083
 30
0.0
 10
6.2837075073
 20
4.1943431322
 30
0.0
 10
6.2777779937
 20
4.200681743
 30
0.0
 10
6.2714828119
 20
4.206708123
 30
0.0
 10
6.2648203239
 20
4.2124153126
 30
0.0
 10
6.2577916793
 20
4.2177976926
 30
0.0
 10
6.2504011708
 20
4.2228523953
 30
0.0
 10
6.242655941
 20
4.2275792818
 30
0.0
 10
6.2345666979
 20
4.2319825851
 30
0.0
 10
6.2261453843
 20
4.2360676975
 30
0.0
 10
6.2143928838
 20
4.2411432074
 30
0.0
 10
6.202126246
 20
4.2455550581
 30
0.0
 10
6.1894409747
 20
4.2493645686
 30
0.0
 10
6.1829287112
 20
4.2510853826
 30
0.0
 10
6.1796338153
 20
4.2519021325
 30
0.0
  0
SPLINE
  5
321
100
AcDbEntity
  8
0
100
AcDbSpline
 62
7
  6
CONTINUOUS
 70
0
 71
3
 72
55
 73
51
 74
0
 42
0.0000001
 43
0.0000001
 44
0.0000000001
 40
0.0
 40
0.0
 40
0.0
 40
0.0
 40
0.0334014226
 40
0.0666041382
 40
0.0831593894
 40
0.0997032695
 40
0.1328043026
 40
0.1659780088
 40
0.1992483771
 40
0.2660231147
 40
0.2994146834
 40
0.3325103578
 40
0.3650351548
 40
0.3968211053
 40
0.4124361755
 40
0.4278894871
 40
0.4432231578
 40
0.4508652914
 40
0.4585030055
 40
0.4737966173
 40
0.4891415449
 40
0.5199250112
 40
0.5505104529
 40
0.5655687907
 40
0.5803950471
 40
0.5949566007
 40
0.6092550462
 40
0.6233401966
 40
0.6373242738
 40
0.6443367161
 40
0.6513958995
 40
0.6657255941
 40
0.6804252075
 40
0.6955371926
 40
0.711054509
 40
0.726932967
 40
0.7431015793
 40
0.7594709115
 40
0.7924012706
 40
0.8087472776
 40
0.8248742102
 40
0.8328261361
 40
0.8406960368
 40
0.8562052578
 40
0.8714349472
 40
0.8864152918
 40
0.915732035
 40
0.9443447502
 40
0.9723978095
 40
1.0
 40
1.0
 40
1.0
 40
1.0
 10
5.9493488142
 20
4.2523677499
 30
0.0
 10
5.9483087669
 20
4.2521089124
 30
0.0
 10
5.9462441866
 20
4.2515539728
 30
0.0
 10
5.9437028012
 20
4.2507356254
 30
0.0
 10
5.9417095163
 20
4.2499911494
 30
0.0
 10
5.9397416439
 20
4.2491906618
 30
0.0
 10
5.9373201568
 20
4.2480932412
 30
0.0
 10
5.9344678367
 20
4.2466541071
 30
0.0
 10
5.930712882
 20
4.2446102017
 30
0.0
 10
5.9270170839
 20
4.2424473962
 30
0.0
 10
5.9233276193
 20
4.2402859243
 30
0.0
 10
5.9205521913
 20
4.2387385347
 30
0.0
 10
5.9177556437
 20
4.2373394471
 30
0.0
 10
5.9153837142
 20
4.2363548631
 30
0.0
 10
5.9134675085
 20
4.2357227839
 30
0.0
 10
5.9120282677
 20
4.2353378297
 30
0.0
 10
5.9108178199
 20
4.2350970332
 30
0.0
 10
5.909845215
 20
4.2349578088
 30
0.0
 10
5.908869241
 20
4.2348560992
 30
0.0
 10
5.9076414522
 20
4.2347970951
 30
0.0
 10
5.9056698501
 20
4.234817292
 30
0.0
 10
5.9032135463
 20
4.2350014732
 30
0.0
 10
5.9007743381
 20
4.2352529086
 30
0.0
 10
5.8988400193
 20
4.2354081552
 30
0.0
 10
5.8974152517
 20
4.2354786273
 30
0.0
 10
5.8960127562
 20
4.2354818305
 30
0.0
 10
5.8946361781
 20
4.2353954738
 30
0.0
 10
5.8932894022
 20
4.2351968369
 30
0.0
 10
5.8921959345
 20
4.2349186488
 30
0.0
 10
5.8913465556
 20
4.2346187854
 30
0.0
 10
5.8905067816
 20
4.2342635528
 30
0.0
 10
5.8894798301
 20
4.2337235936
 30
0.0
 10
5.88829176
 20
4.2329495496
 30
0.0
 10
5.8871357676
 20
4.2320649611
 30
0.0
 10
5.886006596
 20
4.231088222
 30
0.0
 10
5.8848990577
 20
4.2300375437
 30
0.0
 10
5.8838082157
 20
4.2289310949
 30
0.0
 10
5.8823668203
 20
4.2274027576
 30
0.0
 10
5.8809486998
 20
4.2258451459
 30
0.0
 10
5.8795163712
 20
4.2243112371
 30
0.0
 10
5.8786134207
 20
4.2233797643
 30
0.0
 10
5.8778831919
 20
4.2226601707
 30
0.0
 10
5.8771552079
 20
4.221966755
 30
0.0
 10
5.8762373617
 20
4.2211343363
 30
0.0
 10
5.875119807
 20
4.2201835907
 30
0.0
 10
5.873628091
 20
4.2189902413
 30
0.0
 10
5.8717396722
 20
4.2176071527
 30
0.0
 10
5.8694353951
 20
4.2160882341
 30
0.0
 10
5.8671195815
 20
4.2146913275
 30
0.0
 10
5.8655635231
 20
4.2138146352
 30
0.0
 10
5.8647878466
 20
4.2133871191
 30
0.0
  0
SPLINE
  5
322
100
AcDbEntity
  8
0
100
AcDbSpline
 62
7
  6
CONTINUOUS
 70
0
 71
3
 72
15
 73
11
 74
0
 42
0.0000001
 43
0.0000001
 44
0.0000000001
 40
0.0
 40
0.0
 40
0.0
 40
0.0
 40
0.1225807667
 40
0.2498071379
 40
0.3796824862
 40
0.5102577174
 40
0.6395131194
 40
0.7654730729
 40
0.886232156
 40
1.0
 40
1.0
 40
1.0
 40
1.0
 10
5.8733871493
 20
3.6158011257
 30
0.0
 10
5.8737889271
 20
3.615746711
 30
0.0
 10
5.8746103403
 20
3.6156546172
 30
0.0
 10
5.8758633275
 20
3.6155657177
 30
0.0
 10
5.8771452517
 20
3.6155244561
 30
0.0
 10
5.87843452
 20
3.6155314646
 30
0.0
 10
5.8797096705
 20
3.6155866792
 30
0.0
 10
5.8809493573
 20
3.6156891242
 30
0.0
 10
5.8821328418
 20
3.6158370226
 30
0.0
 10
5.8828976854
 20
3.6159687358
 30
0.0
 10
5.8832666216
 20
3.6160427972
 30
0.0
  0
SPLINE
  5
323
100
AcDbEntity
  8
0
100
AcDbSpline
 62
7
  6
CONTINUOUS
 70
0
 71
3
 72
27
 73
23
 74
0
 42
0.0000001
 43
0.0000001
 44
0.0000000001
 40
0.0
 40
0.0
 40
0.0
 40
0.0
 40
0.0736940187
 40
0.1514190535
 40
0.2319191891
 40
0.3139250128
 40
0.3961072023
 40
0.4771418273
 40
0.5557275142
 40
0.6306178522
 40
0.7006515956
 40
0.7647857112
 40
0.8221358654
 40
0.8720332798
 40
0.8940705524
 40
0.9141443656
 40
0.932289795
 40
0.9485888052
 40
0.9632003408
 40
0.9763753608
 40
0.9884804621
 40
1.0
 40
1.0
 40
1.0
 40
1.0
 10
5.8901918991
 20
3.5376423498
 30
0.0
 10
5.8905741605
 20
3.537741702
 30
0.0
 10
5.8913545374
 20
3.5379656235
 30
0.0
 10
5.8925338128
 20
3.5383594118
 30
0.0
 10
5.8937383357
 20
3.5388150868
 30
0.0
 10
5.8949470103
 20
3.5393246454
 30
0.0
 10
5.8961388272
 20
3.5398793011
 30
0.0
 10
5.8972929891
 20
3.5404693475
 30
0.0
 10
5.8983894131
 20
3.5410844732
 30
0.0
 10
5.8994090726
 20
3.5417139017
 30
0.0
 10
5.9003343344
 20
3.5423465989
 30
0.0
 10
5.9011494208
 20
3.5429715087
 30
0.0
 10
5.9018404269
 20
3.5435777318
 30
0.0
 10
5.9023221473
 20
3.5440776248
 30
0.0
 10
5.9026313279
 20
3.5444621862
 30
0.0
 10
5.9028157741
 20
3.5447276582
 30
0.0
 10
5.9029619204
 20
3.544981158
 30
0.0
 10
5.9030690524
 20
3.5452218964
 30
0.0
 10
5.9031366584
 20
3.5454491403
 30
0.0
 10
5.9031639159
 20
3.5456623704
 30
0.0
 10
5.9031498709
 20
3.5458605354
 30
0.0
 10
5.9031119974
 20
3.5459828218
 30
0.0
 10
5.9030866993
 20
3.5460391395
 30
0.0
  0
SPLINE
  5
324
100
AcDbEntity
  8
0
100
AcDbSpline
 62
7
  6
CONTINUOUS
 70
0
 71
3
 72
10
 73
6
 74
0
 42
0.0000001
 43
0.0000001
 44
0.0000000001
 40
0.0
 40
0.0
 40
0.0
 40
0.0
 40
0.2468624383
 40
0.4958590498
 40
1.0
 40
1.0
 40
1.0
 40
1.0
 10
5.9247158948
 20
3.5071567426
 30
0.0
 10
5.9254914886
 20
3.5064967791
 30
0.0
 10
5.9270247282
 20
3.5051420825
 30
0.0
 10
5.9300459686
 20
3.5023328524
 30
0.0
 10
5.9322751739
 20
3.5001683125
 30
0.0
 10
5.9337611418
 20
3.4987132619
 30
0.0
  0
SPLINE
  5
325
100
AcDbEntity
  8
0
100
AcDbSpline
 62
7
  6
CONTINUOUS
 70
0
 71
3
 72
13
 73
9
 74
0
 42
0.0000001
 43
0.0000001
 44
0.0000000001
 40
0.0
 40
0.0
 40
0.0
 40
0.0
 40
0.2481425655
 40
0.3728634706
 40
0.4979137566
 40
0.6232234086
 40
0.7487237054
 40
1.0
 40
1.0
 40
1.0
 40
1.0
 10
5.9337611418
 20
3.4987132619
 30
0.0
 10
5.9347506079
 20
3.4977443827
 30
0.0
 10
5.9362321532
 20
3.4962831798
 30
0.0
 10
5.9382217452
 20
3.4943433059
 30
0.0
 10
5.9397298787
 20
3.492891649
 30
0.0
 10
5.9412509079
 20
3.4914471784
 30
0.0
 10
5.9432970189
 20
3.4895327681
 30
0.0
 10
5.944850187
 20
3.4881151161
 30
0.0
 10
5.9458953802
 20
3.4871801909
 30
0.0
  0
SPLINE
  5
326
100
AcDbEntity
  8
0
100
AcDbSpline
 62
7
  6
CONTINUOUS
 70
0
 71
3
 72
24
 73
20
 74
0
 42
0.0000001
 43
0.0000001
 44
0.0000000001
 40
0.0
 40
0.0
 40
0.0
 40
0.0
 40
0.2126477498
 40
0.4058911435
 40
0.5761267726
 40
0.6516473105
 40
0.7202934523
 40
0.781771861
 40
0.8358129849
 40
0.8822093909
 40
0.9207971937
 40
0.9371369907
 40
0.951508256
 40
0.9639241012
 40
0.974415269
 40
0.9830497884
 40
0.989963884
 40
0.9954308819
 40
1.0
 40
1.0
 40
1.0
 40
1.0
 10
5.9999050486
 20
3.4481530312
 30
0.0
 10
6.0000546268
 20
3.4485127467
 30
0.0
 10
6.0003441735
 20
3.4491976882
 30
0.0
 10
6.0007690618
 20
3.450163907
 30
0.0
 10
6.0011057749
 20
3.4508943592
 30
0.0
 10
6.0013565294
 20
3.4514129213
 30
0.0
 10
6.0015254162
 20
3.4517497107
 30
0.0
 10
6.0016819214
 20
3.4520486343
 30
0.0
 10
6.0018253131
 20
3.4523083472
 30
0.0
 10
6.0019548793
 20
3.4525276693
 30
0.0
 10
6.0020556176
 20
3.4526836945
 30
0.0
 10
6.0021295261
 20
3.4527869513
 30
0.0
 10
6.0021780264
 20
3.4528493553
 30
0.0
 10
6.002222671
 20
3.4529010904
 30
0.0
 10
6.002263433
 20
3.4529421349
 30
0.0
 10
6.0023003276
 20
3.4529725619
 30
0.0
 10
6.0023335267
 20
3.4529924478
 30
0.0
 10
6.0023635936
 20
3.4530019174
 30
0.0
 10
6.0023826371
 20
3.4530000844
 30
0.0
 10
6.0023904808
 20
3.4529971613
 30
0.0
  0
SPLINE
  5
327
100
AcDbEntity
  8
0
100
AcDbSpline
 62
7
  6
CONTINUOUS
 70
0
 71
3
 72
24
 73
20
 74
0
 42
0.0000001
 43
0.0000001
 44
0.0000000001
 40
0.0
 40
0.0
 40
0.0
 40
0.0
 40
0.2126672852
 40
0.4059249006
 40
0.5761688383
 40
0.651691201
 40
0.7203375689
 40
0.7818145972
 40
0.8358527379
 40
0.882244584
 40
0.9208263123
 40
0.9371625384
 40
0.9515299099
 40
0.9639415825
 40
0.9744283748
 40
0.983058461
 40
0.9899683673
 40
0.9954320723
 40
1.0
 40
1.0
 40
1.0
 40
1.0
 10
6.128119089
 20
3.4480957481
 30
0.0
 10
6.1279698275
 20
3.4484556027
 30
0.0
 10
6.1276808866
 20
3.4491408075
 30
0.0
 10
6.1272568571
 20
3.4501074026
 30
0.0
 10
6.1269207985
 20
3.4508381398
 30
0.0
 10
6.1266705132
 20
3.4513569023
 30
0.0
 10
6.1265019354
 20
3.4516938168
 30
0.0
 10
6.1263457077
 20
3.451992849
 30
0.0
 10
6.1262025609
 20
3.4522526532
 30
0.0
 10
6.1260732057
 20
3.4524720491
 30
0.0
 10
6.1259726205
 20
3.4526281258
 30
0.0
 10
6.1258988159
 20
3.4527314149
 30
0.0
 10
6.1258503812
 20
3.4527938356
 30
0.0
 10
6.1258057932
 20
3.4528455828
 30
0.0
 10
6.1257650786
 20
3.452886635
 30
0.0
 10
6.1257282221
 20
3.4529170655
 30
0.0
 10
6.1256950512
 20
3.4529369511
 30
0.0
 10
6.125665
 20
3.4529464155
 30
0.0
 10
6.1256459664
 20
3.452944572
 30
0.0
 10
6.1256381271
 20
3.4529416452
 30
0.0
  0
SPLINE
  5
328
100
AcDbEntity
  8
0
100
AcDbSpline
 62
7
  6
CONTINUOUS
 70
0
 71
3
 72
27
 73
23
 74
0
 42
0.0000001
 43
0.0000001
 44
0.0000000001
 40
0.0
 40
0.0
 40
0.0
 40
0.0
 40
0.0736939697
 40
0.1514189686
 40
0.2319190825
 40
0.3139248907
 40
0.3961070589
 40
0.4771416447
 40
0.5557272682
 40
0.6306175226
 40
0.7006511789
 40
0.7647852321
 40
0.822135384
 40
0.8720328889
 40
0.894070246
 40
0.9141441685
 40
0.9322897248
 40
0.9485888664
 40
0.9632005141
 40
0.976375592
 40
0.9884806511
 40
1.0
 40
1.0
 40
1.0
 40
1.0
 10
6.2379128634
 20
3.5374857957
 30
0.0
 10
6.2375306966
 20
3.5375854966
 30
0.0
 10
6.2367505318
 20
3.5378101286
 30
0.0
 10
6.2355716265
 20
3.5382049872
 30
0.0
 10
6.2343675291
 20
3.5386617525
 30
0.0
 10
6.2331593281
 20
3.5391724026
 30
0.0
 10
6.2319680247
 20
3.5397281321
 30
0.0
 10
6.2308144072
 20
3.540319216
 30
0.0
 10
6.2297185492
 20
3.5409353249
 30
0.0
 10
6.228699467
 20
3.5415656654
 30
0.0
 10
6.2277747835
 20
3.5421991878
 30
0.0
 10
6.2269602656
 20
3.5428248224
 30
0.0
 10
6.2262698077
 20
3.5434316577
 30
0.0
 10
6.225788536
 20
3.5439319754
 30
0.0
 10
6.2254796977
 20
3.5443168081
 30
0.0
 10
6.225295486
 20
3.5445824415
 30
0.0
 10
6.2251495621
 20
3.5448360687
 30
0.0
 10
6.2250426394
 20
3.5450768997
 30
0.0
 10
6.2249752289
 20
3.5453042011
 30
0.0
 10
6.2249481525
 20
3.5455174529
 30
0.0
 10
6.224962363
 20
3.5457156032
 30
0.0
 10
6.225000337
 20
3.5458378559
 30
0.0
 10
6.2250256811
 20
3.5458941512
 30
0.0
  0
SPLINE
  5
329
100
AcDbEntity
  8
0
100
AcDbSpline
 62
7
  6
CONTINUOUS
 70
0
 71
3
 72
13
 73
9
 74
0
 42
0.0000001
 43
0.0000001
 44
0.0000000001
 40
0.0
 40
0.0
 40
0.0
 40
0.0
 40
0.2512762729
 40
0.3767765601
 40
0.5020862175
 40
0.6271365165
 40
0.7518574314
 40
1.0
 40
1.0
 40
1.0
 40
1.0
 10
6.1821639875
 20
3.4870737909
 30
0.0
 10
6.1832100223
 20
3.4880077744
 30
0.0
 10
6.1847644667
 20
3.4894240268
 30
0.0
 10
6.1868123012
 20
3.4913365932
 30
0.0
 10
6.1883346307
 20
3.4927796935
 30
0.0
 10
6.1898440709
 20
3.4942299921
 30
0.0
 10
6.1918354091
 20
3.4961680739
 30
0.0
 10
6.1933182705
 20
3.4976279412
 30
0.0
 10
6.194308609
 20
3.4985959289
 30
0.0
  0
SPLINE
  5
32A
100
AcDbEntity
  8
0
100
AcDbSpline
 62
7
  6
CONTINUOUS
 70
0
 71
3
 72
10
 73
6
 74
0
 42
0.0000001
 43
0.0000001
 44
0.0000000001
 40
0.0
 40
0.0
 40
0.0
 40
0.0
 40
0.5041409561
 40
0.7531375661
 40
1.0
 40
1.0
 40
1.0
 40
1.0
 10
6.194308609
 20
3.4985959289
 30
0.0
 10
6.1957958867
 20
3.5000496405
 30
0.0
 10
6.19802704
 20
3.5022121719
 30
0.0
 10
6.2010508096
 20
3.5050186791
 30
0.0
 10
6.2025852685
 20
3.5063719942
 30
0.0
 10
6.2033614562
 20
3.5070312589
 30
0.0
  0
ENDSEC
  0
SECTION
  2
OBJECTS
  0
DICTIONARY
  5
C
100
AcDbDictionary
280
0
281
1
  3
ACAD_GROUP
350
D
  3
ACAD_MLINESTYLE
350
17
  3
ACAD_LAYOUT
350
1A
  3
ACAD_PLOTSETTINGS
350
19
  3
ACAD_PLOTSTYLENAME
350
E
  0
DICTIONARY
  5
D
102
{ACAD_REACTORS
330
C
102
}
100
AcDbDictionary
280
0
281
1
  0
ACDBDICTIONARYWDFLT
  5
E
102
{ACAD_REACTORS
330
C
102
}
100
AcDbDictionary
281
1
  3
Normal
350
F
100
AcDbDictionaryWithDefault
340
F
  0
DICTIONARY
  5
17
102
{ACAD_REACTORS
330
C
102
}
100
AcDbDictionary
280
0
281
1
  3
Standard
350
18
  0
DICTIONARY
  5
19
102
{ACAD_REACTORS
330
C
102
}
100
AcDbDictionary
281
1
  0
DICTIONARY
  5
1A
102
{ACAD_REACTORS
330
C
102
}
100
AcDbDictionary
281
1
  3
Model
350
32B
  3
Layout1
350
32C
  0
ACDBPLACEHOLDER
  5
F
102
{ACAD_REACTORS
330
E
102
}
  0
MLINESTYLE
  5
18
102
{ACAD_REACTORS
330
17
102
}
100
AcDbMlineStyle
  2
STANDARD
 70
0
  3

 62
256
 51
90.0
 52
90.0
 71
2
 49
0.5
 62
256
  6
BYLAYER
 49
-0.5
 62
256
  6
BYLAYER
  0
LAYOUT
  5
32B
102
{ACAD_REACTORS
330
1A
102
}
100
AcDbPlotSettings
  1

  2
none_device
  4
ANSI_A_(11.00_x_8.50_Inches)
  6

 40
0.0
 41
0.0
 42
0.0
 43
0.0
 44
279.4
 45
215.9
 46
0.0
 47
0.0
 48
0.0
 49
0.0
140
0.0
141
0.0
142
1.0
143
1.0
 70
1024
 72
0
 73
0
 74
0
  7

 75
0
147
1.0
148
0.0
149
0.0
100
AcDbLayout
  1
Model
 70
0
 71
0
 10
0.0
 20
0.0
 11
11.0
 21
8.5
 12
0.0
 22
0.0
 32
0.0
 14
0.0
 24
0.0
 34
0.0
 15
0.0
 25
0.0
 35
0.0
146
0.0
 13
0.0
 23
0.0
 33
0.0
 16
1.0
 26
0.0
 36
0.0
 17
0.0
 27
1.0
 37
0.0
 76
0
330
202
345
0
346
0
  0
LAYOUT
  5
32C
102
{ACAD_REACTORS
330
1A
102
}
100
AcDbPlotSettings
  1

  2
none_device
  4
ANSI_A_(11.00_x_8.50_Inches)
  6

 40
0.0
 41
0.0
 42
0.0
 43
0.0
 44
279.4
 45
215.9
 46
0.0
 47
0.0
 48
0.0
 49
0.0
140
0.0
141
0.0
142
1.0
143
1.0
 70
0
 72
0
 73
0
 74
0
  7

 75
0
147
1.0
148
0.0
149
0.0
100
AcDbLayout
  1
Layout1
 70
0
 71
1
 10
0.0
 20
0.0
 11
11.0
 21
8.5
 12
0.0
 22
0.0
 32
0.0
 14
0.0
 24
0.0
 34
0.0
 15
0.0
 25
0.0
 35
0.0
146
0.0
 13
0.0
 23
0.0
 33
0.0
 16
1.0
 26
0.0
 36
0.0
 17
0.0
 27
1.0
 37
0.0
 76
0
330
203
345
0
346
0
  0
ENDSEC
  0
EOF
