999
DXF file: 2480-2400_front.dxf
999
Pro/ENGINEER 2019352 by Parametric Technology Corporation
  0
SECTION
  2
HEADER
  9
$ACADVER
  1
AC1032
  9
$DWGCODEPAGE
  3
ANSI_1252
  9
$EXTMAX
 10
11.0
 20
8.5
 30
0.0
  9
$EXTMIN
 10
0.0
 20
0.0
 30
0.0
  9
$LIMMIN
 10
0.0
 20
0.0
  9
$LIMMAX
 10
11.0
 20
8.5
  9
$VIEWCTR
 10
5.5
 20
4.25
  9
$VIEWSIZE
 40
8.5
  9
$CLAYER
  8
0
  9
$LTSCALE
 40
0.605
  9
$CELTYPE
  6
BYLAYER
  9
$DIMSCALE
 40
1.0
  9
$DIMASZ
 40
0.1
  9
$DIMEXO
 40
0.0625
  9
$DIMDLI
 40
0.418
  9
$DIMEXE
 40
0.125
  9
$DIMCEN
 40
0.099
  9
$DIMLFAC
 40
1.0
  9
$DIMBLK
  1
_FILLED
  9
$DIMALT
 70
1
  9
$DIMALTD
 70
2
  9
$DIMALTTD
 70
2
  9
$DIMALTF
 40
25.4
  9
$DIMTXT
 40
0.08
  9
$DIMTOL
 70
1
  9
$DIMLIM
 70
0
  9
$DIMTFAC
 40
1.0
  9
$DIMTP
 40
0.001
  9
$DIMTM
 40
0.001
  9
$DIMGAP
 40
0.09
  9
$DIMDSEP
 70
46
  9
$AUNITS
 70
0
  9
$PDMODE
 70
3
  9
$PDSIZE
 40
0.3125
  9
$HANDSEED
  5
24C
  9
$TILEMODE
 70
1
  9
$MEASUREMENT
 70
0
  9
$INSUNITS
 70
1
  0
ENDSEC
  0
SECTION
  2
CLASSES
  0
CLASS
  1
ACDBDICTIONARYWDFLT
  2
AcDbDictionaryWithDefault
  3
AutoCAD 2000
 90
0
 91
1
280
0
281
0
  0
CLASS
  1
ACDBPLACEHOLDER
  2
AcDbPlaceHolder
  3
AutoCAD 2000
 90
0
 91
1
280
0
281
0
  0
CLASS
  1
LAYOUT
  2
AcDbLayout
  3
AutoCAD 2000
 90
0
 91
0
280
0
281
0
  0
ENDSEC
  0
SECTION
  2
TABLES
  0
TABLE
  2
VPORT
  5
8
100
AcDbSymbolTable
 70
2
  0
VPORT
  5
1F4
100
AcDbSymbolTableRecord
100
AcDbViewportTableRecord
  2
*ACTIVE
 70
0
 10
0.0
 20
0.0
 11
1.0
 21
1.0
 12
5.5
 22
4.25
 13
0.0
 23
0.0
 14
1.0
 24
1.0
 15
0.0
 25
0.0
 16
0.0
 26
0.0
 36
1.0
 17
0.0
 27
0.0
 37
0.0
 40
8.5
 41
1.2941176471
 42
50.0
 43
0.0
 44
0.0
 50
0.0
 51
0.0
 71
0
 72
100
 73
1
 74
1
 75
0
 76
0
 77
0
 78
0
  0
ENDTAB
  0
TABLE
  2
LTYPE
  5
5
100
AcDbSymbolTable
 70
6
  0
LTYPE
  5
14
100
AcDbSymbolTableRecord
100
AcDbLinetypeTableRecord
  2
BYBLOCK
 70
0
  3

 72
65
 73
0
 40
0.0
  0
LTYPE
  5
15
100
AcDbSymbolTableRecord
100
AcDbLinetypeTableRecord
  2
BYLAYER
 70
0
  3

 72
65
 73
0
 40
0.0
  0
LTYPE
  5
16
100
AcDbSymbolTableRecord
100
AcDbLinetypeTableRecord
  2
CONTINUOUS
 70
64
  3
Solid line
 72
65
 73
0
 40
0.0
  0
LTYPE
  5
1F5
100
AcDbSymbolTableRecord
100
AcDbLinetypeTableRecord
  2
CENTER
 70
64
  3
____ _ ____ _ ____ _ ____ _ ____ _ ____ _ ____
 72
65
 73
4
 40
0.6
 49
0.375
 74
0
 49
-0.075
 74
0
 49
0.075
 74
0
 49
-0.075
 74
0
  0
LTYPE
  5
1F6
100
AcDbSymbolTableRecord
100
AcDbLinetypeTableRecord
  2
HIDDEN
 70
64
  3
- - - - - - - - - - - - - - - - - - - -
 72
65
 73
2
 40
0.2
 49
0.1
 74
0
 49
-0.1
 74
0
  0
LTYPE
  5
1F7
100
AcDbSymbolTableRecord
100
AcDbLinetypeTableRecord
  2
PHANTOM
 70
64
  3
_____ _ _ _____ _ _ _____ _ _ _____
 72
65
 73
6
 40
0.8
 49
0.45
 74
0
 49
-0.05
 74
0
 49
0.1
 74
0
 49
-0.05
 74
0
 49
0.1
 74
0
 49
-0.05
 74
0
  0
LTYPE
  5
1F8
100
AcDbSymbolTableRecord
100
AcDbLinetypeTableRecord
  2
DOT
 70
64
  3
. . . . . . . . . . . . . . . . . . . .
 72
65
 73
2
 40
0.2
 49
0.1
 74
0
 49
-0.1
 74
0
  0
LTYPE
  5
1F9
100
AcDbSymbolTableRecord
100
AcDbLinetypeTableRecord
  2
DASHED
 70
64
  3
- - - - - - - - - - - - - - - - - - - -
 72
65
 73
2
 40
0.2
 49
0.1
 74
0
 49
-0.1
 74
0
  0
ENDTAB
  0
TABLE
  2
LAYER
  5
2
100
AcDbSymbolTable
 70
36
  0
LAYER
  5
10
100
AcDbSymbolTableRecord
100
AcDbLayerTableRecord
  2
0
 70
0
 62
7
  6
CONTINUOUS
370
-3
390
F
  0
LAYER
  5
1FA
100
AcDbSymbolTableRecord
100
AcDbLayerTableRecord
  2
DEFAULT_1
 70
0
 62
7
  6
CENTER
370
-3
390
F
  0
LAYER
  5
1FB
100
AcDbSymbolTableRecord
100
AcDbLayerTableRecord
  2
DEFAULT_2
 70
0
 62
8
  6
HIDDEN
370
-3
390
F
  0
LAYER
  5
1FC
100
AcDbSymbolTableRecord
100
AcDbLayerTableRecord
  2
DEFAULT_3
 70
0
 62
7
  6
PHANTOM
370
-3
390
F
  0
LAYER
  5
1FD
100
AcDbSymbolTableRecord
100
AcDbLayerTableRecord
  2
06___PRT_ALL_SURFS
 70
0
 62
7
  6
CONTINUOUS
370
-3
390
F
  0
LAYER
  5
1FE
100
AcDbSymbolTableRecord
100
AcDbLayerTableRecord
  2
ALL_FEATURES
 70
0
 62
7
  6
CONTINUOUS
370
-3
390
F
  0
LAYER
  5
1FF
100
AcDbSymbolTableRecord
100
AcDbLayerTableRecord
  2
AXES_FEATURES
 70
0
 62
7
  6
CONTINUOUS
370
-3
390
F
  0
LAYER
  5
200
100
AcDbSymbolTableRecord
100
AcDbLayerTableRecord
  2
DEFAULT_COORDINATE_SYSTEM
 70
0
 62
7
  6
CONTINUOUS
370
-3
390
F
  0
LAYER
  5
201
100
AcDbSymbolTableRecord
100
AcDbLayerTableRecord
  2
DEFAULT_DATUM_AXES
 70
0
 62
7
  6
CONTINUOUS
370
-3
390
F
  0
LAYER
  5
202
100
AcDbSymbolTableRecord
100
AcDbLayerTableRecord
  2
DEFAULT_DATUM_CURVES
 70
0
 62
7
  6
CONTINUOUS
370
-3
390
F
  0
LAYER
  5
203
100
AcDbSymbolTableRecord
100
AcDbLayerTableRecord
  2
DEFAULT_DATUM_PLANES
 70
0
 62
7
  6
CONTINUOUS
370
-3
390
F
  0
LAYER
  5
204
100
AcDbSymbolTableRecord
100
AcDbLayerTableRecord
  2
DEFAULT_SURFACES
 70
0
 62
7
  6
CONTINUOUS
370
-3
390
F
  0
LAYER
  5
205
100
AcDbSymbolTableRecord
100
AcDbLayerTableRecord
  2
DIMENSIONS
 70
0
 62
7
  6
CONTINUOUS
370
-3
390
F
  0
LAYER
  5
206
100
AcDbSymbolTableRecord
100
AcDbLayerTableRecord
  2
INTF_BLANK
 70
0
 62
7
  6
CONTINUOUS
370
-3
390
F
  0
LAYER
  5
207
100
AcDbSymbolTableRecord
100
AcDbLayerTableRecord
  2
PLATED_SURFACE_AREA
 70
0
 62
7
  6
CONTINUOUS
370
-3
390
F
  0
LAYER
  5
208
100
AcDbSymbolTableRecord
100
AcDbLayerTableRecord
  2
SHELL
 70
0
 62
7
  6
CONTINUOUS
370
-3
390
F
  0
LAYER
  5
209
100
AcDbSymbolTableRecord
100
AcDbLayerTableRecord
  2
___SHELL
 70
0
 62
7
  6
CONTINUOUS
370
-3
390
F
  0
ENDTAB
  0
TABLE
  2
STYLE
  5
3
100
AcDbSymbolTable
 70
1
  0
STYLE
  5
11
100
AcDbSymbolTableRecord
100
AcDbTextStyleTableRecord
  2
STANDARD
 70
0
 40
0.0
 41
0.8
 50
0.0
 71
0
 42
0.2
  3
txt
  4

  0
STYLE
  5
20A
100
AcDbSymbolTableRecord
100
AcDbTextStyleTableRecord
  2
TEXTSTYLE_1
 70
0
 40
0.0
 41
0.8
 50
0.0
 71
0
 42
0.2
  3
gdt
  4

  0
ENDTAB
  0
TABLE
  2
VIEW
  5
6
100
AcDbSymbolTable
 70
0
  0
ENDTAB
  0
TABLE
  2
UCS
  5
7
100
AcDbSymbolTable
 70
0
  0
ENDTAB
  0
TABLE
  2
APPID
  5
9
100
AcDbSymbolTable
 70
1
  0
APPID
  5
20B
100
AcDbSymbolTableRecord
100
AcDbRegAppTableRecord
  2
ACAD
 70
0
  0
ENDTAB
  0
TABLE
  2
BLOCK_RECORD
  5
1
100
AcDbSymbolTable
 70
0
  0
BLOCK_RECORD
  5
20C
100
AcDbSymbolTableRecord
100
AcDbBlockTableRecord
  2
*Model_Space
  0
BLOCK_RECORD
  5
20D
100
AcDbSymbolTableRecord
100
AcDbBlockTableRecord
  2
*Paper_Space
  0
BLOCK_RECORD
  5
20E
100
AcDbSymbolTableRecord
100
AcDbBlockTableRecord
  2
_FILLED
  0
ENDTAB
  0
TABLE
  2
DIMSTYLE
  5
A
100
AcDbSymbolTable
 70
1
100
AcDbDimStyleTable
 71
0
  0
DIMSTYLE
105
20F
100
AcDbSymbolTableRecord
100
AcDbDimStyleTableRecord
  2
STANDARD
 70
0
  3

  4

 40
1.0
 41
0.1
 42
0.0625
 43
0.38
 44
0.125
 45
0.0
 46
0.0
 47
0.001
 48
0.001
140
0.08
141
0.09
142
0.0
143
25.4
144
1.0
145
0.0
146
1.0
147
0.09
 71
1.0
 72
0.0
 73
1
 74
1
 75
0
 76
0
 77
0
 78
4
 79
1
170
1
171
2
172
0
173
0
174
0
175
0
176
0
177
0
178
0
270
2
179
3
271
3
272
3
273
2
274
2
275
0
280
0
281
0
282
0
283
1
284
4
285
0
286
0
287
3
288
0
340
11
278
46
341
20E
342
20E
343
20E
344
20E
  0
ENDTAB
  0
ENDSEC
  0
SECTION
  2
BLOCKS
  0
BLOCK
  5
20
100
AcDbEntity
  8
0
100
AcDbBlockBegin
  2
*Model_Space
 70
0
 10
0.0
 20
0.0
 30
0.0
  3
*Model_Space
  1

  0
ENDBLK
  5
21
100
AcDbEntity
  8
0
100
AcDbBlockEnd
  0
BLOCK
  5
1C
100
AcDbEntity
  8
0
100
AcDbBlockBegin
  2
*Paper_Space
 70
0
 10
0.0
 20
0.0
 30
0.0
  3
*Paper_Space
  1

  0
ENDBLK
  5
1D
100
AcDbEntity
  8
0
100
AcDbBlockEnd
  0
BLOCK
  5
210
100
AcDbEntity
  8
0
100
AcDbBlockBegin
  2
_FILLED
 70
64
 10
0.0
 20
0.0
  3
_FILLED
  1

  0
SOLID
  5
211
100
AcDbEntity
  8
0
  6
BYBLOCK
 62
0
100
AcDbTrace
 10
0.0
 20
0.0
 11
-1.0
 21
0.2
 12
-1.0
 22
-0.2
 13
-1.0
 23
-0.2
  0
ENDBLK
  5
212
100
AcDbEntity
  8
0
  6
BYBLOCK
 62
0
100
AcDbBlockEnd
  0
ENDSEC
  0
SECTION
  2
ENTITIES
  0
MTEXT
  5
213
100
AcDbEntity
  8
0
100
AcDbMText
 62
2
  6
CONTINUOUS
  7
STANDARD
 71
3
 72
1
 10
5.4708869197
 20
3.1266319009
 30
0.0
 11
1.0
 21
0.0
 31
0.0
 73
2
 44
0.9
  1
SCALE 1.000
 40
0.08
 41
0.704
  0
LINE
  5
214
100
AcDbEntity
  8
0
100
AcDbLine
 62
7
  6
CONTINUOUS
 10
0.0
 20
0.0
 11
0.0
 21
8.5
  0
LINE
  5
215
100
AcDbEntity
  8
0
100
AcDbLine
 62
7
  6
CONTINUOUS
 10
0.0
 20
0.0
 11
11.0
 21
0.0
  0
LINE
  5
216
100
AcDbEntity
  8
0
100
AcDbLine
 62
7
  6
CONTINUOUS
 10
0.0
 20
8.5
 11
11.0
 21
8.5
  0
LINE
  5
217
100
AcDbEntity
  8
0
100
AcDbLine
 62
7
  6
CONTINUOUS
 10
11.0
 20
0.0
 11
11.0
 21
8.5
  0
ARC
  5
218
100
AcDbEntity
  8
0
100
AcDbCircle
 62
7
  6
CONTINUOUS
 10
2.4708869197
 20
3.6341319009
 40
0.2055
100
AcDbArc
 50
81.7981652059
 51
98.201835192
  0
CIRCLE
  5
219
100
AcDbEntity
  8
0
100
AcDbCircle
 62
7
  6
CONTINUOUS
 10
2.4708869197
 20
4.7216319009
 40
1.5
  0
CIRCLE
  5
21A
100
AcDbEntity
  8
0
100
AcDbCircle
 62
7
  6
CONTINUOUS
 10
2.4708869197
 20
4.7216319009
 40
1.375
  0
CIRCLE
  5
21B
100
AcDbEntity
  8
0
100
AcDbCircle
 62
7
  6
CONTINUOUS
 10
2.4708869197
 20
4.7216319009
 40
0.885
  0
CIRCLE
  5
21C
100
AcDbEntity
  8
0
100
AcDbCircle
 62
7
  6
CONTINUOUS
 10
2.4708869197
 20
4.7216319009
 40
0.875
  0
CIRCLE
  5
21D
100
AcDbEntity
  8
0
100
AcDbCircle
 62
7
  6
CONTINUOUS
 10
2.4708869197
 20
4.7216319009
 40
0.8149999989
  0
CIRCLE
  5
21E
100
AcDbEntity
  8
0
100
AcDbCircle
 62
7
  6
CONTINUOUS
 10
2.4708869197
 20
4.7216319009
 40
0.63
  0
ARC
  5
21F
100
AcDbEntity
  8
0
100
AcDbCircle
 62
7
  6
CONTINUOUS
 10
2.4708847109
 20
4.7216339036
 40
0.6251023144
100
AcDbArc
 50
266.4844993939
 51
356.3760724484
  0
CIRCLE
  5
220
100
AcDbEntity
  8
0
100
AcDbCircle
 62
7
  6
CONTINUOUS
 10
2.4708869197
 20
4.7216319009
 40
0.58
  0
ARC
  5
221
100
AcDbEntity
  8
0
100
AcDbCircle
 62
7
  6
CONTINUOUS
 10
2.7828622344
 20
5.0433671992
 40
0.4271907306
100
AcDbArc
 50
43.4430698095
 51
44.5958506923
  0
ARC
  5
222
100
AcDbEntity
  8
0
100
AcDbCircle
 62
7
  6
CONTINUOUS
 10
2.8375203814
 20
5.0971939953
 40
0.3504780565
100
AcDbArc
 50
44.6034930922
 51
45.7895888401
  0
ARC
  5
223
100
AcDbEntity
  8
0
100
AcDbCircle
 62
7
  6
CONTINUOUS
 10
3.5583869197
 20
4.7216319009
 40
0.2055
100
AcDbArc
 50
171.7981657634
 51
188.2018346359
  0
ARC
  5
224
100
AcDbEntity
  8
0
100
AcDbCircle
 62
7
  6
CONTINUOUS
 10
2.4708869197
 20
5.8091319009
 40
0.2055
100
AcDbArc
 50
261.7981652059
 51
278.201835192
  0
ARC
  5
225
100
AcDbEntity
  8
0
100
AcDbCircle
 62
7
  6
CONTINUOUS
 10
1.3833869197
 20
4.7216319009
 40
0.2055
100
AcDbArc
 50
351.7981657634
 51
8.2018346359
  0
ARC
  5
226
100
AcDbEntity
  8
0
100
AcDbCircle
 62
7
  6
CONTINUOUS
 10
8.4708869197
 20
3.6341319009
 40
0.2055
100
AcDbArc
 50
81.7981652059
 51
98.201835192
  0
CIRCLE
  5
227
100
AcDbEntity
  8
0
100
AcDbCircle
 62
7
  6
CONTINUOUS
 10
8.4708869197
 20
4.7216319009
 40
1.5
  0
CIRCLE
  5
228
100
AcDbEntity
  8
0
100
AcDbCircle
 62
7
  6
CONTINUOUS
 10
8.4708869197
 20
4.7216319009
 40
1.375
  0
CIRCLE
  5
229
100
AcDbEntity
  8
0
100
AcDbCircle
 62
7
  6
CONTINUOUS
 10
8.4708869197
 20
4.7216319009
 40
0.885
  0
CIRCLE
  5
22A
100
AcDbEntity
  8
0
100
AcDbCircle
 62
7
  6
CONTINUOUS
 10
8.4708869197
 20
4.7216319009
 40
0.875
  0
CIRCLE
  5
22B
100
AcDbEntity
  8
0
100
AcDbCircle
 62
7
  6
CONTINUOUS
 10
8.4708869197
 20
4.7216319009
 40
0.8149999989
  0
CIRCLE
  5
22C
100
AcDbEntity
  8
0
100
AcDbCircle
 62
7
  6
CONTINUOUS
 10
8.4708869197
 20
4.7216319009
 40
0.63
  0
ARC
  5
22D
100
AcDbEntity
  8
0
100
AcDbCircle
 62
7
  6
CONTINUOUS
 10
8.4708847109
 20
4.7216339036
 40
0.6251023144
100
AcDbArc
 50
266.4844993939
 51
356.3760724484
  0
CIRCLE
  5
22E
100
AcDbEntity
  8
0
100
AcDbCircle
 62
7
  6
CONTINUOUS
 10
8.4708869197
 20
4.7216319009
 40
0.58
  0
ARC
  5
22F
100
AcDbEntity
  8
0
100
AcDbCircle
 62
7
  6
CONTINUOUS
 10
8.7828622344
 20
5.0433671992
 40
0.4271907306
100
AcDbArc
 50
43.4430698095
 51
44.5958506923
  0
ARC
  5
230
100
AcDbEntity
  8
0
100
AcDbCircle
 62
7
  6
CONTINUOUS
 10
8.8375203814
 20
5.0971939953
 40
0.3504780565
100
AcDbArc
 50
44.6034930921
 51
45.7895888401
  0
ARC
  5
231
100
AcDbEntity
  8
0
100
AcDbCircle
 62
7
  6
CONTINUOUS
 10
9.5583869197
 20
4.7216319009
 40
0.2055
100
AcDbArc
 50
171.7981657634
 51
188.2018346359
  0
ARC
  5
232
100
AcDbEntity
  8
0
100
AcDbCircle
 62
7
  6
CONTINUOUS
 10
8.4708869197
 20
5.8091319009
 40
0.2055
100
AcDbArc
 50
261.7981652059
 51
278.201835192
  0
ARC
  5
233
100
AcDbEntity
  8
0
100
AcDbCircle
 62
7
  6
CONTINUOUS
 10
7.3833869197
 20
4.7216319009
 40
0.2055
100
AcDbArc
 50
351.7981657634
 51
8.2018346359
  0
SPLINE
  5
234
100
AcDbEntity
  8
0
100
AcDbSpline
 62
7
  6
CONTINUOUS
 70
0
 71
3
 72
33
 73
29
 74
0
 42
0.0000001
 43
0.0000001
 44
0.0000000001
 40
0.0
 40
0.0
 40
0.0
 40
0.0
 40
0.0312457672
 40
0.0625034809
 40
0.093757131
 40
0.1250074867
 40
0.1874835999
 40
0.2499600496
 40
0.2812124677
 40
0.3124647161
 40
0.3437165919
 40
0.3749684395
 40
0.4374459645
 40
0.4999316675
 40
0.5311934837
 40
0.562457929
 40
0.5937231257
 40
0.624988037
 40
0.6562515359
 40
0.6875127068
 40
0.7187715158
 40
0.7500280364
 40
0.8125064577
 40
0.874982428
 40
0.9062346332
 40
0.9374911816
 40
0.9687527792
 40
1.0
 40
1.0
 40
1.0
 40
1.0
 10
8.432554359
 20
4.097708328
 30
0.0
 10
8.4202830278
 20
4.0989157614
 30
0.0
 10
8.3958011303
 20
4.1020603627
 30
0.0
 10
8.3594265534
 20
4.1089432559
 30
0.0
 10
8.3235218426
 20
4.1179804925
 30
0.0
 10
8.2764712133
 20
4.132853781
 30
0.0
 10
8.2194489914
 20
4.1566798757
 30
0.0
 10
8.1656907688
 20
4.1871690578
 30
0.0
 10
8.1251413817
 20
4.2152910385
 30
0.0
 10
8.0960472126
 20
4.2381865903
 30
0.0
 10
8.0683939086
 20
4.2628029806
 30
0.0
 10
8.0335915904
 20
4.2977876071
 30
0.0
 10
7.9941745757
 20
4.3453987914
 30
0.0
 10
7.9608602385
 20
4.3974700013
 30
0.0
 10
7.9381964177
 20
4.4413191096
 30
0.0
 10
7.9232479273
 20
4.4752060332
 30
0.0
 10
7.9104151257
 20
4.509949519
 30
0.0
 10
7.8997595265
 20
4.5454213907
 30
0.0
 10
7.8913204552
 20
4.5814833072
 30
0.0
 10
7.8851390971
 20
4.6179974583
 30
0.0
 10
7.8812450682
 20
4.6548244602
 30
0.0
 10
7.8791256231
 20
4.7041322661
 30
0.0
 10
7.8822739471
 20
4.7658703872
 30
0.0
 10
7.8931499077
 20
4.8267249553
 30
0.0
 10
7.9063919821
 20
4.8742656139
 30
0.0
 10
7.918566511
 20
4.9092382231
 30
0.0
 10
7.9329381032
 20
4.9433615642
 30
0.0
 10
7.9439465061
 20
4.9654591597
 30
0.0
 10
7.9497952666
 20
4.9763150159
 30
0.0
  0
SPLINE
  5
235
100
AcDbEntity
  8
0
100
AcDbSpline
 62
7
  6
CONTINUOUS
 70
0
 71
3
 72
39
 73
35
 74
0
 42
0.0000001
 43
0.0000001
 44
0.0000000001
 40
0.0
 40
0.0
 40
0.0
 40
0.0
 40
0.0312342528
 40
0.0624926902
 40
0.0937524063
 40
0.1250035806
 40
0.1562513185
 40
0.1875003002
 40
0.2187513037
 40
0.2500023642
 40
0.2812523882
 40
0.3125022338
 40
0.3437521481
 40
0.3750025883
 40
0.406253256
 40
0.437503545
 40
0.4687538474
 40
0.5000038658
 40
0.5312535914
 40
0.5625034235
 40
0.593753044
 40
0.6250027707
 40
0.6562525482
 40
0.6875020189
 40
0.7187518356
 40
0.7500020841
 40
0.7812526365
 40
0.812502577
 40
0.8437500978
 40
0.8749970464
 40
0.906248781
 40
0.9375088605
 40
0.9687660463
 40
1.0
 40
1.0
 40
1.0
 40
1.0
 10
8.2829423867
 20
5.2703366052
 30
0.0
 10
8.2944382347
 20
5.274789731
 30
0.0
 10
8.3177310938
 20
5.2829646507
 30
0.0
 10
8.35337769
 20
5.2929837261
 30
0.0
 10
8.3895964645
 20
5.30072192
 30
0.0
 10
8.4262285634
 20
5.3061449422
 30
0.0
 10
8.4631256156
 20
5.3092452276
 30
0.0
 10
8.5001446133
 20
5.3100102777
 30
0.0
 10
8.537139636
 20
5.3084489076
 30
0.0
 10
8.573964605
 20
5.3045727185
 30
0.0
 10
8.6104735052
 20
5.2983955478
 30
0.0
 10
8.646525931
 20
5.2899555989
 30
0.0
 10
8.6819825423
 20
5.279285452
 30
0.0
 10
8.7167075909
 20
5.2664324636
 30
0.0
 10
8.7505712161
 20
5.2514561037
 30
0.0
 10
8.7834420832
 20
5.2344110511
 30
0.0
 10
8.81519975
 20
5.2153731743
 30
0.0
 10
8.8457265887
 20
5.1944187441
 30
0.0
 10
8.8749068852
 20
5.1716270818
 30
0.0
 10
8.9026390842
 20
5.1470944184
 30
0.0
 10
8.9288192194
 20
5.1209118198
 30
0.0
 10
8.9533535094
 20
5.0931813847
 30
0.0
 10
8.9761589156
 20
5.0640126622
 30
0.0
 10
8.9971490927
 20
5.0335116472
 30
0.0
 10
9.0162557145
 20
5.0017967741
 30
0.0
 10
9.0334131653
 20
4.9689859158
 30
0.0
 10
9.048557961
 20
4.9351989719
 30
0.0
 10
9.0616472305
 20
4.9005651738
 30
0.0
 10
9.0726346134
 20
4.8652097893
 30
0.0
 10
9.0814839398
 20
4.8292590461
 30
0.0
 10
9.0881732787
 20
4.7928395868
 30
0.0
 10
9.0926752424
 20
4.7560812149
 30
0.0
 10
9.0949852817
 20
4.7191289704
 30
0.0
 10
9.0950641046
 20
4.6944466281
 30
0.0
 10
9.0947370992
 20
4.6821228702
 30
0.0
  0
SPLINE
  5
236
100
AcDbEntity
  8
0
100
AcDbSpline
 62
7
  6
CONTINUOUS
 70
0
 71
3
 72
15
 73
11
 74
0
 42
0.0000001
 43
0.0000001
 44
0.0000000001
 40
0.0
 40
0.0
 40
0.0
 40
0.0
 40
0.1316211832
 40
0.2612229544
 40
0.3884352021
 40
0.5130609396
 40
0.6352320961
 40
0.7556211492
 40
0.8758403825
 40
1.0
 40
1.0
 40
1.0
 40
1.0
 10
9.3548188151
 20
4.6808445314
 30
0.0
 10
9.3542391446
 20
4.682422327
 30
0.0
 10
9.3530926968
 20
4.6855551972
 30
0.0
 10
9.3514376173
 20
4.6902317733
 30
0.0
 10
9.3499075352
 20
4.6948571081
 30
0.0
 10
9.3485564645
 20
4.6994396951
 30
0.0
 10
9.3474380107
 20
4.7039958399
 30
0.0
 10
9.3465998787
 20
4.7085556281
 30
0.0
 10
9.3460745216
 20
4.7131883965
 30
0.0
 10
9.3459476773
 20
4.7163090737
 30
0.0
 10
9.3459197894
 20
4.7178944477
 30
0.0
  0
SPLINE
  5
237
100
AcDbEntity
  8
0
100
AcDbSpline
 62
7
  6
CONTINUOUS
 70
0
 71
3
 72
15
 73
11
 74
0
 42
0.0000001
 43
0.0000001
 44
0.0000000001
 40
0.0
 40
0.0
 40
0.0
 40
0.0
 40
0.1241557986
 40
0.2443722302
 40
0.3647637498
 40
0.4869355694
 40
0.6115622213
 40
0.7387755718
 40
0.8683783298
 40
1.0
 40
1.0
 40
1.0
 40
1.0
 10
8.4746243729
 20
3.8465990311
 30
0.0
 10
8.4762096286
 20
3.8465711453
 30
0.0
 10
8.4793300845
 20
3.8464443084
 30
0.0
 10
8.4839625975
 20
3.8459189963
 30
0.0
 10
8.4885222041
 20
3.845080978
 30
0.0
 10
8.4930782083
 20
3.8439625967
 30
0.0
 10
8.4976606466
 20
3.8426116395
 30
0.0
 10
8.5022858075
 20
3.8410815897
 30
0.0
 10
8.506962243
 20
3.8394266659
 30
0.0
 10
8.5100949668
 20
3.8382801885
 30
0.0
 10
8.5116727241
 20
3.8377006094
 30
0.0
  0
SPLINE
  5
238
100
AcDbEntity
  8
0
100
AcDbSpline
 62
7
  6
CONTINUOUS
 70
0
 71
3
 72
15
 73
11
 74
0
 42
0.0000001
 43
0.0000001
 44
0.0000000001
 40
0.0
 40
0.0
 40
0.0
 40
0.0
 40
0.1316211834
 40
0.2612229548
 40
0.3884352027
 40
0.5130609403
 40
0.6352320969
 40
0.7556211498
 40
0.8758403828
 40
1.0
 40
1.0
 40
1.0
 40
1.0
 10
8.430099549
 20
3.8377000051
 30
0.0
 10
8.4316773446
 20
3.8382796756
 30
0.0
 10
8.434810215
 20
3.8394261234
 30
0.0
 10
8.4394867912
 20
3.841081203
 30
0.0
 10
8.4441121262
 20
3.8426112852
 30
0.0
 10
8.4486947134
 20
3.843962356
 30
0.0
 10
8.4532508583
 20
3.8450808098
 30
0.0
 10
8.4578106466
 20
3.8459189418
 30
0.0
 10
8.4624434152
 20
3.8464442989
 30
0.0
 10
8.4655640925
 20
3.8465711432
 30
0.0
 10
8.4671494665
 20
3.8465990311
 30
0.0
  0
SPLINE
  5
239
100
AcDbEntity
  8
0
100
AcDbSpline
 62
7
  6
CONTINUOUS
 70
0
 71
3
 72
15
 73
11
 74
0
 42
0.0000001
 43
0.0000001
 44
0.0000000001
 40
0.0
 40
0.0
 40
0.0
 40
0.0
 40
0.1241557989
 40
0.2443722308
 40
0.3647637505
 40
0.4869355701
 40
0.611562222
 40
0.7387755722
 40
0.86837833
 40
1.0
 40
1.0
 40
1.0
 40
1.0
 10
7.59585405
 20
4.7178944477
 30
0.0
 10
7.5958261642
 20
4.716309192
 30
0.0
 10
7.5956993272
 20
4.7131887362
 30
0.0
 10
7.5951740151
 20
4.7085562234
 30
0.0
 10
7.5943359969
 20
4.7039966169
 30
0.0
 10
7.5932176157
 20
4.6994406128
 30
0.0
 10
7.5918666586
 20
4.6948581747
 30
0.0
 10
7.5903366088
 20
4.6902330139
 30
0.0
 10
7.588681685
 20
4.6855565786
 30
0.0
 10
7.5875352077
 20
4.6824238549
 30
0.0
 10
7.5869556286
 20
4.6808460977
 30
0.0
  0
SPLINE
  5
23A
100
AcDbEntity
  8
0
100
AcDbSpline
 62
7
  6
CONTINUOUS
 70
0
 71
3
 72
15
 73
11
 74
0
 42
0.0000001
 43
0.0000001
 44
0.0000000001
 40
0.0
 40
0.0
 40
0.0
 40
0.0
 40
0.1316211832
 40
0.2612229544
 40
0.3884352021
 40
0.5130609396
 40
0.6352320961
 40
0.7556211492
 40
0.8758403825
 40
1.0
 40
1.0
 40
1.0
 40
1.0
 10
7.5869550243
 20
4.7624192703
 30
0.0
 10
7.5875346948
 20
4.7608414748
 30
0.0
 10
7.5886811426
 20
4.7577086045
 30
0.0
 10
7.5903362221
 20
4.7530320285
 30
0.0
 10
7.5918663042
 20
4.7484066936
 30
0.0
 10
7.5932173749
 20
4.7438241066
 30
0.0
 10
7.5943358287
 20
4.7392679619
 30
0.0
 10
7.5951739607
 20
4.7347081737
 30
0.0
 10
7.5956993178
 20
4.7300754053
 30
0.0
 10
7.5958261621
 20
4.726954728
 30
0.0
 10
7.59585405
 20
4.7253693541
 30
0.0
  0
SPLINE
  5
23B
100
AcDbEntity
  8
0
100
AcDbSpline
 62
7
  6
CONTINUOUS
 70
0
 71
3
 72
15
 73
11
 74
0
 42
0.0000001
 43
0.0000001
 44
0.0000000001
 40
0.0
 40
0.0
 40
0.0
 40
0.0
 40
0.1241557986
 40
0.2443722302
 40
0.3647637498
 40
0.4869355694
 40
0.6115622214
 40
0.7387755719
 40
0.8683783298
 40
1.0
 40
1.0
 40
1.0
 40
1.0
 10
8.4671494665
 20
5.5966647706
 30
0.0
 10
8.4655642108
 20
5.5966926564
 30
0.0
 10
8.4624437549
 20
5.5968194934
 30
0.0
 10
8.4578112419
 20
5.5973448055
 30
0.0
 10
8.4532516353
 20
5.5981828238
 30
0.0
 10
8.4486956311
 20
5.599301205
 30
0.0
 10
8.4441131928
 20
5.6006521622
 30
0.0
 10
8.4394880319
 20
5.6021822121
 30
0.0
 10
8.4348115964
 20
5.6038371359
 30
0.0
 10
8.4316788726
 20
5.6049836133
 30
0.0
 10
8.4301011153
 20
5.6055631924
 30
0.0
  0
SPLINE
  5
23C
100
AcDbEntity
  8
0
100
AcDbSpline
 62
7
  6
CONTINUOUS
 70
0
 71
3
 72
15
 73
11
 74
0
 42
0.0000001
 43
0.0000001
 44
0.0000000001
 40
0.0
 40
0.0
 40
0.0
 40
0.0
 40
0.1316211834
 40
0.2612229548
 40
0.3884352027
 40
0.5130609403
 40
0.6352320969
 40
0.7556211498
 40
0.8758403828
 40
1.0
 40
1.0
 40
1.0
 40
1.0
 10
8.5116742903
 20
5.6055637967
 30
0.0
 10
8.5100964947
 20
5.6049841262
 30
0.0
 10
8.5069636244
 20
5.6038376783
 30
0.0
 10
8.5022870482
 20
5.6021825987
 30
0.0
 10
8.4976617132
 20
5.6006525166
 30
0.0
 10
8.493079126
 20
5.5993014458
 30
0.0
 10
8.4885229811
 20
5.5981829919
 30
0.0
 10
8.4839631928
 20
5.59734486
 30
0.0
 10
8.4793304242
 20
5.5968195028
 30
0.0
 10
8.4762097469
 20
5.5966926585
 30
0.0
 10
8.4746243729
 20
5.5966647706
 30
0.0
  0
SPLINE
  5
23D
100
AcDbEntity
  8
0
100
AcDbSpline
 62
7
  6
CONTINUOUS
 70
0
 71
3
 72
15
 73
11
 74
0
 42
0.0000001
 43
0.0000001
 44
0.0000000001
 40
0.0
 40
0.0
 40
0.0
 40
0.0
 40
0.1241557989
 40
0.2443722308
 40
0.3647637505
 40
0.4869355701
 40
0.611562222
 40
0.7387755722
 40
0.86837833
 40
1.0
 40
1.0
 40
1.0
 40
1.0
 10
9.3459197894
 20
4.7253693541
 30
0.0
 10
9.3459476752
 20
4.7269546097
 30
0.0
 10
9.3460745122
 20
4.7300750656
 30
0.0
 10
9.3465998243
 20
4.7347075783
 30
0.0
 10
9.3474378425
 20
4.7392671849
 30
0.0
 10
9.3485562237
 20
4.7438231889
 30
0.0
 10
9.3499071808
 20
4.7484056271
 30
0.0
 10
9.3514372306
 20
4.7530307878
 30
0.0
 10
9.3530921544
 20
4.7577072232
 30
0.0
 10
9.3542386317
 20
4.7608399469
 30
0.0
 10
9.3548182108
 20
4.7624177041
 30
0.0
  0
LINE
  5
23E
100
AcDbEntity
  8
0
100
AcDbLine
 62
7
  6
CONTINUOUS
 10
9.0930274712
 20
5.3371178521
 11
9.0990660947
 21
5.3307446023
  0
SPLINE
  5
23F
100
AcDbEntity
  8
0
100
AcDbSpline
 62
7
  6
CONTINUOUS
 70
0
 71
3
 72
33
 73
29
 74
0
 42
0.0000001
 43
0.0000001
 44
0.0000000001
 40
0.0
 40
0.0
 40
0.0
 40
0.0
 40
0.0312457672
 40
0.0625034809
 40
0.093757131
 40
0.1250074867
 40
0.1874835999
 40
0.2499600496
 40
0.2812124677
 40
0.3124647161
 40
0.3437165919
 40
0.3749684395
 40
0.4374459645
 40
0.4999316675
 40
0.5311934837
 40
0.562457929
 40
0.5937231257
 40
0.624988037
 40
0.6562515359
 40
0.6875127068
 40
0.7187715158
 40
0.7500280364
 40
0.8125064577
 40
0.874982428
 40
0.9062346332
 40
0.9374911816
 40
0.9687527792
 40
1.0
 40
1.0
 40
1.0
 40
1.0
 10
2.432554359
 20
4.097708328
 30
0.0
 10
2.4202830278
 20
4.0989157614
 30
0.0
 10
2.3958011303
 20
4.1020603627
 30
0.0
 10
2.3594265534
 20
4.1089432559
 30
0.0
 10
2.3235218426
 20
4.1179804925
 30
0.0
 10
2.2764712133
 20
4.132853781
 30
0.0
 10
2.2194489914
 20
4.1566798757
 30
0.0
 10
2.1656907688
 20
4.1871690578
 30
0.0
 10
2.1251413817
 20
4.2152910385
 30
0.0
 10
2.0960472126
 20
4.2381865903
 30
0.0
 10
2.0683939086
 20
4.2628029806
 30
0.0
 10
2.0335915904
 20
4.2977876071
 30
0.0
 10
1.9941745757
 20
4.3453987914
 30
0.0
 10
1.9608602385
 20
4.3974700013
 30
0.0
 10
1.9381964177
 20
4.4413191096
 30
0.0
 10
1.9232479273
 20
4.4752060332
 30
0.0
 10
1.9104151257
 20
4.509949519
 30
0.0
 10
1.8997595265
 20
4.5454213907
 30
0.0
 10
1.8913204552
 20
4.5814833072
 30
0.0
 10
1.8851390971
 20
4.6179974583
 30
0.0
 10
1.8812450682
 20
4.6548244602
 30
0.0
 10
1.8791256231
 20
4.7041322661
 30
0.0
 10
1.8822739471
 20
4.7658703872
 30
0.0
 10
1.8931499077
 20
4.8267249553
 30
0.0
 10
1.9063919821
 20
4.8742656139
 30
0.0
 10
1.918566511
 20
4.9092382231
 30
0.0
 10
1.9329381032
 20
4.9433615642
 30
0.0
 10
1.9439465061
 20
4.9654591597
 30
0.0
 10
1.9497952666
 20
4.9763150159
 30
0.0
  0
SPLINE
  5
240
100
AcDbEntity
  8
0
100
AcDbSpline
 62
7
  6
CONTINUOUS
 70
0
 71
3
 72
39
 73
35
 74
0
 42
0.0000001
 43
0.0000001
 44
0.0000000001
 40
0.0
 40
0.0
 40
0.0
 40
0.0
 40
0.0312342528
 40
0.0624926902
 40
0.0937524063
 40
0.1250035806
 40
0.1562513185
 40
0.1875003002
 40
0.2187513037
 40
0.2500023642
 40
0.2812523882
 40
0.3125022338
 40
0.3437521481
 40
0.3750025883
 40
0.406253256
 40
0.437503545
 40
0.4687538474
 40
0.5000038658
 40
0.5312535914
 40
0.5625034235
 40
0.593753044
 40
0.6250027707
 40
0.6562525482
 40
0.6875020189
 40
0.7187518356
 40
0.7500020841
 40
0.7812526365
 40
0.812502577
 40
0.8437500978
 40
0.8749970464
 40
0.906248781
 40
0.9375088605
 40
0.9687660463
 40
1.0
 40
1.0
 40
1.0
 40
1.0
 10
2.2829423867
 20
5.2703366052
 30
0.0
 10
2.2944382347
 20
5.274789731
 30
0.0
 10
2.3177310938
 20
5.2829646507
 30
0.0
 10
2.35337769
 20
5.2929837261
 30
0.0
 10
2.3895964645
 20
5.30072192
 30
0.0
 10
2.4262285634
 20
5.3061449422
 30
0.0
 10
2.4631256156
 20
5.3092452276
 30
0.0
 10
2.5001446133
 20
5.3100102777
 30
0.0
 10
2.537139636
 20
5.3084489076
 30
0.0
 10
2.573964605
 20
5.3045727185
 30
0.0
 10
2.6104735052
 20
5.2983955478
 30
0.0
 10
2.646525931
 20
5.2899555989
 30
0.0
 10
2.6819825423
 20
5.279285452
 30
0.0
 10
2.7167075909
 20
5.2664324636
 30
0.0
 10
2.7505712161
 20
5.2514561037
 30
0.0
 10
2.7834420832
 20
5.2344110511
 30
0.0
 10
2.81519975
 20
5.2153731743
 30
0.0
 10
2.8457265887
 20
5.1944187441
 30
0.0
 10
2.8749068852
 20
5.1716270818
 30
0.0
 10
2.9026390842
 20
5.1470944184
 30
0.0
 10
2.9288192194
 20
5.1209118198
 30
0.0
 10
2.9533535094
 20
5.0931813847
 30
0.0
 10
2.9761589156
 20
5.0640126622
 30
0.0
 10
2.9971490927
 20
5.0335116472
 30
0.0
 10
3.0162557145
 20
5.0017967741
 30
0.0
 10
3.0334131653
 20
4.9689859158
 30
0.0
 10
3.048557961
 20
4.9351989719
 30
0.0
 10
3.0616472305
 20
4.9005651738
 30
0.0
 10
3.0726346134
 20
4.8652097893
 30
0.0
 10
3.0814839398
 20
4.8292590461
 30
0.0
 10
3.0881732787
 20
4.7928395868
 30
0.0
 10
3.0926752424
 20
4.7560812149
 30
0.0
 10
3.0949852817
 20
4.7191289704
 30
0.0
 10
3.0950641046
 20
4.6944466281
 30
0.0
 10
3.0947370992
 20
4.6821228702
 30
0.0
  0
SPLINE
  5
241
100
AcDbEntity
  8
0
100
AcDbSpline
 62
7
  6
CONTINUOUS
 70
0
 71
3
 72
15
 73
11
 74
0
 42
0.0000001
 43
0.0000001
 44
0.0000000001
 40
0.0
 40
0.0
 40
0.0
 40
0.0
 40
0.1316211832
 40
0.2612229544
 40
0.3884352021
 40
0.5130609396
 40
0.6352320961
 40
0.7556211492
 40
0.8758403825
 40
1.0
 40
1.0
 40
1.0
 40
1.0
 10
3.3548188151
 20
4.6808445314
 30
0.0
 10
3.3542391446
 20
4.682422327
 30
0.0
 10
3.3530926968
 20
4.6855551972
 30
0.0
 10
3.3514376173
 20
4.6902317733
 30
0.0
 10
3.3499075352
 20
4.6948571081
 30
0.0
 10
3.3485564645
 20
4.6994396951
 30
0.0
 10
3.3474380107
 20
4.7039958399
 30
0.0
 10
3.3465998787
 20
4.7085556281
 30
0.0
 10
3.3460745216
 20
4.7131883965
 30
0.0
 10
3.3459476773
 20
4.7163090737
 30
0.0
 10
3.3459197894
 20
4.7178944477
 30
0.0
  0
SPLINE
  5
242
100
AcDbEntity
  8
0
100
AcDbSpline
 62
7
  6
CONTINUOUS
 70
0
 71
3
 72
15
 73
11
 74
0
 42
0.0000001
 43
0.0000001
 44
0.0000000001
 40
0.0
 40
0.0
 40
0.0
 40
0.0
 40
0.1241557986
 40
0.2443722302
 40
0.3647637498
 40
0.4869355694
 40
0.6115622213
 40
0.7387755718
 40
0.8683783298
 40
1.0
 40
1.0
 40
1.0
 40
1.0
 10
2.4746243729
 20
3.8465990311
 30
0.0
 10
2.4762096286
 20
3.8465711453
 30
0.0
 10
2.4793300845
 20
3.8464443084
 30
0.0
 10
2.4839625975
 20
3.8459189963
 30
0.0
 10
2.4885222041
 20
3.845080978
 30
0.0
 10
2.4930782083
 20
3.8439625967
 30
0.0
 10
2.4976606466
 20
3.8426116395
 30
0.0
 10
2.5022858075
 20
3.8410815897
 30
0.0
 10
2.506962243
 20
3.8394266659
 30
0.0
 10
2.5100949668
 20
3.8382801885
 30
0.0
 10
2.5116727241
 20
3.8377006094
 30
0.0
  0
SPLINE
  5
243
100
AcDbEntity
  8
0
100
AcDbSpline
 62
7
  6
CONTINUOUS
 70
0
 71
3
 72
15
 73
11
 74
0
 42
0.0000001
 43
0.0000001
 44
0.0000000001
 40
0.0
 40
0.0
 40
0.0
 40
0.0
 40
0.1316211834
 40
0.2612229548
 40
0.3884352027
 40
0.5130609403
 40
0.6352320969
 40
0.7556211498
 40
0.8758403828
 40
1.0
 40
1.0
 40
1.0
 40
1.0
 10
2.430099549
 20
3.8377000051
 30
0.0
 10
2.4316773446
 20
3.8382796756
 30
0.0
 10
2.434810215
 20
3.8394261234
 30
0.0
 10
2.4394867912
 20
3.841081203
 30
0.0
 10
2.4441121262
 20
3.8426112852
 30
0.0
 10
2.4486947134
 20
3.843962356
 30
0.0
 10
2.4532508583
 20
3.8450808098
 30
0.0
 10
2.4578106466
 20
3.8459189418
 30
0.0
 10
2.4624434152
 20
3.8464442989
 30
0.0
 10
2.4655640925
 20
3.8465711432
 30
0.0
 10
2.4671494665
 20
3.8465990311
 30
0.0
  0
SPLINE
  5
244
100
AcDbEntity
  8
0
100
AcDbSpline
 62
7
  6
CONTINUOUS
 70
0
 71
3
 72
15
 73
11
 74
0
 42
0.0000001
 43
0.0000001
 44
0.0000000001
 40
0.0
 40
0.0
 40
0.0
 40
0.0
 40
0.1241557989
 40
0.2443722308
 40
0.3647637505
 40
0.4869355701
 40
0.611562222
 40
0.7387755722
 40
0.86837833
 40
1.0
 40
1.0
 40
1.0
 40
1.0
 10
1.59585405
 20
4.7178944477
 30
0.0
 10
1.5958261642
 20
4.716309192
 30
0.0
 10
1.5956993272
 20
4.7131887362
 30
0.0
 10
1.5951740151
 20
4.7085562234
 30
0.0
 10
1.5943359969
 20
4.7039966169
 30
0.0
 10
1.5932176157
 20
4.6994406128
 30
0.0
 10
1.5918666586
 20
4.6948581747
 30
0.0
 10
1.5903366088
 20
4.6902330139
 30
0.0
 10
1.588681685
 20
4.6855565786
 30
0.0
 10
1.5875352077
 20
4.6824238549
 30
0.0
 10
1.5869556286
 20
4.6808460977
 30
0.0
  0
SPLINE
  5
245
100
AcDbEntity
  8
0
100
AcDbSpline
 62
7
  6
CONTINUOUS
 70
0
 71
3
 72
15
 73
11
 74
0
 42
0.0000001
 43
0.0000001
 44
0.0000000001
 40
0.0
 40
0.0
 40
0.0
 40
0.0
 40
0.1316211832
 40
0.2612229544
 40
0.3884352021
 40
0.5130609396
 40
0.6352320961
 40
0.7556211492
 40
0.8758403825
 40
1.0
 40
1.0
 40
1.0
 40
1.0
 10
1.5869550243
 20
4.7624192703
 30
0.0
 10
1.5875346948
 20
4.7608414748
 30
0.0
 10
1.5886811426
 20
4.7577086045
 30
0.0
 10
1.5903362221
 20
4.7530320285
 30
0.0
 10
1.5918663042
 20
4.7484066936
 30
0.0
 10
1.5932173749
 20
4.7438241066
 30
0.0
 10
1.5943358287
 20
4.7392679619
 30
0.0
 10
1.5951739607
 20
4.7347081737
 30
0.0
 10
1.5956993178
 20
4.7300754053
 30
0.0
 10
1.5958261621
 20
4.726954728
 30
0.0
 10
1.59585405
 20
4.7253693541
 30
0.0
  0
SPLINE
  5
246
100
AcDbEntity
  8
0
100
AcDbSpline
 62
7
  6
CONTINUOUS
 70
0
 71
3
 72
15
 73
11
 74
0
 42
0.0000001
 43
0.0000001
 44
0.0000000001
 40
0.0
 40
0.0
 40
0.0
 40
0.0
 40
0.1241557986
 40
0.2443722302
 40
0.3647637498
 40
0.4869355694
 40
0.6115622214
 40
0.7387755719
 40
0.8683783298
 40
1.0
 40
1.0
 40
1.0
 40
1.0
 10
2.4671494665
 20
5.5966647706
 30
0.0
 10
2.4655642108
 20
5.5966926564
 30
0.0
 10
2.4624437549
 20
5.5968194934
 30
0.0
 10
2.4578112419
 20
5.5973448055
 30
0.0
 10
2.4532516353
 20
5.5981828238
 30
0.0
 10
2.4486956311
 20
5.599301205
 30
0.0
 10
2.4441131928
 20
5.6006521622
 30
0.0
 10
2.4394880319
 20
5.6021822121
 30
0.0
 10
2.4348115964
 20
5.6038371359
 30
0.0
 10
2.4316788726
 20
5.6049836133
 30
0.0
 10
2.4301011153
 20
5.6055631924
 30
0.0
  0
SPLINE
  5
247
100
AcDbEntity
  8
0
100
AcDbSpline
 62
7
  6
CONTINUOUS
 70
0
 71
3
 72
15
 73
11
 74
0
 42
0.0000001
 43
0.0000001
 44
0.0000000001
 40
0.0
 40
0.0
 40
0.0
 40
0.0
 40
0.1316211834
 40
0.2612229548
 40
0.3884352027
 40
0.5130609403
 40
0.6352320969
 40
0.7556211498
 40
0.8758403828
 40
1.0
 40
1.0
 40
1.0
 40
1.0
 10
2.5116742903
 20
5.6055637967
 30
0.0
 10
2.5100964947
 20
5.6049841262
 30
0.0
 10
2.5069636244
 20
5.6038376783
 30
0.0
 10
2.5022870482
 20
5.6021825987
 30
0.0
 10
2.4976617132
 20
5.6006525166
 30
0.0
 10
2.493079126
 20
5.5993014458
 30
0.0
 10
2.4885229811
 20
5.5981829919
 30
0.0
 10
2.4839631928
 20
5.59734486
 30
0.0
 10
2.4793304242
 20
5.5968195028
 30
0.0
 10
2.4762097469
 20
5.5966926585
 30
0.0
 10
2.4746243729
 20
5.5966647706
 30
0.0
  0
SPLINE
  5
248
100
AcDbEntity
  8
0
100
AcDbSpline
 62
7
  6
CONTINUOUS
 70
0
 71
3
 72
15
 73
11
 74
0
 42
0.0000001
 43
0.0000001
 44
0.0000000001
 40
0.0
 40
0.0
 40
0.0
 40
0.0
 40
0.1241557989
 40
0.2443722308
 40
0.3647637505
 40
0.4869355701
 40
0.611562222
 40
0.7387755722
 40
0.86837833
 40
1.0
 40
1.0
 40
1.0
 40
1.0
 10
3.3459197894
 20
4.7253693541
 30
0.0
 10
3.3459476752
 20
4.7269546097
 30
0.0
 10
3.3460745122
 20
4.7300750656
 30
0.0
 10
3.3465998243
 20
4.7347075783
 30
0.0
 10
3.3474378425
 20
4.7392671849
 30
0.0
 10
3.3485562237
 20
4.7438231889
 30
0.0
 10
3.3499071808
 20
4.7484056271
 30
0.0
 10
3.3514372306
 20
4.7530307878
 30
0.0
 10
3.3530921544
 20
4.7577072232
 30
0.0
 10
3.3542386317
 20
4.7608399469
 30
0.0
 10
3.3548182108
 20
4.7624177041
 30
0.0
  0
LINE
  5
249
100
AcDbEntity
  8
0
100
AcDbLine
 62
7
  6
CONTINUOUS
 10
3.0930274712
 20
5.3371178521
 11
3.0990660947
 21
5.3307446023
  0
ENDSEC
  0
SECTION
  2
OBJECTS
  0
DICTIONARY
  5
C
100
AcDbDictionary
280
0
281
1
  3
ACAD_GROUP
350
D
  3
ACAD_MLINESTYLE
350
17
  3
ACAD_LAYOUT
350
1A
  3
ACAD_PLOTSETTINGS
350
19
  3
ACAD_PLOTSTYLENAME
350
E
  0
DICTIONARY
  5
D
102
{ACAD_REACTORS
330
C
102
}
100
AcDbDictionary
280
0
281
1
  0
ACDBDICTIONARYWDFLT
  5
E
102
{ACAD_REACTORS
330
C
102
}
100
AcDbDictionary
281
1
  3
Normal
350
F
100
AcDbDictionaryWithDefault
340
F
  0
DICTIONARY
  5
17
102
{ACAD_REACTORS
330
C
102
}
100
AcDbDictionary
280
0
281
1
  3
Standard
350
18
  0
DICTIONARY
  5
19
102
{ACAD_REACTORS
330
C
102
}
100
AcDbDictionary
281
1
  0
DICTIONARY
  5
1A
102
{ACAD_REACTORS
330
C
102
}
100
AcDbDictionary
281
1
  3
Model
350
24A
  3
Layout1
350
24B
  0
ACDBPLACEHOLDER
  5
F
102
{ACAD_REACTORS
330
E
102
}
  0
MLINESTYLE
  5
18
102
{ACAD_REACTORS
330
17
102
}
100
AcDbMlineStyle
  2
STANDARD
 70
0
  3

 62
256
 51
90.0
 52
90.0
 71
2
 49
0.5
 62
256
  6
BYLAYER
 49
-0.5
 62
256
  6
BYLAYER
  0
LAYOUT
  5
24A
102
{ACAD_REACTORS
330
1A
102
}
100
AcDbPlotSettings
  1

  2
none_device
  4
ANSI_A_(11.00_x_8.50_Inches)
  6

 40
0.0
 41
0.0
 42
0.0
 43
0.0
 44
279.4
 45
215.9
 46
0.0
 47
0.0
 48
0.0
 49
0.0
140
0.0
141
0.0
142
1.0
143
1.0
 70
1024
 72
0
 73
0
 74
0
  7

 75
0
147
1.0
148
0.0
149
0.0
100
AcDbLayout
  1
Model
 70
0
 71
0
 10
0.0
 20
0.0
 11
11.0
 21
8.5
 12
0.0
 22
0.0
 32
0.0
 14
0.0
 24
0.0
 34
0.0
 15
0.0
 25
0.0
 35
0.0
146
0.0
 13
0.0
 23
0.0
 33
0.0
 16
1.0
 26
0.0
 36
0.0
 17
0.0
 27
1.0
 37
0.0
 76
0
330
20C
345
0
346
0
  0
LAYOUT
  5
24B
102
{ACAD_REACTORS
330
1A
102
}
100
AcDbPlotSettings
  1

  2
none_device
  4
ANSI_A_(11.00_x_8.50_Inches)
  6

 40
0.0
 41
0.0
 42
0.0
 43
0.0
 44
279.4
 45
215.9
 46
0.0
 47
0.0
 48
0.0
 49
0.0
140
0.0
141
0.0
142
1.0
143
1.0
 70
0
 72
0
 73
0
 74
0
  7

 75
0
147
1.0
148
0.0
149
0.0
100
AcDbLayout
  1
Layout1
 70
0
 71
1
 10
0.0
 20
0.0
 11
11.0
 21
8.5
 12
0.0
 22
0.0
 32
0.0
 14
0.0
 24
0.0
 34
0.0
 15
0.0
 25
0.0
 35
0.0
146
0.0
 13
0.0
 23
0.0
 33
0.0
 16
1.0
 26
0.0
 36
0.0
 17
0.0
 27
1.0
 37
0.0
 76
0
330
20D
345
0
346
0
  0
ENDSEC
  0
EOF
