999
DXF file: 2480-3912_front.dxf
999
Pro/ENGINEER 2018400 by Parametric Technology Corporation
  0
SECTION
  2
HEADER
  9
$ACADVER
  1
AC1027
  9
$DWGCODEPAGE
  3
ANSI_1252
  9
$EXTMAX
 10
11.0
 20
8.5
 30
0.0
  9
$EXTMIN
 10
0.0
 20
0.0
 30
0.0
  9
$LIMMIN
 10
0.0
 20
0.0
  9
$LIMMAX
 10
11.0
 20
8.5
  9
$VIEWCTR
 10
5.5
 20
4.25
  9
$VIEWSIZE
 40
8.5
  9
$CLAYER
  8
0
  9
$LTSCALE
 40
0.605
  9
$CELTYPE
  6
BYLAYER
  9
$DIMSCALE
 40
1.0
  9
$DIMASZ
 40
0.1
  9
$DIMEXO
 40
0.0625
  9
$DIMDLI
 40
0.418
  9
$DIMEXE
 40
0.125
  9
$DIMCEN
 40
0.099
  9
$DIMLFAC
 40
1.0
  9
$DIMBLK
  1
_FILLED
  9
$DIMALT
 70
1
  9
$DIMALTD
 70
1
  9
$DIMALTTD
 70
2
  9
$DIMALTF
 40
25.4
  9
$DIMTXT
 40
0.08
  9
$DIMTOL
 70
1
  9
$DIMLIM
 70
0
  9
$DIMTFAC
 40
1.0
  9
$DIMTP
 40
0.01
  9
$DIMTM
 40
0.01
  9
$DIMGAP
 40
0.09
  9
$DIMDSEP
 70
46
  9
$AUNITS
 70
0
  9
$PDMODE
 70
3
  9
$PDSIZE
 40
0.3125
  9
$HANDSEED
  5
232
  9
$TILEMODE
 70
1
  9
$MEASUREMENT
 70
0
  9
$INSUNITS
 70
1
  0
ENDSEC
  0
SECTION
  2
CLASSES
  0
CLASS
  1
ACDBDICTIONARYWDFLT
  2
AcDbDictionaryWithDefault
  3
AutoCAD 2000
 90
0
 91
1
280
0
281
0
  0
CLASS
  1
ACDBPLACEHOLDER
  2
AcDbPlaceHolder
  3
AutoCAD 2000
 90
0
 91
1
280
0
281
0
  0
CLASS
  1
LAYOUT
  2
AcDbLayout
  3
AutoCAD 2000
 90
0
 91
0
280
0
281
0
  0
ENDSEC
  0
SECTION
  2
TABLES
  0
TABLE
  2
VPORT
  5
8
100
AcDbSymbolTable
 70
2
  0
VPORT
  5
1F4
100
AcDbSymbolTableRecord
100
AcDbViewportTableRecord
  2
*ACTIVE
 70
0
 10
0.0
 20
0.0
 11
1.0
 21
1.0
 12
5.5
 22
4.25
 13
0.0
 23
0.0
 14
1.0
 24
1.0
 15
0.0
 25
0.0
 16
0.0
 26
0.0
 36
1.0
 17
0.0
 27
0.0
 37
0.0
 40
8.5
 41
1.2941176471
 42
50.0
 43
0.0
 44
0.0
 50
0.0
 51
0.0
 71
0
 72
100
 73
1
 74
1
 75
0
 76
0
 77
0
 78
0
  0
ENDTAB
  0
TABLE
  2
LTYPE
  5
5
100
AcDbSymbolTable
 70
6
  0
LTYPE
  5
14
100
AcDbSymbolTableRecord
100
AcDbLinetypeTableRecord
  2
BYBLOCK
 70
0
  3

 72
65
 73
0
 40
0.0
  0
LTYPE
  5
15
100
AcDbSymbolTableRecord
100
AcDbLinetypeTableRecord
  2
BYLAYER
 70
0
  3

 72
65
 73
0
 40
0.0
  0
LTYPE
  5
16
100
AcDbSymbolTableRecord
100
AcDbLinetypeTableRecord
  2
CONTINUOUS
 70
64
  3
Solid line
 72
65
 73
0
 40
0.0
  0
LTYPE
  5
1F5
100
AcDbSymbolTableRecord
100
AcDbLinetypeTableRecord
  2
CENTER
 70
64
  3
____ _ ____ _ ____ _ ____ _ ____ _ ____ _ ____
 72
65
 73
4
 40
0.6
 49
0.375
 74
0
 49
-0.075
 74
0
 49
0.075
 74
0
 49
-0.075
 74
0
  0
LTYPE
  5
1F6
100
AcDbSymbolTableRecord
100
AcDbLinetypeTableRecord
  2
HIDDEN
 70
64
  3
- - - - - - - - - - - - - - - - - - - -
 72
65
 73
2
 40
0.2
 49
0.1
 74
0
 49
-0.1
 74
0
  0
LTYPE
  5
1F7
100
AcDbSymbolTableRecord
100
AcDbLinetypeTableRecord
  2
PHANTOM
 70
64
  3
_____ _ _ _____ _ _ _____ _ _ _____
 72
65
 73
6
 40
0.8
 49
0.45
 74
0
 49
-0.05
 74
0
 49
0.1
 74
0
 49
-0.05
 74
0
 49
0.1
 74
0
 49
-0.05
 74
0
  0
LTYPE
  5
1F8
100
AcDbSymbolTableRecord
100
AcDbLinetypeTableRecord
  2
DOT
 70
64
  3
. . . . . . . . . . . . . . . . . . . .
 72
65
 73
2
 40
0.2
 49
0.1
 74
0
 49
-0.1
 74
0
  0
LTYPE
  5
1F9
100
AcDbSymbolTableRecord
100
AcDbLinetypeTableRecord
  2
DASHED
 70
64
  3
- - - - - - - - - - - - - - - - - - - -
 72
65
 73
2
 40
0.2
 49
0.1
 74
0
 49
-0.1
 74
0
  0
ENDTAB
  0
TABLE
  2
LAYER
  5
2
100
AcDbSymbolTable
 70
36
  0
LAYER
  5
10
100
AcDbSymbolTableRecord
100
AcDbLayerTableRecord
  2
0
 70
0
 62
7
  6
CONTINUOUS
370
-3
390
F
  0
LAYER
  5
1FA
100
AcDbSymbolTableRecord
100
AcDbLayerTableRecord
  2
DEFAULT_1
 70
0
 62
7
  6
CENTER
370
-3
390
F
  0
LAYER
  5
1FB
100
AcDbSymbolTableRecord
100
AcDbLayerTableRecord
  2
DEFAULT_2
 70
0
 62
8
  6
HIDDEN
370
-3
390
F
  0
LAYER
  5
1FC
100
AcDbSymbolTableRecord
100
AcDbLayerTableRecord
  2
DEFAULT_3
 70
0
 62
7
  6
PHANTOM
370
-3
390
F
  0
LAYER
  5
1FD
100
AcDbSymbolTableRecord
100
AcDbLayerTableRecord
  2
DEFAULT_COORDINATE_SYSTEM
 70
0
 62
7
  6
CONTINUOUS
370
-3
390
F
  0
LAYER
  5
1FE
100
AcDbSymbolTableRecord
100
AcDbLayerTableRecord
  2
DEFAULT_DATUM_AXES
 70
0
 62
7
  6
CONTINUOUS
370
-3
390
F
  0
LAYER
  5
1FF
100
AcDbSymbolTableRecord
100
AcDbLayerTableRecord
  2
DEFAULT_DATUM_PLANES
 70
0
 62
7
  6
CONTINUOUS
370
-3
390
F
  0
ENDTAB
  0
TABLE
  2
STYLE
  5
3
100
AcDbSymbolTable
 70
1
  0
STYLE
  5
11
100
AcDbSymbolTableRecord
100
AcDbTextStyleTableRecord
  2
STANDARD
 70
0
 40
0.0
 41
0.8
 50
0.0
 71
0
 42
0.2
  3
txt
  4

  0
STYLE
  5
200
100
AcDbSymbolTableRecord
100
AcDbTextStyleTableRecord
  2
TEXTSTYLE_1
 70
0
 40
0.0
 41
0.8
 50
0.0
 71
0
 42
0.2
  3
gdt
  4

  0
ENDTAB
  0
TABLE
  2
VIEW
  5
6
100
AcDbSymbolTable
 70
0
  0
ENDTAB
  0
TABLE
  2
UCS
  5
7
100
AcDbSymbolTable
 70
0
  0
ENDTAB
  0
TABLE
  2
APPID
  5
9
100
AcDbSymbolTable
 70
1
  0
APPID
  5
201
100
AcDbSymbolTableRecord
100
AcDbRegAppTableRecord
  2
ACAD
 70
0
  0
ENDTAB
  0
TABLE
  2
BLOCK_RECORD
  5
1
100
AcDbSymbolTable
 70
0
  0
BLOCK_RECORD
  5
202
100
AcDbSymbolTableRecord
100
AcDbBlockTableRecord
  2
*Model_Space
  0
BLOCK_RECORD
  5
203
100
AcDbSymbolTableRecord
100
AcDbBlockTableRecord
  2
*Paper_Space
  0
BLOCK_RECORD
  5
204
100
AcDbSymbolTableRecord
100
AcDbBlockTableRecord
  2
_FILLED
  0
ENDTAB
  0
TABLE
  2
DIMSTYLE
  5
A
100
AcDbSymbolTable
 70
1
100
AcDbDimStyleTable
 71
0
  0
DIMSTYLE
105
205
100
AcDbSymbolTableRecord
100
AcDbDimStyleTableRecord
  2
STANDARD
 70
0
  3

  4

 40
1.0
 41
0.1
 42
0.0625
 43
0.38
 44
0.125
 45
0.0
 46
0.0
 47
0.01
 48
0.01
140
0.08
141
0.09
142
0.0
143
25.4
144
1.0
145
0.0
146
1.0
147
0.09
 71
1.0
 72
0.0
 73
1
 74
1
 75
0
 76
0
 77
0
 78
4
 79
1
170
1
171
1
172
0
173
0
174
0
175
0
176
0
177
0
178
0
270
2
179
2
271
2
272
2
273
2
274
2
275
0
280
0
281
0
282
0
283
1
284
4
285
0
286
0
287
3
288
0
340
11
278
46
341
204
342
204
343
204
344
204
  0
ENDTAB
  0
ENDSEC
  0
SECTION
  2
BLOCKS
  0
BLOCK
  5
20
100
AcDbEntity
  8
0
100
AcDbBlockBegin
  2
*Model_Space
 70
0
 10
0.0
 20
0.0
 30
0.0
  3
*Model_Space
  1

  0
ENDBLK
  5
21
100
AcDbEntity
  8
0
100
AcDbBlockEnd
  0
BLOCK
  5
1C
100
AcDbEntity
  8
0
100
AcDbBlockBegin
  2
*Paper_Space
 70
0
 10
0.0
 20
0.0
 30
0.0
  3
*Paper_Space
  1

  0
ENDBLK
  5
1D
100
AcDbEntity
  8
0
100
AcDbBlockEnd
  0
BLOCK
  5
206
100
AcDbEntity
  8
0
100
AcDbBlockBegin
  2
_FILLED
 70
64
 10
0.0
 20
0.0
  3
_FILLED
  1

  0
SOLID
  5
207
100
AcDbEntity
  8
0
  6
BYBLOCK
 62
0
100
AcDbTrace
 10
0.0
 20
0.0
 11
-1.0
 21
0.2
 12
-1.0
 22
-0.2
 13
-1.0
 23
-0.2
  0
ENDBLK
  5
208
100
AcDbEntity
  8
0
  6
BYBLOCK
 62
0
100
AcDbBlockEnd
  0
ENDSEC
  0
SECTION
  2
ENTITIES
  0
MTEXT
  5
209
100
AcDbEntity
  8
0
100
AcDbMText
 62
2
  6
CONTINUOUS
  7
STANDARD
 71
3
 72
1
 10
5.3385869565
 20
2.7420535714
 30
0.0
 11
1.0
 21
0.0
 31
0.0
 73
2
 44
0.9
  1
SCALE  .500
 40
0.08
 41
0.704
  0
LINE
  5
20A
100
AcDbEntity
  8
0
100
AcDbLine
 62
7
  6
CONTINUOUS
 10
0.0
 20
0.0
 11
0.0
 21
8.5
  0
LINE
  5
20B
100
AcDbEntity
  8
0
100
AcDbLine
 62
7
  6
CONTINUOUS
 10
0.0
 20
0.0
 11
11.0
 21
0.0
  0
LINE
  5
20C
100
AcDbEntity
  8
0
100
AcDbLine
 62
7
  6
CONTINUOUS
 10
0.0
 20
8.5
 11
11.0
 21
8.5
  0
LINE
  5
20D
100
AcDbEntity
  8
0
100
AcDbLine
 62
7
  6
CONTINUOUS
 10
11.0
 20
0.0
 11
11.0
 21
8.5
  0
LINE
  5
20E
100
AcDbEntity
  8
0
100
AcDbLine
 62
7
  6
CONTINUOUS
 10
2.7873214286
 20
4.1738548137
 11
2.7873214286
 21
4.7988548137
  0
LINE
  5
20F
100
AcDbEntity
  8
0
100
AcDbLine
 62
7
  6
CONTINUOUS
 10
2.7973214286
 20
4.1838548137
 11
2.7973214286
 21
4.7888548137
  0
LINE
  5
210
100
AcDbEntity
  8
0
100
AcDbLine
 62
7
  6
CONTINUOUS
 10
2.8073214286
 20
4.1738548137
 11
2.8073214286
 21
4.7988548137
  0
LINE
  5
211
100
AcDbEntity
  8
0
100
AcDbLine
 62
7
  6
CONTINUOUS
 10
2.7973214286
 20
4.7888548137
 11
2.8073214286
 21
4.7988548137
  0
LINE
  5
212
100
AcDbEntity
  8
0
100
AcDbLine
 62
7
  6
CONTINUOUS
 10
2.7973214286
 20
4.1838548137
 11
2.8073214286
 21
4.1738548137
  0
LINE
  5
213
100
AcDbEntity
  8
0
100
AcDbLine
 62
7
  6
CONTINUOUS
 10
2.7973214286
 20
4.1838548137
 11
2.7873214286
 21
4.1738548137
  0
LINE
  5
214
100
AcDbEntity
  8
0
100
AcDbLine
 62
7
  6
CONTINUOUS
 10
2.7973214286
 20
4.7888548137
 11
2.7873214286
 21
4.7988548137
  0
LINE
  5
215
100
AcDbEntity
  8
0
100
AcDbLine
 62
7
  6
CONTINUOUS
 10
2.7873214286
 20
4.1738548137
 11
2.2348262059
 21
4.1738548137
  0
LINE
  5
216
100
AcDbEntity
  8
0
100
AcDbLine
 62
7
  6
CONTINUOUS
 10
2.8073214286
 20
4.1738548137
 11
7.6623214286
 21
4.1738548137
  0
LINE
  5
217
100
AcDbEntity
  8
0
100
AcDbLine
 62
7
  6
CONTINUOUS
 10
7.6823214286
 20
4.1738548137
 11
8.2348165735
 21
4.1738548137
  0
LINE
  5
218
100
AcDbEntity
  8
0
100
AcDbLine
 62
7
  6
CONTINUOUS
 10
2.7873214286
 20
4.7988548137
 11
2.2348262837
 21
4.7988548137
  0
LINE
  5
219
100
AcDbEntity
  8
0
100
AcDbLine
 62
7
  6
CONTINUOUS
 10
2.8073214286
 20
4.7988548137
 11
7.6623214286
 21
4.7988548137
  0
LINE
  5
21A
100
AcDbEntity
  8
0
100
AcDbLine
 62
7
  6
CONTINUOUS
 10
7.6823214286
 20
4.7988548137
 11
8.2348166512
 21
4.7988548137
  0
LINE
  5
21B
100
AcDbEntity
  8
0
100
AcDbLine
 62
7
  6
CONTINUOUS
 10
7.6723214286
 20
4.7888548137
 11
7.6823214286
 21
4.7988548137
  0
LINE
  5
21C
100
AcDbEntity
  8
0
100
AcDbLine
 62
7
  6
CONTINUOUS
 10
7.6723214286
 20
4.1838548137
 11
7.6823214286
 21
4.1738548137
  0
LINE
  5
21D
100
AcDbEntity
  8
0
100
AcDbLine
 62
7
  6
CONTINUOUS
 10
7.6723214286
 20
4.1838548137
 11
7.6623214286
 21
4.1738548137
  0
LINE
  5
21E
100
AcDbEntity
  8
0
100
AcDbLine
 62
7
  6
CONTINUOUS
 10
7.6723214286
 20
4.7888548137
 11
7.6623214286
 21
4.7988548137
  0
LINE
  5
21F
100
AcDbEntity
  8
0
100
AcDbLine
 62
7
  6
CONTINUOUS
 10
7.6623214286
 20
4.7988548137
 11
7.6623214286
 21
4.1738548137
  0
LINE
  5
220
100
AcDbEntity
  8
0
100
AcDbLine
 62
7
  6
CONTINUOUS
 10
7.6723214286
 20
4.7888548137
 11
7.6723214286
 21
4.1838548137
  0
LINE
  5
221
100
AcDbEntity
  8
0
100
AcDbLine
 62
7
  6
CONTINUOUS
 10
7.6823214286
 20
4.7988548137
 11
7.6823214286
 21
4.1738548137
  0
ARC
  5
222
100
AcDbEntity
  8
0
100
AcDbCircle
 62
7
  6
CONTINUOUS
 10
8.2348214286
 20
4.4863548137
 40
0.75
100
AcDbArc
 50
204.6248529162
 51
155.3751470838
  0
ARC
  5
223
100
AcDbEntity
  8
0
100
AcDbCircle
 62
7
  6
CONTINUOUS
 10
2.2348214286
 20
4.4863548137
 40
0.75
100
AcDbArc
 50
24.6248529162
 51
335.3751470838
  0
ARC
  5
224
100
AcDbEntity
  8
0
100
AcDbCircle
 62
7
  6
CONTINUOUS
 10
8.2348214286
 20
4.4863548137
 40
0.6875
100
AcDbArc
 50
207.0391633953
 51
152.9608366047
  0
ARC
  5
225
100
AcDbEntity
  8
0
100
AcDbCircle
 62
7
  6
CONTINUOUS
 10
2.2348214286
 20
4.4863548137
 40
0.6875
100
AcDbArc
 50
27.0391633953
 51
332.9608366047
  0
ARC
  5
226
100
AcDbEntity
  8
0
100
AcDbCircle
 62
7
  6
CONTINUOUS
 10
2.2348214286
 20
4.4863548137
 40
0.4375
100
AcDbArc
 50
45.5859287215
 51
314.4140712767
  0
ARC
  5
227
100
AcDbEntity
  8
0
100
AcDbCircle
 62
7
  6
CONTINUOUS
 10
8.2348214286
 20
4.4863548137
 40
0.4375
100
AcDbArc
 50
225.5904542271
 51
134.4095457737
  0
ARC
  5
228
100
AcDbEntity
  8
0
100
AcDbCircle
 62
7
  6
CONTINUOUS
 10
2.2348214286
 20
4.4863548137
 40
0.4075
100
AcDbArc
 50
50.0807044389
 51
309.9192950693
  0
ARC
  5
229
100
AcDbEntity
  8
0
100
AcDbCircle
 62
7
  6
CONTINUOUS
 10
8.2348214286
 20
4.4863548137
 40
0.4075
100
AcDbArc
 50
230.0807044389
 51
129.9192950693
  0
ARC
  5
22A
100
AcDbEntity
  8
0
100
AcDbCircle
 62
7
  6
CONTINUOUS
 10
2.2348214286
 20
4.4863548137
 40
0.3125
100
AcDbArc
 50
90.0
 51
270.0
  0
ARC
  5
22B
100
AcDbEntity
  8
0
100
AcDbCircle
 62
7
  6
CONTINUOUS
 10
8.2348214286
 20
4.4863548137
 40
0.3125
100
AcDbArc
 50
270.0
 51
90.0
  0
SPLINE
  5
22C
100
AcDbEntity
  8
0
100
AcDbSpline
 62
7
  6
CONTINUOUS
 70
0
 71
3
 72
35
 73
31
 74
0
 42
0.0000001
 43
0.0000001
 44
0.0000000001
 40
0.0
 40
0.0
 40
0.0
 40
0.0
 40
0.0165391586
 40
0.0332001738
 40
0.0502369777
 40
0.0678602557
 40
0.0862156282
 40
0.1054265822
 40
0.1256050903
 40
0.1468493132
 40
0.1692393488
 40
0.192834554
 40
0.2176802312
 40
0.2438084738
 40
0.2712381327
 40
0.2999798701
 40
0.3300323018
 40
0.3613857417
 40
0.3940219522
 40
0.4279108244
 40
0.4630176957
 40
0.4992970793
 40
0.5751528151
 40
0.6146086222
 40
0.6549849857
 40
0.6961981705
 40
0.7381610162
 40
0.8239423995
 40
0.9115181379
 40
1.0
 40
1.0
 40
1.0
 40
1.0
 10
2.2348214286
 20
4.1738548137
 30
0.0
 10
2.2328392786
 20
4.1738556078
 30
0.0
 10
2.228856417
 20
4.1740911726
 30
0.0
 10
2.2229171283
 20
4.1751541885
 30
0.0
 10
2.2170131877
 20
4.1769235503
 30
0.0
 10
2.2111465532
 20
4.1793923983
 30
0.0
 10
2.2053270686
 20
4.1825572807
 30
0.0
 10
2.1995703443
 20
4.1864144067
 30
0.0
 10
2.1938892368
 20
4.1909578834
 30
0.0
 10
2.1882938441
 20
4.1961810854
 30
0.0
 10
2.1827947038
 20
4.2020778071
 30
0.0
 10
2.1774024675
 20
4.2086405069
 30
0.0
 10
2.1721290951
 20
4.2158610809
 30
0.0
 10
2.1669867322
 20
4.2237299925
 30
0.0
 10
2.1619871229
 20
4.2322361721
 30
0.0
 10
2.157143352
 20
4.2413675954
 30
0.0
 10
2.1524666158
 20
4.251109691
 30
0.0
 10
2.1479683446
 20
4.2614462795
 30
0.0
 10
2.143660858
 20
4.2723594635
 30
0.0
 10
2.139557282
 20
4.2838296711
 30
0.0
 10
2.1356718848
 20
4.2958353254
 30
0.0
 10
2.1307250963
 20
4.3127761531
 30
0.0
 10
2.1263637167
 20
4.3304226968
 30
0.0
 10
2.1225520464
 20
4.3486889122
 30
0.0
 10
2.1199244014
 20
4.3629571996
 30
0.0
 10
2.1175781432
 20
4.3775786987
 30
0.0
 10
2.1148245673
 20
4.3976409091
 30
0.0
 10
2.1121711088
 20
4.4233183842
 30
0.0
 10
2.1102608469
 20
4.4546484717
 30
0.0
 10
2.1098209359
 20
4.4757506267
 30
0.0
 10
2.1098214286
 20
4.4863548137
 30
0.0
  0
SPLINE
  5
22D
100
AcDbEntity
  8
0
100
AcDbSpline
 62
7
  6
CONTINUOUS
 70
0
 71
3
 72
33
 73
29
 74
0
 42
0.0000001
 43
0.0000001
 44
0.0000000001
 40
0.0
 40
0.0
 40
0.0
 40
0.0
 40
0.0165387725
 40
0.0331986362
 40
0.0502388293
 40
0.0678635896
 40
0.1053912008
 40
0.125572505
 40
0.1468182198
 40
0.1692068096
 40
0.1928009647
 40
0.2176481957
 40
0.2437786424
 40
0.271212297
 40
0.2999570891
 40
0.3300118784
 40
0.3613669057
 40
0.4278825837
 40
0.4629895529
 40
0.499271647
 40
0.5366747965
 40
0.575138595
 40
0.6145963722
 40
0.6549734234
 40
0.7381475312
 40
0.823933914
 40
0.9115122018
 40
1.0
 40
1.0
 40
1.0
 40
1.0
 10
8.2348214286
 20
4.7988548137
 30
0.0
 10
8.236803438
 20
4.7988540196
 30
0.0
 10
8.2407859542
 20
4.798618637
 30
0.0
 10
8.2467250921
 20
4.7975555824
 30
0.0
 10
8.2526294803
 20
4.7957860724
 30
0.0
 10
8.2606163449
 20
4.792425243
 30
0.0
 10
8.268359598
 20
4.7876649871
 30
0.0
 10
8.2757537413
 20
4.7817526745
 30
0.0
 10
8.2813499262
 20
4.7765287333
 30
0.0
 10
8.2868473338
 20
4.7706314804
 30
0.0
 10
8.2922381345
 20
4.7640681814
 30
0.0
 10
8.2975113036
 20
4.7568476544
 30
0.0
 10
8.3026552126
 20
4.7489791856
 30
0.0
 10
8.3076566855
 20
4.7404733623
 30
0.0
 10
8.3125032044
 20
4.7313427063
 30
0.0
 10
8.3171818253
 20
4.7216010256
 30
0.0
 10
8.3232992131
 20
4.7075407141
 30
0.0
 10
8.3288784779
 20
4.6925987333
 30
0.0
 10
8.3339640829
 20
4.676872717
 30
0.0
 10
8.3376216774
 20
4.6643566379
 30
0.0
 10
8.3410400107
 20
4.6513570511
 30
0.0
 10
8.3442007435
 20
4.6379011965
 30
0.0
 10
8.3470930154
 20
4.6240209364
 30
0.0
 10
8.350622534
 20
4.6048058922
 30
0.0
 10
8.35430432
 20
4.579981283
 30
0.0
 10
8.3574799354
 20
4.5493924348
 30
0.0
 10
8.3593813701
 20
4.5180611671
 30
0.0
 10
8.3598219213
 20
4.4969592081
 30
0.0
 10
8.3598214286
 20
4.4863548137
 30
0.0
  0
SPLINE
  5
22E
100
AcDbEntity
  8
0
100
AcDbSpline
 62
7
  6
CONTINUOUS
 70
0
 71
3
 72
33
 73
29
 74
0
 42
0.0000001
 43
0.0000001
 44
0.0000000001
 40
0.0
 40
0.0
 40
0.0
 40
0.0
 40
0.088487797
 40
0.1760660858
 40
0.2618524673
 40
0.3450265799
 40
0.3854036356
 40
0.424861405
 40
0.4633251943
 40
0.5007283428
 40
0.5370104431
 40
0.5721174207
 40
0.6386330955
 40
0.669988107
 40
0.7000428869
 40
0.7287876815
 40
0.7562213473
 40
0.7823518067
 40
0.8071990417
 40
0.8307931821
 40
0.8531817499
 40
0.8744274601
 40
0.8946087857
 40
0.932136429
 40
0.9497610895
 40
0.9668010119
 40
0.9834607005
 40
1.0
 40
1.0
 40
1.0
 40
1.0
 10
8.3598214286
 20
4.4863548137
 30
0.0
 10
8.359821944
 20
4.4757504193
 30
0.0
 10
8.3593813123
 20
4.4546484593
 30
0.0
 10
8.3574798348
 20
4.4233172004
 30
0.0
 10
8.3543045149
 20
4.3927283171
 30
0.0
 10
8.350622482
 20
4.36790374
 30
0.0
 10
8.3470929421
 20
4.3486887012
 30
0.0
 10
8.3442007333
 20
4.3348084295
 30
0.0
 10
8.3410400423
 20
4.3213525667
 30
0.0
 10
8.337621705
 20
4.308352981
 30
0.0
 10
8.3339640862
 20
4.2958369071
 30
0.0
 10
8.328878441
 20
4.2801109022
 30
0.0
 10
8.3232991806
 20
4.2651689227
 30
0.0
 10
8.3171818332
 20
4.251108597
 30
0.0
 10
8.312503224
 20
4.2413669132
 30
0.0
 10
8.3076566994
 20
4.2322362594
 30
0.0
 10
8.3026552134
 20
4.22373044
 30
0.0
 10
8.2975112922
 20
4.2158619751
 30
0.0
 10
8.2922381193
 20
4.2086414507
 30
0.0
 10
8.2868473294
 20
4.2020781481
 30
0.0
 10
8.2813499351
 20
4.1961808893
 30
0.0
 10
8.2757537513
 20
4.1909569473
 30
0.0
 10
8.2683595932
 20
4.185044643
 30
0.0
 10
8.2606163425
 20
4.1802843976
 30
0.0
 10
8.2526295263
 20
4.17692356
 30
0.0
 10
8.2467252092
 20
4.1751540401
 30
0.0
 10
8.2407860598
 20
4.1740909846
 30
0.0
 10
8.2368035012
 20
4.1738556161
 30
0.0
 10
8.2348214286
 20
4.1738548137
 30
0.0
  0
SPLINE
  5
22F
100
AcDbEntity
  8
0
100
AcDbSpline
 62
7
  6
CONTINUOUS
 70
0
 71
3
 72
35
 73
31
 74
0
 42
0.0000001
 43
0.0000001
 44
0.0000000001
 40
0.0
 40
0.0
 40
0.0
 40
0.0
 40
0.0884818608
 40
0.1760575998
 40
0.2618389838
 40
0.3038018272
 40
0.3450150114
 40
0.3853913766
 40
0.4248471863
 40
0.5007029238
 40
0.5369822989
 40
0.5720891615
 40
0.6059780317
 40
0.6386142465
 40
0.6699676927
 40
0.7000201301
 40
0.728761872
 40
0.7561915326
 40
0.7823197725
 40
0.8071654407
 40
0.830760633
 40
0.8531506596
 40
0.8743948852
 40
0.8945734094
 40
0.9137843895
 40
0.9321397601
 40
0.94976292
 40
0.9667994294
 40
0.983460293
 40
1.0
 40
1.0
 40
1.0
 40
1.0
 10
2.1098214286
 20
4.4863548137
 30
0.0
 10
2.1098209131
 20
4.4969590006
 30
0.0
 10
2.1102608709
 20
4.5180611568
 30
0.0
 10
2.1121712182
 20
4.5493912372
 30
0.0
 10
2.1148245757
 20
4.5750687216
 30
0.0
 10
2.1175780938
 20
4.5951309404
 30
0.0
 10
2.1199243488
 20
4.6097524402
 30
0.0
 10
2.1225520142
 20
4.6240207248
 30
0.0
 10
2.1263637348
 20
4.6422869308
 30
0.0
 10
2.1307251355
 20
4.6599334675
 30
0.0
 10
2.1356718799
 20
4.6768743061
 30
0.0
 10
2.1395572533
 20
4.6888799661
 30
0.0
 10
2.1436608303
 20
4.700350173
 30
0.0
 10
2.1479683293
 20
4.7112633534
 30
0.0
 10
2.1524666129
 20
4.7215999388
 30
0.0
 10
2.1571433586
 20
4.7313420321
 30
0.0
 10
2.1619871357
 20
4.7404734538
 30
0.0
 10
2.1669867473
 20
4.7489796327
 30
0.0
 10
2.172129108
 20
4.7568485443
 30
0.0
 10
2.1774024731
 20
4.76406912
 30
0.0
 10
2.1827947005
 20
4.7706318225
 30
0.0
 10
2.1882938361
 20
4.7765285458
 30
0.0
 10
2.1938892327
 20
4.7817517458
 30
0.0
 10
2.199570349
 20
4.7862952203
 30
0.0
 10
2.2053270805
 20
4.7901523441
 30
0.0
 10
2.211146553
 20
4.7933172245
 30
0.0
 10
2.2170131334
 20
4.795786071
 30
0.0
 10
2.2229170006
 20
4.7975554434
 30
0.0
 10
2.2288563035
 20
4.798618459
 30
0.0
 10
2.2328392129
 20
4.7988540112
 30
0.0
 10
2.2348214286
 20
4.7988548137
 30
0.0
  0
ENDSEC
  0
SECTION
  2
OBJECTS
  0
DICTIONARY
  5
C
100
AcDbDictionary
280
0
281
1
  3
ACAD_GROUP
350
D
  3
ACAD_MLINESTYLE
350
17
  3
ACAD_LAYOUT
350
1A
  3
ACAD_PLOTSETTINGS
350
19
  3
ACAD_PLOTSTYLENAME
350
E
  0
DICTIONARY
  5
D
102
{ACAD_REACTORS
330
C
102
}
100
AcDbDictionary
280
0
281
1
  0
ACDBDICTIONARYWDFLT
  5
E
102
{ACAD_REACTORS
330
C
102
}
100
AcDbDictionary
281
1
  3
Normal
350
F
100
AcDbDictionaryWithDefault
340
F
  0
DICTIONARY
  5
17
102
{ACAD_REACTORS
330
C
102
}
100
AcDbDictionary
280
0
281
1
  3
Standard
350
18
  0
DICTIONARY
  5
19
102
{ACAD_REACTORS
330
C
102
}
100
AcDbDictionary
281
1
  0
DICTIONARY
  5
1A
102
{ACAD_REACTORS
330
C
102
}
100
AcDbDictionary
281
1
  3
Model
350
230
  3
Layout1
350
231
  0
ACDBPLACEHOLDER
  5
F
102
{ACAD_REACTORS
330
E
102
}
  0
MLINESTYLE
  5
18
102
{ACAD_REACTORS
330
17
102
}
100
AcDbMlineStyle
  2
STANDARD
 70
0
  3

 62
256
 51
90.0
 52
90.0
 71
2
 49
0.5
 62
256
  6
BYLAYER
 49
-0.5
 62
256
  6
BYLAYER
  0
LAYOUT
  5
230
102
{ACAD_REACTORS
330
1A
102
}
100
AcDbPlotSettings
  1

  2
none_device
  4
ANSI_A_(11.00_x_8.50_Inches)
  6

 40
0.0
 41
0.0
 42
0.0
 43
0.0
 44
279.4
 45
215.9
 46
0.0
 47
0.0
 48
0.0
 49
0.0
140
0.0
141
0.0
142
1.0
143
1.0
 70
1024
 72
0
 73
0
 74
0
  7

 75
0
147
1.0
148
0.0
149
0.0
100
AcDbLayout
  1
Model
 70
0
 71
0
 10
0.0
 20
0.0
 11
11.0
 21
8.5
 12
0.0
 22
0.0
 32
0.0
 14
0.0
 24
0.0
 34
0.0
 15
0.0
 25
0.0
 35
0.0
146
0.0
 13
0.0
 23
0.0
 33
0.0
 16
1.0
 26
0.0
 36
0.0
 17
0.0
 27
1.0
 37
0.0
 76
0
330
202
345
0
346
0
  0
LAYOUT
  5
231
102
{ACAD_REACTORS
330
1A
102
}
100
AcDbPlotSettings
  1

  2
none_device
  4
ANSI_A_(11.00_x_8.50_Inches)
  6

 40
0.0
 41
0.0
 42
0.0
 43
0.0
 44
279.4
 45
215.9
 46
0.0
 47
0.0
 48
0.0
 49
0.0
140
0.0
141
0.0
142
1.0
143
1.0
 70
0
 72
0
 73
0
 74
0
  7

 75
0
147
1.0
148
0.0
149
0.0
100
AcDbLayout
  1
Layout1
 70
0
 71
1
 10
0.0
 20
0.0
 11
11.0
 21
8.5
 12
0.0
 22
0.0
 32
0.0
 14
0.0
 24
0.0
 34
0.0
 15
0.0
 25
0.0
 35
0.0
146
0.0
 13
0.0
 23
0.0
 33
0.0
 16
1.0
 26
0.0
 36
0.0
 17
0.0
 27
1.0
 37
0.0
 76
0
330
203
345
0
346
0
  0
ENDSEC
  0
EOF
