999
DXF file: E:\BT Custom\CADOUTPUT\_FRONT.dxf
999
Pro/ENGINEER 2018400 by Parametric Technology Corporation
  0
SECTION
  2
HEADER
  9
$ACADVER
  1
AC1018
  9
$DWGCODEPAGE
  3
ANSI_1252
  9
$EXTMAX
 10
22.0
 20
17.0
 30
0.0
  9
$EXTMIN
 10
0.0
 20
0.0
 30
0.0
  9
$LIMMIN
 10
0.0
 20
0.0
  9
$LIMMAX
 10
22.0
 20
17.0
  9
$VIEWCTR
 10
11.0
 20
8.5
  9
$VIEWSIZE
 40
17.0
  9
$CLAYER
  8
0
  9
$LTSCALE
 40
1.21
  9
$CELTYPE
  6
BYLAYER
  9
$DIMSCALE
 40
1.0
  9
$DIMASZ
 40
0.1
  9
$DIMEXO
 40
0.0625
  9
$DIMDLI
 40
0.836
  9
$DIMEXE
 40
0.125
  9
$DIMCEN
 40
0.198
  9
$DIMLFAC
 40
1.0
  9
$DIMBLK
  1
_FILLED
  9
$DIMALT
 70
1
  9
$DIMALTD
 70
2
  9
$DIMALTTD
 70
2
  9
$DIMALTF
 40
25.4
  9
$DIMTXT
 40
0.08
  9
$DIMTOL
 70
1
  9
$DIMLIM
 70
0
  9
$DIMTFAC
 40
1.0
  9
$DIMTP
 40
0.001
  9
$DIMTM
 40
0.001
  9
$DIMGAP
 40
0.09
  9
$DIMDSEP
 70
46
  9
$AUNITS
 70
0
  9
$PDMODE
 70
3
  9
$PDSIZE
 40
0.06
  9
$HANDSEED
  5
230
  9
$TILEMODE
 70
1
  9
$MEASUREMENT
 70
0
  9
$INSUNITS
 70
1
  0
ENDSEC
  0
SECTION
  2
CLASSES
  0
CLASS
  1
ACDBDICTIONARYWDFLT
  2
AcDbDictionaryWithDefault
  3
AutoCAD 2000
 90
0
 91
1
280
0
281
0
  0
CLASS
  1
ACDBPLACEHOLDER
  2
AcDbPlaceHolder
  3
AutoCAD 2000
 90
0
 91
1
280
0
281
0
  0
CLASS
  1
LAYOUT
  2
AcDbLayout
  3
AutoCAD 2000
 90
0
 91
0
280
0
281
0
  0
ENDSEC
  0
SECTION
  2
TABLES
  0
TABLE
  2
VPORT
  5
8
100
AcDbSymbolTable
 70
2
  0
VPORT
  5
1F4
100
AcDbSymbolTableRecord
100
AcDbViewportTableRecord
  2
*ACTIVE
 70
0
 10
0.0
 20
0.0
 11
1.0
 21
1.0
 12
11.0
 22
8.5
 13
0.0
 23
0.0
 14
1.0
 24
1.0
 15
0.0
 25
0.0
 16
0.0
 26
0.0
 36
1.0
 17
0.0
 27
0.0
 37
0.0
 40
17.0
 41
1.2941176471
 42
50.0
 43
0.0
 44
0.0
 50
0.0
 51
0.0
 71
0
 72
100
 73
1
 74
1
 75
0
 76
0
 77
0
 78
0
  0
ENDTAB
  0
TABLE
  2
LTYPE
  5
5
100
AcDbSymbolTable
 70
6
  0
LTYPE
  5
14
100
AcDbSymbolTableRecord
100
AcDbLinetypeTableRecord
  2
BYBLOCK
 70
0
  3

 72
65
 73
0
 40
0.0
  0
LTYPE
  5
15
100
AcDbSymbolTableRecord
100
AcDbLinetypeTableRecord
  2
BYLAYER
 70
0
  3

 72
65
 73
0
 40
0.0
  0
LTYPE
  5
16
100
AcDbSymbolTableRecord
100
AcDbLinetypeTableRecord
  2
CONTINUOUS
 70
64
  3
Solid line
 72
65
 73
0
 40
0.0
  0
LTYPE
  5
1F5
100
AcDbSymbolTableRecord
100
AcDbLinetypeTableRecord
  2
CENTER
 70
64
  3
____ _ ____ _ ____ _ ____ _ ____ _ ____ _ ____
 72
65
 73
4
 40
0.6
 49
0.375
 74
0
 49
-0.075
 74
0
 49
0.075
 74
0
 49
-0.075
 74
0
  0
LTYPE
  5
1F6
100
AcDbSymbolTableRecord
100
AcDbLinetypeTableRecord
  2
HIDDEN
 70
64
  3
- - - - - - - - - - - - - - - - - - - -
 72
65
 73
2
 40
0.2
 49
0.1
 74
0
 49
-0.1
 74
0
  0
LTYPE
  5
1F7
100
AcDbSymbolTableRecord
100
AcDbLinetypeTableRecord
  2
PHANTOM
 70
64
  3
_____ _ _ _____ _ _ _____ _ _ _____
 72
65
 73
6
 40
0.8
 49
0.45
 74
0
 49
-0.05
 74
0
 49
0.1
 74
0
 49
-0.05
 74
0
 49
0.1
 74
0
 49
-0.05
 74
0
  0
LTYPE
  5
1F8
100
AcDbSymbolTableRecord
100
AcDbLinetypeTableRecord
  2
DOT
 70
64
  3
. . . . . . . . . . . . . . . . . . . .
 72
65
 73
2
 40
0.2
 49
0.1
 74
0
 49
-0.1
 74
0
  0
LTYPE
  5
1F9
100
AcDbSymbolTableRecord
100
AcDbLinetypeTableRecord
  2
DASHED
 70
64
  3
- - - - - - - - - - - - - - - - - - - -
 72
65
 73
2
 40
0.2
 49
0.1
 74
0
 49
-0.1
 74
0
  0
ENDTAB
  0
TABLE
  2
LAYER
  5
2
100
AcDbSymbolTable
 70
36
  0
LAYER
  5
10
100
AcDbSymbolTableRecord
100
AcDbLayerTableRecord
  2
0
 70
0
 62
7
  6
CONTINUOUS
370
-3
390
F
  0
LAYER
  5
1FA
100
AcDbSymbolTableRecord
100
AcDbLayerTableRecord
  2
DEFAULT_1
 70
0
 62
7
  6
CENTER
370
-3
390
F
  0
LAYER
  5
1FB
100
AcDbSymbolTableRecord
100
AcDbLayerTableRecord
  2
DEFAULT_2
 70
0
 62
8
  6
HIDDEN
370
-3
390
F
  0
LAYER
  5
1FC
100
AcDbSymbolTableRecord
100
AcDbLayerTableRecord
  2
DEFAULT_3
 70
0
 62
7
  6
PHANTOM
370
-3
390
F
  0
LAYER
  5
1FD
100
AcDbSymbolTableRecord
100
AcDbLayerTableRecord
  2
ALL_FEATURES
 70
0
 62
7
  6
CONTINUOUS
370
-3
390
F
  0
LAYER
  5
1FE
100
AcDbSymbolTableRecord
100
AcDbLayerTableRecord
  2
AXES_FEATURES
 70
0
 62
7
  6
CONTINUOUS
370
-3
390
F
  0
LAYER
  5
1FF
100
AcDbSymbolTableRecord
100
AcDbLayerTableRecord
  2
DEFAULT_COORDINATE_SYSTEM
 70
0
 62
7
  6
CONTINUOUS
370
-3
390
F
  0
LAYER
  5
200
100
AcDbSymbolTableRecord
100
AcDbLayerTableRecord
  2
DEFAULT_DATUM_AXES
 70
0
 62
7
  6
CONTINUOUS
370
-3
390
F
  0
LAYER
  5
201
100
AcDbSymbolTableRecord
100
AcDbLayerTableRecord
  2
DEFAULT_DATUM_PLANES
 70
0
 62
7
  6
CONTINUOUS
370
-3
390
F
  0
LAYER
  5
202
100
AcDbSymbolTableRecord
100
AcDbLayerTableRecord
  2
DIMENSIONS
 70
0
 62
7
  6
CONTINUOUS
370
-3
390
F
  0
ENDTAB
  0
TABLE
  2
STYLE
  5
3
100
AcDbSymbolTable
 70
1
  0
STYLE
  5
11
100
AcDbSymbolTableRecord
100
AcDbTextStyleTableRecord
  2
STANDARD
 70
0
 40
0.0
 41
0.8
 50
0.0
 71
0
 42
0.2
  3
txt
  4

  0
STYLE
  5
203
100
AcDbSymbolTableRecord
100
AcDbTextStyleTableRecord
  2
TEXTSTYLE_1
 70
0
 40
0.0
 41
0.8
 50
0.0
 71
0
 42
0.2
  3
gdt
  4

  0
ENDTAB
  0
TABLE
  2
VIEW
  5
6
100
AcDbSymbolTable
 70
0
  0
ENDTAB
  0
TABLE
  2
UCS
  5
7
100
AcDbSymbolTable
 70
0
  0
ENDTAB
  0
TABLE
  2
APPID
  5
9
100
AcDbSymbolTable
 70
1
  0
APPID
  5
204
100
AcDbSymbolTableRecord
100
AcDbRegAppTableRecord
  2
ACAD
 70
0
  0
ENDTAB
  0
TABLE
  2
BLOCK_RECORD
  5
1
100
AcDbSymbolTable
 70
0
  0
BLOCK_RECORD
  5
205
100
AcDbSymbolTableRecord
100
AcDbBlockTableRecord
  2
*Model_Space
  0
BLOCK_RECORD
  5
206
100
AcDbSymbolTableRecord
100
AcDbBlockTableRecord
  2
*Paper_Space
  0
BLOCK_RECORD
  5
207
100
AcDbSymbolTableRecord
100
AcDbBlockTableRecord
  2
_FILLED
  0
ENDTAB
  0
TABLE
  2
DIMSTYLE
  5
A
100
AcDbSymbolTable
 70
1
100
AcDbDimStyleTable
 71
0
  0
DIMSTYLE
105
208
100
AcDbSymbolTableRecord
100
AcDbDimStyleTableRecord
  2
STANDARD
 70
0
  3

  4

 40
1.0
 41
0.1
 42
0.0625
 43
0.38
 44
0.125
 45
0.0
 46
0.0
 47
0.001
 48
0.001
140
0.08
141
0.09
142
0.0
143
25.4
144
1.0
145
0.0
146
1.0
147
0.09
 71
1.0
 72
0.0
 73
1
 74
1
 75
0
 76
0
 77
0
 78
4
 79
1
170
1
171
2
172
0
173
0
174
0
175
0
176
0
177
0
178
0
270
2
179
3
271
3
272
3
273
2
274
2
275
0
280
0
281
0
282
0
283
1
284
4
285
0
286
0
287
3
288
0
340
11
278
46
341
207
342
207
343
207
344
207
  0
ENDTAB
  0
ENDSEC
  0
SECTION
  2
BLOCKS
  0
BLOCK
  5
20
100
AcDbEntity
  8
0
100
AcDbBlockBegin
  2
*Model_Space
 70
0
 10
0.0
 20
0.0
 30
0.0
  3
*Model_Space
  1

  0
ENDBLK
  5
21
100
AcDbEntity
  8
0
100
AcDbBlockEnd
  0
BLOCK
  5
1C
100
AcDbEntity
  8
0
100
AcDbBlockBegin
  2
*Paper_Space
 70
0
 10
0.0
 20
0.0
 30
0.0
  3
*Paper_Space
  1

  0
ENDBLK
  5
1D
100
AcDbEntity
  8
0
100
AcDbBlockEnd
  0
BLOCK
  5
209
100
AcDbEntity
  8
0
100
AcDbBlockBegin
  2
_FILLED
 70
64
 10
0.0
 20
0.0
  3
_FILLED
  1

  0
SOLID
  5
20A
100
AcDbEntity
  8
0
  6
BYBLOCK
 62
0
100
AcDbTrace
 10
0.0
 20
0.0
 11
-1.0
 21
0.2
 12
-1.0
 22
-0.2
 13
-1.0
 23
-0.2
  0
ENDBLK
  5
20B
100
AcDbEntity
  8
0
  6
BYBLOCK
 62
0
100
AcDbBlockEnd
  0
ENDSEC
  0
SECTION
  2
ENTITIES
  0
LINE
  5
20C
100
AcDbEntity
  8
0
100
AcDbLine
 62
7
  6
CONTINUOUS
 10
4.0426923427
 20
8.6426695021
 11
4.0426923427
 21
9.8926695021
  0
LINE
  5
20D
100
AcDbEntity
  8
0
100
AcDbLine
 62
7
  6
CONTINUOUS
 10
4.0626923427
 20
8.6626695021
 11
4.0626923427
 21
9.8726695021
  0
LINE
  5
20E
100
AcDbEntity
  8
0
100
AcDbLine
 62
7
  6
CONTINUOUS
 10
4.0826923427
 20
8.6426695021
 11
4.0826923427
 21
9.8926695021
  0
LINE
  5
20F
100
AcDbEntity
  8
0
100
AcDbLine
 62
7
  6
CONTINUOUS
 10
4.0626923427
 20
9.8726695021
 11
4.0826923427
 21
9.8926695021
  0
LINE
  5
210
100
AcDbEntity
  8
0
100
AcDbLine
 62
7
  6
CONTINUOUS
 10
4.0626923427
 20
8.6626695021
 11
4.0826923427
 21
8.6426695021
  0
LINE
  5
211
100
AcDbEntity
  8
0
100
AcDbLine
 62
7
  6
CONTINUOUS
 10
4.0626923427
 20
8.6626695021
 11
4.0426923427
 21
8.6426695021
  0
LINE
  5
212
100
AcDbEntity
  8
0
100
AcDbLine
 62
7
  6
CONTINUOUS
 10
4.0626923427
 20
9.8726695021
 11
4.0426923427
 21
9.8926695021
  0
LINE
  5
213
100
AcDbEntity
  8
0
100
AcDbLine
 62
7
  6
CONTINUOUS
 10
17.7926923427
 20
8.6426695021
 11
4.0826923427
 21
8.6426695021
  0
LINE
  5
214
100
AcDbEntity
  8
0
100
AcDbLine
 62
7
  6
CONTINUOUS
 10
4.0426923427
 20
8.6426695021
 11
2.9377008818
 21
8.6426695021
  0
LINE
  5
215
100
AcDbEntity
  8
0
100
AcDbLine
 62
7
  6
CONTINUOUS
 10
17.8326923427
 20
8.6426695021
 11
18.9376826505
 21
8.6426695021
  0
LINE
  5
216
100
AcDbEntity
  8
0
100
AcDbLine
 62
7
  6
CONTINUOUS
 10
17.7926923427
 20
9.8926695021
 11
4.0826923427
 21
9.8926695021
  0
LINE
  5
217
100
AcDbEntity
  8
0
100
AcDbLine
 62
7
  6
CONTINUOUS
 10
4.0426923427
 20
9.8926695021
 11
2.937702035
 21
9.8926695021
  0
LINE
  5
218
100
AcDbEntity
  8
0
100
AcDbLine
 62
7
  6
CONTINUOUS
 10
17.8326923427
 20
9.8926695021
 11
18.9376838037
 21
9.8926695021
  0
LINE
  5
219
100
AcDbEntity
  8
0
100
AcDbLine
 62
7
  6
CONTINUOUS
 10
17.8126923427
 20
9.8726695021
 11
17.8326923427
 21
9.8926695021
  0
LINE
  5
21A
100
AcDbEntity
  8
0
100
AcDbLine
 62
7
  6
CONTINUOUS
 10
17.8126923427
 20
8.6626695021
 11
17.8326923427
 21
8.6426695021
  0
LINE
  5
21B
100
AcDbEntity
  8
0
100
AcDbLine
 62
7
  6
CONTINUOUS
 10
17.8126923427
 20
8.6626695021
 11
17.7926923427
 21
8.6426695021
  0
LINE
  5
21C
100
AcDbEntity
  8
0
100
AcDbLine
 62
7
  6
CONTINUOUS
 10
17.8126923427
 20
9.8726695021
 11
17.7926923427
 21
9.8926695021
  0
LINE
  5
21D
100
AcDbEntity
  8
0
100
AcDbLine
 62
7
  6
CONTINUOUS
 10
17.7926923427
 20
9.8926695021
 11
17.7926923427
 21
8.6426695021
  0
LINE
  5
21E
100
AcDbEntity
  8
0
100
AcDbLine
 62
7
  6
CONTINUOUS
 10
17.8126923427
 20
9.8726695021
 11
17.8126923427
 21
8.6626695021
  0
LINE
  5
21F
100
AcDbEntity
  8
0
100
AcDbLine
 62
7
  6
CONTINUOUS
 10
17.8326923427
 20
9.8926695021
 11
17.8326923427
 21
8.6426695021
  0
ARC
  5
220
100
AcDbEntity
  8
0
100
AcDbCircle
 62
7
  6
CONTINUOUS
 10
2.9376923427
 20
9.2676695021
 40
1.5
100
AcDbArc
 50
24.630785731
 51
335.369214269
  0
ARC
  5
221
100
AcDbEntity
  8
0
100
AcDbCircle
 62
7
  6
CONTINUOUS
 10
18.9376923427
 20
9.2676695021
 40
1.5
100
AcDbArc
 50
204.630785731
 51
155.369214269
  0
ARC
  5
222
100
AcDbEntity
  8
0
100
AcDbCircle
 62
9
  6
CONTINUOUS
 10
2.9376923427
 20
9.2676695021
 40
1.375
100
AcDbArc
 50
27.0585767027
 51
332.9414232973
  0
ARC
  5
223
100
AcDbEntity
  8
0
100
AcDbCircle
 62
9
  6
CONTINUOUS
 10
18.9376923427
 20
9.2676695021
 40
1.375
100
AcDbArc
 50
207.0585767027
 51
152.9414232973
  0
ARC
  5
224
100
AcDbEntity
  8
0
100
AcDbCircle
 62
7
  6
CONTINUOUS
 10
2.9376923427
 20
9.2676695021
 40
0.875
100
AcDbArc
 50
45.6548466994
 51
314.3451532959
  0
ARC
  5
225
100
AcDbEntity
  8
0
100
AcDbCircle
 62
7
  6
CONTINUOUS
 10
18.9376923427
 20
9.2676695021
 40
0.875
100
AcDbArc
 50
225.6548466994
 51
134.3451532959
  0
ARC
  5
226
100
AcDbEntity
  8
0
100
AcDbCircle
 62
9
  6
CONTINUOUS
 10
2.9376923427
 20
9.2676695021
 40
0.815
100
AcDbArc
 50
50.112803681
 51
309.8871963336
  0
ARC
  5
227
100
AcDbEntity
  8
0
100
AcDbCircle
 62
9
  6
CONTINUOUS
 10
18.9376923427
 20
9.2676695021
 40
0.815
100
AcDbArc
 50
230.112803681
 51
129.8871963336
  0
ARC
  5
228
100
AcDbEntity
  8
0
100
AcDbCircle
 62
7
  6
CONTINUOUS
 10
18.9376923427
 20
9.2676695021
 40
0.625
100
AcDbArc
 50
270.0
 51
90.0
  0
ARC
  5
229
100
AcDbEntity
  8
0
100
AcDbCircle
 62
7
  6
CONTINUOUS
 10
2.9376923427
 20
9.2676695021
 40
0.625
100
AcDbArc
 50
90.0
 51
270.0
  0
SPLINE
  5
22A
100
AcDbEntity
  8
0
100
AcDbSpline
 62
9
  6
CONTINUOUS
 70
0
 71
3
 72
35
 73
31
 74
0
 42
0.0000001
 43
0.0000001
 44
0.0000000001
 40
0.0
 40
0.0
 40
0.0
 40
0.0
 40
0.0165400406
 40
0.0331973209
 40
0.0502377216
 40
0.0678611864
 40
0.0862160409
 40
0.1054302367
 40
0.1468252028
 40
0.1692117386
 40
0.1928074121
 40
0.217656135
 40
0.2437872098
 40
0.2712192613
 40
0.2999610588
 40
0.3300133192
 40
0.361367079
 40
0.3940046551
 40
0.4278948089
 40
0.4992734486
 40
0.5751324291
 40
0.6549606197
 40
0.6961743047
 40
0.7381372605
 40
0.7807557645
 40
0.8239275224
 40
0.8675466553
 40
0.9115080638
 40
0.9557022267
 40
1.0
 40
1.0
 40
1.0
 40
1.0
 10
2.9376923427
 20
8.6426695021
 30
0.0
 10
2.9337279487
 20
8.6426711978
 30
0.0
 10
2.9257630999
 20
8.6431414521
 30
0.0
 10
2.9138847271
 20
8.6452677596
 30
0.0
 10
2.9020771812
 20
8.6488065009
 30
0.0
 10
2.8903440318
 20
8.6537453476
 30
0.0
 10
2.8787050544
 20
8.6600765415
 30
0.0
 10
2.8629612658
 20
8.6706203301
 30
0.0
 10
2.8479267104
 20
8.6837906789
 30
0.0
 10
2.8336431127
 20
8.6991167555
 30
0.0
 10
2.8228583803
 20
8.7122434144
 30
0.0
 10
2.8123082914
 20
8.7266826694
 30
0.0
 10
2.8020190474
 20
8.7424194548
 30
0.0
 10
2.7920179109
 20
8.7594314719
 30
0.0
 10
2.7823305221
 20
8.7776943965
 30
0.0
 10
2.7729816074
 20
8.7971801578
 30
0.0
 10
2.7639876802
 20
8.8178540348
 30
0.0
 10
2.7553689955
 20
8.839679013
 30
0.0
 10
2.7442308621
 20
8.8708052635
 30
0.0
 10
2.7315367374
 20
8.9123497184
 30
0.0
 10
2.7184429118
 20
8.965198302
 30
0.0
 10
2.7093863135
 20
9.0115357337
 30
0.0
 10
2.7032214312
 20
9.0501186175
 30
0.0
 10
2.6991317165
 20
9.0799937316
 30
0.0
 10
2.6956266413
 20
9.1104151821
 30
0.0
 10
2.6927313756
 20
9.1412996514
 30
0.0
 10
2.6904879525
 20
9.172561031
 30
0.0
 10
2.6888916455
 20
9.2041072458
 30
0.0
 10
2.6879149521
 20
9.2358412098
 30
0.0
 10
2.6876915967
 20
9.2570520044
 30
0.0
 10
2.6876923427
 20
9.2676695021
 30
0.0
  0
SPLINE
  5
22B
100
AcDbEntity
  8
0
100
AcDbSpline
 62
9
  6
CONTINUOUS
 70
0
 71
3
 72
33
 73
29
 74
0
 42
0.0000001
 43
0.0000001
 44
0.0000000001
 40
0.0
 40
0.0
 40
0.0
 40
0.0
 40
0.0165417584
 40
0.0332012437
 40
0.0502399165
 40
0.0678634306
 40
0.1053910162
 40
0.1255729222
 40
0.1468187273
 40
0.1692069436
 40
0.1928007886
 40
0.2176480561
 40
0.2437787444
 40
0.2712126655
 40
0.2999575481
 40
0.3300121068
 40
0.3613667241
 40
0.4278824129
 40
0.4629896138
 40
0.4992717965
 40
0.5366748956
 40
0.5751385731
 40
0.6145962649
 40
0.6549733675
 40
0.7381475334
 40
0.8239339074
 40
0.9115122118
 40
1.0
 40
1.0
 40
1.0
 40
1.0
 10
18.9376923427
 20
9.8926695021
 30
0.0
 10
18.9416570776
 20
9.8926678064
 30
0.0
 10
18.9496227315
 20
9.8921971655
 30
0.0
 10
18.9615013104
 20
9.8900711742
 30
0.0
 10
18.9733092958
 20
9.8865320898
 30
0.0
 10
18.9892821109
 20
9.8798099867
 30
0.0
 10
19.0047683823
 20
9.8702895609
 30
0.0
 10
19.0195572912
 20
9.8584654468
 30
0.0
 10
19.0307497758
 20
9.8480175479
 30
0.0
 10
19.0417441467
 20
9.8362228133
 30
0.0
 10
19.0525253137
 20
9.8230960681
 30
0.0
 10
19.0630717279
 20
9.8086550884
 30
0.0
 10
19.0733599826
 20
9.792918283
 30
0.0
 10
19.0833635442
 20
9.7759068302
 30
0.0
 10
19.0930569298
 20
9.757645657
 30
0.0
 10
19.1024135819
 20
9.7381621377
 30
0.0
 10
19.1146461521
 20
9.710040716
 30
0.0
 10
19.1258047518
 20
9.6801569223
 30
0.0
 10
19.135978229
 20
9.64870553
 30
0.0
 10
19.1432940787
 20
9.6236734825
 30
0.0
 10
19.1501303453
 20
9.5976742134
 30
0.0
 10
19.1564505777
 20
9.5707622708
 30
0.0
 10
19.1622338167
 20
9.5430015191
 30
0.0
 10
19.1692935047
 20
9.5045715816
 30
0.0
 10
19.1766624372
 20
9.4549230521
 30
0.0
 10
19.1830068733
 20
9.3937445567
 30
0.0
 10
19.1868109998
 20
9.3310822346
 30
0.0
 10
19.187693833
 20
9.2888782902
 30
0.0
 10
19.1876923427
 20
9.2676695021
 30
0.0
  0
SPLINE
  5
22C
100
AcDbEntity
  8
0
100
AcDbSpline
 62
9
  6
CONTINUOUS
 70
0
 71
3
 72
36
 73
32
 74
0
 42
0.0000001
 43
0.0000001
 44
0.0000000001
 40
0.0
 40
0.0
 40
0.0
 40
0.0
 40
0.0442975209
 40
0.0884914199
 40
0.1324525857
 40
0.176071443
 40
0.2192429304
 40
0.2618612238
 40
0.3038239024
 40
0.3450372523
 40
0.3854134181
 40
0.4248709646
 40
0.5007293156
 40
0.5721077825
 40
0.6059978281
 40
0.6386351398
 40
0.6699884909
 40
0.7000403698
 40
0.7287820712
 40
0.7562142565
 40
0.7823453528
 40
0.8071938846
 40
0.8307894291
 40
0.8531760404
 40
0.8945703844
 40
0.9137839735
 40
0.9321389457
 40
0.9497633227
 40
0.9668048676
 40
0.983462399
 40
1.0
 40
1.0
 40
1.0
 40
1.0
 10
2.6876923427
 20
9.2676695021
 30
0.0
 10
2.687691816
 20
9.2782870004
 30
0.0
 10
2.6879147734
 20
9.2994977883
 30
0.0
 10
2.688890362
 20
9.331231791
 30
0.0
 10
2.6904866327
 20
9.3627780096
 30
0.0
 10
2.6927314452
 20
9.3940392963
 30
0.0
 10
2.6956291749
 20
9.4249235151
 30
0.0
 10
2.6991342727
 20
9.4553449774
 30
0.0
 10
2.7032207797
 20
9.4852203231
 30
0.0
 10
2.7078920088
 20
9.514465935
 30
0.0
 10
2.7131397065
 20
9.5430036499
 30
0.0
 10
2.7207719456
 20
9.5795350774
 30
0.0
 10
2.7315345146
 20
9.6229903165
 30
0.0
 10
2.7442312846
 20
9.6645335549
 30
0.0
 10
2.7553698703
 20
9.6956597421
 30
0.0
 10
2.7639882237
 20
9.7174847783
 30
0.0
 10
2.7729813253
 20
9.7381588777
 30
0.0
 10
2.7823295499
 20
9.7576448803
 30
0.0
 10
2.7920171479
 20
9.7759077503
 30
0.0
 10
2.8020189886
 20
9.7929195023
 30
0.0
 10
2.8123085587
 20
9.8086561815
 30
0.0
 10
2.822858523
 20
9.8230955601
 30
0.0
 10
2.8336432298
 20
9.8362223011
 30
0.0
 10
2.847927099
 20
9.8515480711
 30
0.0
 10
2.8629613161
 20
9.864718482
 30
0.0
 10
2.8787046595
 20
9.875262673
 30
0.0
 10
2.8903438934
 20
9.8815938061
 30
0.0
 10
2.9020777723
 20
9.8865324581
 30
0.0
 10
2.9138859827
 20
9.890071115
 30
0.0
 10
2.9257641369
 20
9.8921975344
 30
0.0
 10
2.9337285106
 20
9.8926678969
 30
0.0
 10
2.9376923427
 20
9.8926695021
 30
0.0
  0
SPLINE
  5
22D
100
AcDbEntity
  8
0
100
AcDbSpline
 62
9
  6
CONTINUOUS
 70
0
 71
3
 72
33
 73
29
 74
0
 42
0.0000001
 43
0.0000001
 44
0.0000000001
 40
0.0
 40
0.0
 40
0.0
 40
0.0
 40
0.0884877972
 40
0.1760660869
 40
0.2618524684
 40
0.3450265835
 40
0.3854036411
 40
0.4248614077
 40
0.4633251934
 40
0.5007283414
 40
0.5370104444
 40
0.5721174267
 40
0.6386331008
 40
0.6699881043
 40
0.7000428803
 40
0.7287876772
 40
0.7562213479
 40
0.7823518106
 40
0.8071990458
 40
0.8307931825
 40
0.8531817458
 40
0.874427456
 40
0.8946087871
 40
0.9321364324
 40
0.9497610845
 40
0.9668009974
 40
0.9834606837
 40
1.0
 40
1.0
 40
1.0
 40
1.0
 10
19.1876923427
 20
9.2676695021
 30
0.0
 10
19.1876933949
 20
9.2464607134
 30
0.0
 10
19.1868120534
 20
9.204256793
 30
0.0
 10
19.1830090756
 20
9.1415942815
 30
0.0
 10
19.1766586654
 20
9.0804164874
 30
0.0
 10
19.169294411
 20
9.0307673578
 30
0.0
 10
19.1622353132
 20
8.9923372847
 30
0.0
 10
19.1564509434
 20
8.9645767325
 30
0.0
 10
19.1501295963
 20
8.9376650003
 30
0.0
 10
19.1432929226
 20
8.9116658288
 30
0.0
 10
19.1359776649
 20
8.8866336849
 30
0.0
 10
19.1258063308
 20
8.8551816876
 30
0.0
 10
19.1146478127
 20
8.8252977306
 30
0.0
 10
19.102413161
 20
8.7971770638
 30
0.0
 10
19.0930559527
 20
8.7776936937
 30
0.0
 10
19.083362895
 20
8.7594323896
 30
0.0
 10
19.0733599116
 20
8.7424207545
 30
0.0
 10
19.0630720634
 20
8.7266838263
 30
0.0
 10
19.0525257175
 20
8.712242778
 30
0.0
 10
19.0417441429
 20
8.6991161711
 30
0.0
 10
19.0307493596
 20
8.6873216513
 30
0.0
 10
19.0195569917
 20
8.6768737668
 30
0.0
 10
19.0047686696
 20
8.6650491627
 30
0.0
 10
18.9892821687
 20
8.655528673
 30
0.0
 10
18.9733085419
 20
8.6488069944
 30
0.0
 10
18.9614999128
 20
8.6452679541
 30
0.0
 10
18.9496216126
 20
8.6431418438
 30
0.0
 10
18.941656492
 20
8.6426711076
 30
0.0
 10
18.9376923427
 20
8.6426695021
 30
0.0
  0
ENDSEC
  0
SECTION
  2
OBJECTS
  0
DICTIONARY
  5
C
100
AcDbDictionary
280
0
281
1
  3
ACAD_GROUP
350
D
  3
ACAD_MLINESTYLE
350
17
  3
ACAD_LAYOUT
350
1A
  3
ACAD_PLOTSETTINGS
350
19
  3
ACAD_PLOTSTYLENAME
350
E
  0
DICTIONARY
  5
D
102
{ACAD_REACTORS
330
C
102
}
100
AcDbDictionary
280
0
281
1
  0
ACDBDICTIONARYWDFLT
  5
E
102
{ACAD_REACTORS
330
C
102
}
100
AcDbDictionary
281
1
  3
Normal
350
F
100
AcDbDictionaryWithDefault
340
F
  0
DICTIONARY
  5
17
102
{ACAD_REACTORS
330
C
102
}
100
AcDbDictionary
280
0
281
1
  3
Standard
350
18
  0
DICTIONARY
  5
19
102
{ACAD_REACTORS
330
C
102
}
100
AcDbDictionary
281
1
  0
DICTIONARY
  5
1A
102
{ACAD_REACTORS
330
C
102
}
100
AcDbDictionary
281
1
  3
Model
350
22E
  3
Layout1
350
22F
  0
ACDBPLACEHOLDER
  5
F
102
{ACAD_REACTORS
330
E
102
}
  0
MLINESTYLE
  5
18
102
{ACAD_REACTORS
330
17
102
}
100
AcDbMlineStyle
  2
STANDARD
 70
0
  3

 62
256
 51
90.0
 52
90.0
 71
2
 49
0.5
 62
256
  6
BYLAYER
 49
-0.5
 62
256
  6
BYLAYER
  0
LAYOUT
  5
22E
102
{ACAD_REACTORS
330
1A
102
}
100
AcDbPlotSettings
  1

  2
none_device
  4
ANSI_C_(22.00_x_17.00_Inches)
  6

 40
0.0
 41
0.0
 42
0.0
 43
0.0
 44
558.8
 45
431.8
 46
0.0
 47
0.0
 48
0.0
 49
0.0
140
0.0
141
0.0
142
1.0
143
1.0
 70
1024
 72
0
 73
0
 74
0
  7

 75
0
147
1.0
148
0.0
149
0.0
100
AcDbLayout
  1
Model
 70
0
 71
0
 10
0.0
 20
0.0
 11
22.0
 21
17.0
 12
0.0
 22
0.0
 32
0.0
 14
0.0
 24
0.0
 34
0.0
 15
0.0
 25
0.0
 35
0.0
146
0.0
 13
0.0
 23
0.0
 33
0.0
 16
1.0
 26
0.0
 36
0.0
 17
0.0
 27
1.0
 37
0.0
 76
0
330
205
345
0
346
0
  0
LAYOUT
  5
22F
102
{ACAD_REACTORS
330
1A
102
}
100
AcDbPlotSettings
  1

  2
none_device
  4
ANSI_C_(22.00_x_17.00_Inches)
  6

 40
0.0
 41
0.0
 42
0.0
 43
0.0
 44
558.8
 45
431.8
 46
0.0
 47
0.0
 48
0.0
 49
0.0
140
0.0
141
0.0
142
1.0
143
1.0
 70
0
 72
0
 73
0
 74
0
  7

 75
0
147
1.0
148
0.0
149
0.0
100
AcDbLayout
  1
Layout1
 70
0
 71
1
 10
0.0
 20
0.0
 11
22.0
 21
17.0
 12
0.0
 22
0.0
 32
0.0
 14
0.0
 24
0.0
 34
0.0
 15
0.0
 25
0.0
 35
0.0
146
0.0
 13
0.0
 23
0.0
 33
0.0
 16
1.0
 26
0.0
 36
0.0
 17
0.0
 27
1.0
 37
0.0
 76
0
330
206
345
0
346
0
  0
ENDSEC
  0
EOF
