999
DXF file: E:\BT Custom\CADOUTPUT\_FRONT.dxf
999
Pro/ENGINEER 2018400 by Parametric Technology Corporation
  0
SECTION
  2
HEADER
  9
$ACADVER
  1
AC1018
  9
$DWGCODEPAGE
  3
ANSI_1252
  9
$EXTMAX
 10
22.0
 20
17.0
 30
0.0
  9
$EXTMIN
 10
0.0
 20
0.0
 30
0.0
  9
$LIMMIN
 10
0.0
 20
0.0
  9
$LIMMAX
 10
22.0
 20
17.0
  9
$VIEWCTR
 10
11.0
 20
8.5
  9
$VIEWSIZE
 40
17.0
  9
$CLAYER
  8
0
  9
$LTSCALE
 40
1.21
  9
$CELTYPE
  6
BYLAYER
  9
$DIMSCALE
 40
1.0
  9
$DIMASZ
 40
0.1
  9
$DIMEXO
 40
0.0625
  9
$DIMDLI
 40
0.836
  9
$DIMEXE
 40
0.125
  9
$DIMCEN
 40
0.198
  9
$DIMLFAC
 40
1.0
  9
$DIMBLK
  1
_FILLED
  9
$DIMALT
 70
1
  9
$DIMALTD
 70
2
  9
$DIMALTTD
 70
2
  9
$DIMALTF
 40
25.4
  9
$DIMTXT
 40
0.08
  9
$DIMTOL
 70
1
  9
$DIMLIM
 70
0
  9
$DIMTFAC
 40
1.0
  9
$DIMTP
 40
0.001
  9
$DIMTM
 40
0.001
  9
$DIMGAP
 40
0.09
  9
$DIMDSEP
 70
46
  9
$AUNITS
 70
0
  9
$PDMODE
 70
3
  9
$PDSIZE
 40
0.06
  9
$HANDSEED
  5
230
  9
$TILEMODE
 70
1
  9
$MEASUREMENT
 70
0
  9
$INSUNITS
 70
1
  0
ENDSEC
  0
SECTION
  2
CLASSES
  0
CLASS
  1
ACDBDICTIONARYWDFLT
  2
AcDbDictionaryWithDefault
  3
AutoCAD 2000
 90
0
 91
1
280
0
281
0
  0
CLASS
  1
ACDBPLACEHOLDER
  2
AcDbPlaceHolder
  3
AutoCAD 2000
 90
0
 91
1
280
0
281
0
  0
CLASS
  1
LAYOUT
  2
AcDbLayout
  3
AutoCAD 2000
 90
0
 91
0
280
0
281
0
  0
ENDSEC
  0
SECTION
  2
TABLES
  0
TABLE
  2
VPORT
  5
8
100
AcDbSymbolTable
 70
2
  0
VPORT
  5
1F4
100
AcDbSymbolTableRecord
100
AcDbViewportTableRecord
  2
*ACTIVE
 70
0
 10
0.0
 20
0.0
 11
1.0
 21
1.0
 12
11.0
 22
8.5
 13
0.0
 23
0.0
 14
1.0
 24
1.0
 15
0.0
 25
0.0
 16
0.0
 26
0.0
 36
1.0
 17
0.0
 27
0.0
 37
0.0
 40
17.0
 41
1.2941176471
 42
50.0
 43
0.0
 44
0.0
 50
0.0
 51
0.0
 71
0
 72
100
 73
1
 74
1
 75
0
 76
0
 77
0
 78
0
  0
ENDTAB
  0
TABLE
  2
LTYPE
  5
5
100
AcDbSymbolTable
 70
6
  0
LTYPE
  5
14
100
AcDbSymbolTableRecord
100
AcDbLinetypeTableRecord
  2
BYBLOCK
 70
0
  3

 72
65
 73
0
 40
0.0
  0
LTYPE
  5
15
100
AcDbSymbolTableRecord
100
AcDbLinetypeTableRecord
  2
BYLAYER
 70
0
  3

 72
65
 73
0
 40
0.0
  0
LTYPE
  5
16
100
AcDbSymbolTableRecord
100
AcDbLinetypeTableRecord
  2
CONTINUOUS
 70
64
  3
Solid line
 72
65
 73
0
 40
0.0
  0
LTYPE
  5
1F5
100
AcDbSymbolTableRecord
100
AcDbLinetypeTableRecord
  2
CENTER
 70
64
  3
____ _ ____ _ ____ _ ____ _ ____ _ ____ _ ____
 72
65
 73
4
 40
0.6
 49
0.375
 74
0
 49
-0.075
 74
0
 49
0.075
 74
0
 49
-0.075
 74
0
  0
LTYPE
  5
1F6
100
AcDbSymbolTableRecord
100
AcDbLinetypeTableRecord
  2
HIDDEN
 70
64
  3
- - - - - - - - - - - - - - - - - - - -
 72
65
 73
2
 40
0.2
 49
0.1
 74
0
 49
-0.1
 74
0
  0
LTYPE
  5
1F7
100
AcDbSymbolTableRecord
100
AcDbLinetypeTableRecord
  2
PHANTOM
 70
64
  3
_____ _ _ _____ _ _ _____ _ _ _____
 72
65
 73
6
 40
0.8
 49
0.45
 74
0
 49
-0.05
 74
0
 49
0.1
 74
0
 49
-0.05
 74
0
 49
0.1
 74
0
 49
-0.05
 74
0
  0
LTYPE
  5
1F8
100
AcDbSymbolTableRecord
100
AcDbLinetypeTableRecord
  2
DOT
 70
64
  3
. . . . . . . . . . . . . . . . . . . .
 72
65
 73
2
 40
0.2
 49
0.1
 74
0
 49
-0.1
 74
0
  0
LTYPE
  5
1F9
100
AcDbSymbolTableRecord
100
AcDbLinetypeTableRecord
  2
DASHED
 70
64
  3
- - - - - - - - - - - - - - - - - - - -
 72
65
 73
2
 40
0.2
 49
0.1
 74
0
 49
-0.1
 74
0
  0
ENDTAB
  0
TABLE
  2
LAYER
  5
2
100
AcDbSymbolTable
 70
36
  0
LAYER
  5
10
100
AcDbSymbolTableRecord
100
AcDbLayerTableRecord
  2
0
 70
0
 62
7
  6
CONTINUOUS
370
-3
390
F
  0
LAYER
  5
1FA
100
AcDbSymbolTableRecord
100
AcDbLayerTableRecord
  2
DEFAULT_1
 70
0
 62
7
  6
CENTER
370
-3
390
F
  0
LAYER
  5
1FB
100
AcDbSymbolTableRecord
100
AcDbLayerTableRecord
  2
DEFAULT_2
 70
0
 62
8
  6
HIDDEN
370
-3
390
F
  0
LAYER
  5
1FC
100
AcDbSymbolTableRecord
100
AcDbLayerTableRecord
  2
DEFAULT_3
 70
0
 62
7
  6
PHANTOM
370
-3
390
F
  0
LAYER
  5
1FD
100
AcDbSymbolTableRecord
100
AcDbLayerTableRecord
  2
ALL_FEATURES
 70
0
 62
7
  6
CONTINUOUS
370
-3
390
F
  0
LAYER
  5
1FE
100
AcDbSymbolTableRecord
100
AcDbLayerTableRecord
  2
AXES_FEATURES
 70
0
 62
7
  6
CONTINUOUS
370
-3
390
F
  0
LAYER
  5
1FF
100
AcDbSymbolTableRecord
100
AcDbLayerTableRecord
  2
DEFAULT_COORDINATE_SYSTEM
 70
0
 62
7
  6
CONTINUOUS
370
-3
390
F
  0
LAYER
  5
200
100
AcDbSymbolTableRecord
100
AcDbLayerTableRecord
  2
DEFAULT_DATUM_AXES
 70
0
 62
7
  6
CONTINUOUS
370
-3
390
F
  0
LAYER
  5
201
100
AcDbSymbolTableRecord
100
AcDbLayerTableRecord
  2
DEFAULT_DATUM_PLANES
 70
0
 62
7
  6
CONTINUOUS
370
-3
390
F
  0
LAYER
  5
202
100
AcDbSymbolTableRecord
100
AcDbLayerTableRecord
  2
DIMENSIONS
 70
0
 62
7
  6
CONTINUOUS
370
-3
390
F
  0
ENDTAB
  0
TABLE
  2
STYLE
  5
3
100
AcDbSymbolTable
 70
1
  0
STYLE
  5
11
100
AcDbSymbolTableRecord
100
AcDbTextStyleTableRecord
  2
STANDARD
 70
0
 40
0.0
 41
0.8
 50
0.0
 71
0
 42
0.2
  3
txt
  4

  0
STYLE
  5
203
100
AcDbSymbolTableRecord
100
AcDbTextStyleTableRecord
  2
TEXTSTYLE_1
 70
0
 40
0.0
 41
0.8
 50
0.0
 71
0
 42
0.2
  3
gdt
  4

  0
ENDTAB
  0
TABLE
  2
VIEW
  5
6
100
AcDbSymbolTable
 70
0
  0
ENDTAB
  0
TABLE
  2
UCS
  5
7
100
AcDbSymbolTable
 70
0
  0
ENDTAB
  0
TABLE
  2
APPID
  5
9
100
AcDbSymbolTable
 70
1
  0
APPID
  5
204
100
AcDbSymbolTableRecord
100
AcDbRegAppTableRecord
  2
ACAD
 70
0
  0
ENDTAB
  0
TABLE
  2
BLOCK_RECORD
  5
1
100
AcDbSymbolTable
 70
0
  0
BLOCK_RECORD
  5
205
100
AcDbSymbolTableRecord
100
AcDbBlockTableRecord
  2
*Model_Space
  0
BLOCK_RECORD
  5
206
100
AcDbSymbolTableRecord
100
AcDbBlockTableRecord
  2
*Paper_Space
  0
BLOCK_RECORD
  5
207
100
AcDbSymbolTableRecord
100
AcDbBlockTableRecord
  2
_FILLED
  0
ENDTAB
  0
TABLE
  2
DIMSTYLE
  5
A
100
AcDbSymbolTable
 70
1
100
AcDbDimStyleTable
 71
0
  0
DIMSTYLE
105
208
100
AcDbSymbolTableRecord
100
AcDbDimStyleTableRecord
  2
STANDARD
 70
0
  3

  4

 40
1.0
 41
0.1
 42
0.0625
 43
0.38
 44
0.125
 45
0.0
 46
0.0
 47
0.001
 48
0.001
140
0.08
141
0.09
142
0.0
143
25.4
144
1.0
145
0.0
146
1.0
147
0.09
 71
1.0
 72
0.0
 73
1
 74
1
 75
0
 76
0
 77
0
 78
4
 79
1
170
1
171
2
172
0
173
0
174
0
175
0
176
0
177
0
178
0
270
2
179
3
271
3
272
3
273
2
274
2
275
0
280
0
281
0
282
0
283
1
284
4
285
0
286
0
287
3
288
0
340
11
278
46
341
207
342
207
343
207
344
207
  0
ENDTAB
  0
ENDSEC
  0
SECTION
  2
BLOCKS
  0
BLOCK
  5
20
100
AcDbEntity
  8
0
100
AcDbBlockBegin
  2
*Model_Space
 70
0
 10
0.0
 20
0.0
 30
0.0
  3
*Model_Space
  1

  0
ENDBLK
  5
21
100
AcDbEntity
  8
0
100
AcDbBlockEnd
  0
BLOCK
  5
1C
100
AcDbEntity
  8
0
100
AcDbBlockBegin
  2
*Paper_Space
 70
0
 10
0.0
 20
0.0
 30
0.0
  3
*Paper_Space
  1

  0
ENDBLK
  5
1D
100
AcDbEntity
  8
0
100
AcDbBlockEnd
  0
BLOCK
  5
209
100
AcDbEntity
  8
0
100
AcDbBlockBegin
  2
_FILLED
 70
64
 10
0.0
 20
0.0
  3
_FILLED
  1

  0
SOLID
  5
20A
100
AcDbEntity
  8
0
  6
BYBLOCK
 62
0
100
AcDbTrace
 10
0.0
 20
0.0
 11
-1.0
 21
0.2
 12
-1.0
 22
-0.2
 13
-1.0
 23
-0.2
  0
ENDBLK
  5
20B
100
AcDbEntity
  8
0
  6
BYBLOCK
 62
0
100
AcDbBlockEnd
  0
ENDSEC
  0
SECTION
  2
ENTITIES
  0
LINE
  5
20C
100
AcDbEntity
  8
0
100
AcDbLine
 62
7
  6
CONTINUOUS
 10
0.0426923427
 20
8.6426695021
 11
0.0426923427
 21
9.8926695021
  0
LINE
  5
20D
100
AcDbEntity
  8
0
100
AcDbLine
 62
7
  6
CONTINUOUS
 10
0.0626923427
 20
8.6626695021
 11
0.0626923427
 21
9.8726695021
  0
LINE
  5
20E
100
AcDbEntity
  8
0
100
AcDbLine
 62
7
  6
CONTINUOUS
 10
0.0826923427
 20
8.6426695021
 11
0.0826923427
 21
9.8926695021
  0
LINE
  5
20F
100
AcDbEntity
  8
0
100
AcDbLine
 62
7
  6
CONTINUOUS
 10
0.0626923427
 20
9.8726695021
 11
0.0826923427
 21
9.8926695021
  0
LINE
  5
210
100
AcDbEntity
  8
0
100
AcDbLine
 62
7
  6
CONTINUOUS
 10
0.0626923427
 20
8.6626695021
 11
0.0826923427
 21
8.6426695021
  0
LINE
  5
211
100
AcDbEntity
  8
0
100
AcDbLine
 62
7
  6
CONTINUOUS
 10
0.0626923427
 20
8.6626695021
 11
0.0426923427
 21
8.6426695021
  0
LINE
  5
212
100
AcDbEntity
  8
0
100
AcDbLine
 62
7
  6
CONTINUOUS
 10
0.0626923427
 20
9.8726695021
 11
0.0426923427
 21
9.8926695021
  0
LINE
  5
213
100
AcDbEntity
  8
0
100
AcDbLine
 62
7
  6
CONTINUOUS
 10
0.0826923427
 20
8.6426695021
 11
21.7926923427
 21
8.6426695021
  0
LINE
  5
214
100
AcDbEntity
  8
0
100
AcDbLine
 62
7
  6
CONTINUOUS
 10
0.0426923427
 20
8.6426695021
 11
-1.0622991182
 21
8.6426695021
  0
LINE
  5
215
100
AcDbEntity
  8
0
100
AcDbLine
 62
7
  6
CONTINUOUS
 10
21.8326923427
 20
8.6426695021
 11
22.9376826505
 21
8.6426695021
  0
LINE
  5
216
100
AcDbEntity
  8
0
100
AcDbLine
 62
7
  6
CONTINUOUS
 10
0.0826923427
 20
9.8926695021
 11
21.7926923427
 21
9.8926695021
  0
LINE
  5
217
100
AcDbEntity
  8
0
100
AcDbLine
 62
7
  6
CONTINUOUS
 10
0.0426923427
 20
9.8926695021
 11
-1.062297965
 21
9.8926695021
  0
LINE
  5
218
100
AcDbEntity
  8
0
100
AcDbLine
 62
7
  6
CONTINUOUS
 10
21.8326923427
 20
9.8926695021
 11
22.9376838037
 21
9.8926695021
  0
LINE
  5
219
100
AcDbEntity
  8
0
100
AcDbLine
 62
7
  6
CONTINUOUS
 10
21.8126923427
 20
9.8726695021
 11
21.8326923427
 21
9.8926695021
  0
LINE
  5
21A
100
AcDbEntity
  8
0
100
AcDbLine
 62
7
  6
CONTINUOUS
 10
21.8126923427
 20
8.6626695021
 11
21.8326923427
 21
8.6426695021
  0
LINE
  5
21B
100
AcDbEntity
  8
0
100
AcDbLine
 62
7
  6
CONTINUOUS
 10
21.8126923427
 20
8.6626695021
 11
21.7926923427
 21
8.6426695021
  0
LINE
  5
21C
100
AcDbEntity
  8
0
100
AcDbLine
 62
7
  6
CONTINUOUS
 10
21.8126923427
 20
9.8726695021
 11
21.7926923427
 21
9.8926695021
  0
LINE
  5
21D
100
AcDbEntity
  8
0
100
AcDbLine
 62
7
  6
CONTINUOUS
 10
21.7926923427
 20
9.8926695021
 11
21.7926923427
 21
8.6426695021
  0
LINE
  5
21E
100
AcDbEntity
  8
0
100
AcDbLine
 62
7
  6
CONTINUOUS
 10
21.8126923427
 20
9.8726695021
 11
21.8126923427
 21
8.6626695021
  0
LINE
  5
21F
100
AcDbEntity
  8
0
100
AcDbLine
 62
7
  6
CONTINUOUS
 10
21.8326923427
 20
9.8926695021
 11
21.8326923427
 21
8.6426695021
  0
ARC
  5
220
100
AcDbEntity
  8
0
100
AcDbCircle
 62
7
  6
CONTINUOUS
 10
-1.0623076573
 20
9.2676695021
 40
1.5
100
AcDbArc
 50
24.6437956552
 51
335.3562043448
  0
ARC
  5
221
100
AcDbEntity
  8
0
100
AcDbCircle
 62
7
  6
CONTINUOUS
 10
22.9376923427
 20
9.2676695021
 40
1.5
100
AcDbArc
 50
204.6437956552
 51
155.3562043448
  0
ARC
  5
222
100
AcDbEntity
  8
0
100
AcDbCircle
 62
9
  6
CONTINUOUS
 10
-1.0623076573
 20
9.2676695021
 40
1.375
100
AcDbArc
 50
27.0559601614
 51
332.9440398386
  0
ARC
  5
223
100
AcDbEntity
  8
0
100
AcDbCircle
 62
9
  6
CONTINUOUS
 10
22.9376923427
 20
9.2676695021
 40
1.375
100
AcDbArc
 50
207.0559601614
 51
152.9440398386
  0
ARC
  5
224
100
AcDbEntity
  8
0
100
AcDbCircle
 62
7
  6
CONTINUOUS
 10
-1.0623076573
 20
9.2676695021
 40
0.875
100
AcDbArc
 50
45.6430629575
 51
314.3569370403
  0
ARC
  5
225
100
AcDbEntity
  8
0
100
AcDbCircle
 62
7
  6
CONTINUOUS
 10
22.9376923427
 20
9.2676695021
 40
0.875
100
AcDbArc
 50
225.6430629575
 51
134.3569370403
  0
ARC
  5
226
100
AcDbEntity
  8
0
100
AcDbCircle
 62
9
  6
CONTINUOUS
 10
-1.0623076573
 20
9.2676695021
 40
0.815
100
AcDbArc
 50
50.1403811576
 51
309.8596188369
  0
ARC
  5
227
100
AcDbEntity
  8
0
100
AcDbCircle
 62
9
  6
CONTINUOUS
 10
22.9376923427
 20
9.2676695021
 40
0.815
100
AcDbArc
 50
230.1466563312
 51
129.8533436705
  0
ARC
  5
228
100
AcDbEntity
  8
0
100
AcDbCircle
 62
7
  6
CONTINUOUS
 10
22.9376923427
 20
9.2676695021
 40
0.625
100
AcDbArc
 50
270.0
 51
90.0
  0
ARC
  5
229
100
AcDbEntity
  8
0
100
AcDbCircle
 62
7
  6
CONTINUOUS
 10
-1.0623076573
 20
9.2676695021
 40
0.625
100
AcDbArc
 50
90.0
 51
270.0
  0
SPLINE
  5
22A
100
AcDbEntity
  8
0
100
AcDbSpline
 62
9
  6
CONTINUOUS
 70
0
 71
3
 72
37
 73
33
 74
0
 42
0.0000001
 43
0.0000001
 44
0.0000000001
 40
0.0
 40
0.0
 40
0.0
 40
0.0
 40
0.0165382427
 40
0.033193631
 40
0.050235742
 40
0.0678597611
 40
0.0862159136
 40
0.1054310424
 40
0.146823223
 40
0.1692113912
 40
0.1928085622
 40
0.2176556688
 40
0.2437835283
 40
0.2712140805
 40
0.2999583916
 40
0.3613562456
 40
0.3939906381
 40
0.4278793301
 40
0.4629858849
 40
0.4992669658
 40
0.5366681614
 40
0.5751304479
 40
0.6145871292
 40
0.6549641431
 40
0.6961771624
 40
0.7381392676
 40
0.7807569377
 40
0.8239288006
 40
0.8675476818
 40
0.9115081054
 40
0.9557012459
 40
1.0
 40
1.0
 40
1.0
 40
1.0
 10
-1.0623076573
 20
8.6426695021
 30
0.0
 10
-1.0662716559
 20
8.6426711976
 30
0.0
 10
-1.0742357145
 20
8.6431411266
 30
0.0
 10
-1.0861136713
 20
8.6452677236
 30
0.0
 10
-1.0979214015
 20
8.6488065333
 30
0.0
 10
-1.1096553803
 20
8.6537458807
 30
0.0
 10
-1.1212954774
 20
8.6600765477
 30
0.0
 10
-1.1370404973
 20
8.6706187947
 30
0.0
 10
-1.1520721262
 20
8.6837926838
 30
0.0
 10
-1.1663581286
 20
8.6991166734
 30
0.0
 10
-1.1771455562
 20
8.7122418762
 30
0.0
 10
-1.1876935197
 20
8.7266820465
 30
0.0
 10
-1.197976217
 20
8.7424214444
 30
0.0
 10
-1.2079749611
 20
8.7594345507
 30
0.0
 10
-1.2211909083
 20
8.78433204
 30
0.0
 10
-1.2333799982
 20
8.8111533967
 30
0.0
 10
-1.2446298565
 20
8.839679359
 30
0.0
 10
-1.2528286093
 20
8.8626222573
 30
0.0
 10
-1.2605972232
 20
8.8866336119
 30
0.0
 10
-1.2679137546
 20
8.9116649045
 30
0.0
 10
-1.274745028
 20
8.9376653155
 30
0.0
 10
-1.2810574552
 20
8.9645787275
 30
0.0
 10
-1.2868485238
 20
8.992337754
 30
0.0
 10
-1.2921108765
 20
9.0208724873
 30
0.0
 10
-1.2967957396
 20
9.0501162113
 30
0.0
 10
-1.3008678582
 20
9.079993398
 30
0.0
 10
-1.3043567701
 20
9.1104164998
 30
0.0
 10
-1.3072624574
 20
9.1412998793
 30
0.0
 10
-1.3095190535
 20
9.1725604159
 30
0.0
 10
-1.3111117999
 20
9.2041066281
 30
0.0
 10
-1.312084561
 20
9.235840714
 30
0.0
 10
-1.3123084033
 20
9.2570516742
 30
0.0
 10
-1.3123076573
 20
9.2676695021
 30
0.0
  0
SPLINE
  5
22B
100
AcDbEntity
  8
0
100
AcDbSpline
 62
9
  6
CONTINUOUS
 70
0
 71
3
 72
37
 73
33
 74
0
 42
0.0000001
 43
0.0000001
 44
0.0000000001
 40
0.0
 40
0.0
 40
0.0
 40
0.0
 40
0.0165382427
 40
0.033193631
 40
0.050235742
 40
0.0678597611
 40
0.0862159136
 40
0.1054310424
 40
0.146823223
 40
0.1692113912
 40
0.1928085622
 40
0.2176556688
 40
0.2437835283
 40
0.2712140805
 40
0.2999583916
 40
0.3613562456
 40
0.3939906381
 40
0.4278793301
 40
0.4629858849
 40
0.4992669658
 40
0.5366681614
 40
0.5751304479
 40
0.6145871292
 40
0.6549641431
 40
0.6961771624
 40
0.7381392676
 40
0.7807569377
 40
0.8239288006
 40
0.8675476818
 40
0.9115081054
 40
0.9557012459
 40
1.0
 40
1.0
 40
1.0
 40
1.0
 10
22.9376923427
 20
9.8926695021
 30
0.0
 10
22.9416563414
 20
9.8926678067
 30
0.0
 10
22.9496204
 20
9.8921978777
 30
0.0
 10
22.9614983568
 20
9.8900712807
 30
0.0
 10
22.973306087
 20
9.886532471
 30
0.0
 10
22.9850400658
 20
9.8815931236
 30
0.0
 10
22.9966801629
 20
9.8752624566
 30
0.0
 10
23.0124251828
 20
9.8647202096
 30
0.0
 10
23.0274568117
 20
9.8515463205
 30
0.0
 10
23.0417428141
 20
9.8362223308
 30
0.0
 10
23.0525302417
 20
9.8230971281
 30
0.0
 10
23.0630782052
 20
9.8086569578
 30
0.0
 10
23.0733609025
 20
9.7929175598
 30
0.0
 10
23.0833596466
 20
9.7759044536
 30
0.0
 10
23.0965755937
 20
9.7510069643
 30
0.0
 10
23.1087646836
 20
9.7241856076
 30
0.0
 10
23.120014542
 20
9.6956596453
 30
0.0
 10
23.1282132947
 20
9.6727167469
 30
0.0
 10
23.1359819087
 20
9.6487053924
 30
0.0
 10
23.1432984401
 20
9.6236740997
 30
0.0
 10
23.1501297134
 20
9.5976736888
 30
0.0
 10
23.1564421407
 20
9.5707602767
 30
0.0
 10
23.1622332093
 20
9.5430012503
 30
0.0
 10
23.167495562
 20
9.514466517
 30
0.0
 10
23.1721804251
 20
9.4852227929
 30
0.0
 10
23.1762525437
 20
9.4553456063
 30
0.0
 10
23.1797414556
 20
9.4249225045
 30
0.0
 10
23.1826471429
 20
9.394039125
 30
0.0
 10
23.184903739
 20
9.3627785884
 30
0.0
 10
23.1864964854
 20
9.3312323761
 30
0.0
 10
23.1874692464
 20
9.2994982902
 30
0.0
 10
23.1876930888
 20
9.2782873301
 30
0.0
 10
23.1876923427
 20
9.2676695021
 30
0.0
  0
SPLINE
  5
22C
100
AcDbEntity
  8
0
100
AcDbSpline
 62
9
  6
CONTINUOUS
 70
0
 71
3
 72
37
 73
33
 74
0
 42
0.0000001
 43
0.0000001
 44
0.0000000001
 40
0.0
 40
0.0
 40
0.0
 40
0.0
 40
0.044298683
 40
0.0884917075
 40
0.1324520412
 40
0.1760708515
 40
0.219242607
 40
0.2618601776
 40
0.3038221897
 40
0.3450351361
 40
0.3854121247
 40
0.4248687151
 40
0.4633308597
 40
0.5007320583
 40
0.537013161
 40
0.5721194259
 40
0.6386335447
 40
0.6699880511
 40
0.7000425383
 40
0.7287864782
 40
0.7562167613
 40
0.782344587
 40
0.807191857
 40
0.8307892357
 40
0.8531774321
 40
0.8945690421
 40
0.9137838712
 40
0.9321401782
 40
0.9497649667
 40
0.9668081546
 40
0.9834639995
 40
1.0
 40
1.0
 40
1.0
 40
1.0
 10
-1.3123076573
 20
9.2676695021
 30
0.0
 10
-1.312308184
 20
9.278287334
 30
0.0
 10
-1.3120851379
 20
9.299498289
 30
0.0
 10
-1.3111131887
 20
9.3312324117
 30
0.0
 10
-1.3095189196
 20
9.3627785493
 30
0.0
 10
-1.3072616093
 20
9.3940390202
 30
0.0
 10
-1.3043565196
 20
9.4249224442
 30
0.0
 10
-1.3008686035
 20
9.4553456476
 30
0.0
 10
-1.2967970106
 20
9.4852229118
 30
0.0
 10
-1.2921109358
 20
9.5144664654
 30
0.0
 10
-1.2868472598
 20
9.5430009573
 30
0.0
 10
-1.2810571381
 20
9.5707601503
 30
0.0
 10
-1.2747458451
 20
9.5976738738
 30
0.0
 10
-1.2679134273
 20
9.6236739123
 30
0.0
 10
-1.2605958862
 20
9.6487052852
 30
0.0
 10
-1.2504222775
 20
9.6801567021
 30
0.0
 10
-1.2392629676
 20
9.7100406329
 30
0.0
 10
-1.2270264784
 20
9.7381608785
 30
0.0
 10
-1.217667304
 20
9.7576435488
 30
0.0
 10
-1.2079748769
 20
9.7759045821
 30
0.0
 10
-1.1979767164
 20
9.7929176791
 30
0.0
 10
-1.1876939216
 20
9.8086570826
 30
0.0
 10
-1.1771456213
 20
9.8230971399
 30
0.0
 10
-1.166357836
 20
9.8362222164
 30
0.0
 10
-1.152071804
 20
9.8515461102
 30
0.0
 10
-1.1370405786
 20
9.8647201885
 30
0.0
 10
-1.1212958142
 20
9.8752625932
 30
0.0
 10
-1.109655495
 20
9.8815932431
 30
0.0
 10
-1.0979209017
 20
9.8865324431
 30
0.0
 10
-1.0861125537
 20
9.8900711674
 30
0.0
 10
-1.0742347751
 20
9.8921978487
 30
0.0
 10
-1.0662711263
 20
9.892667897
 30
0.0
 10
-1.0623076573
 20
9.8926695021
 30
0.0
  0
SPLINE
  5
22D
100
AcDbEntity
  8
0
100
AcDbSpline
 62
9
  6
CONTINUOUS
 70
0
 71
3
 72
37
 73
33
 74
0
 42
0.0000001
 43
0.0000001
 44
0.0000000001
 40
0.0
 40
0.0
 40
0.0
 40
0.0
 40
0.044298683
 40
0.0884917075
 40
0.1324520412
 40
0.1760708515
 40
0.219242607
 40
0.2618601776
 40
0.3038221897
 40
0.3450351361
 40
0.3854121247
 40
0.4248687151
 40
0.4633308597
 40
0.5007320583
 40
0.537013161
 40
0.5721194259
 40
0.6386335447
 40
0.6699880511
 40
0.7000425383
 40
0.7287864782
 40
0.7562167613
 40
0.782344587
 40
0.807191857
 40
0.8307892357
 40
0.8531774321
 40
0.8945690421
 40
0.9137838712
 40
0.9321401782
 40
0.9497649667
 40
0.9668081546
 40
0.9834639995
 40
1.0
 40
1.0
 40
1.0
 40
1.0
 10
23.1876923427
 20
9.2676695021
 30
0.0
 10
23.1876928695
 20
9.2570516703
 30
0.0
 10
23.1874698233
 20
9.2358407153
 30
0.0
 10
23.1864978741
 20
9.2041065926
 30
0.0
 10
23.1849036051
 20
9.172560455
 30
0.0
 10
23.1826462947
 20
9.1412999841
 30
0.0
 10
23.1797412051
 20
9.1104165601
 30
0.0
 10
23.176253289
 20
9.0799933567
 30
0.0
 10
23.1721816961
 20
9.0501160924
 30
0.0
 10
23.1674956213
 20
9.0208725388
 30
0.0
 10
23.1622319453
 20
8.992338047
 30
0.0
 10
23.1564418235
 20
8.964578854
 30
0.0
 10
23.1501305306
 20
8.9376651305
 30
0.0
 10
23.1432981128
 20
8.911665092
 30
0.0
 10
23.1359805717
 20
8.8866337191
 30
0.0
 10
23.1258069629
 20
8.8551823022
 30
0.0
 10
23.1146476531
 20
8.8252983714
 30
0.0
 10
23.1024111638
 20
8.7971781257
 30
0.0
 10
23.0930519895
 20
8.7776954555
 30
0.0
 10
23.0833595623
 20
8.7594344222
 30
0.0
 10
23.0733614019
 20
8.7424213252
 30
0.0
 10
23.063078607
 20
8.7266819217
 30
0.0
 10
23.0525303067
 20
8.7122418644
 30
0.0
 10
23.0417425215
 20
8.6991167879
 30
0.0
 10
23.0274564895
 20
8.6837928941
 30
0.0
 10
23.0124252641
 20
8.6706188157
 30
0.0
 10
22.9966804997
 20
8.6600764111
 30
0.0
 10
22.9850401805
 20
8.6537457612
 30
0.0
 10
22.9733055872
 20
8.6488065612
 30
0.0
 10
22.9614972392
 20
8.6452678369
 30
0.0
 10
22.9496194606
 20
8.6431411556
 30
0.0
 10
22.9416558118
 20
8.6426711073
 30
0.0
 10
22.9376923427
 20
8.6426695021
 30
0.0
  0
ENDSEC
  0
SECTION
  2
OBJECTS
  0
DICTIONARY
  5
C
100
AcDbDictionary
280
0
281
1
  3
ACAD_GROUP
350
D
  3
ACAD_MLINESTYLE
350
17
  3
ACAD_LAYOUT
350
1A
  3
ACAD_PLOTSETTINGS
350
19
  3
ACAD_PLOTSTYLENAME
350
E
  0
DICTIONARY
  5
D
102
{ACAD_REACTORS
330
C
102
}
100
AcDbDictionary
280
0
281
1
  0
ACDBDICTIONARYWDFLT
  5
E
102
{ACAD_REACTORS
330
C
102
}
100
AcDbDictionary
281
1
  3
Normal
350
F
100
AcDbDictionaryWithDefault
340
F
  0
DICTIONARY
  5
17
102
{ACAD_REACTORS
330
C
102
}
100
AcDbDictionary
280
0
281
1
  3
Standard
350
18
  0
DICTIONARY
  5
19
102
{ACAD_REACTORS
330
C
102
}
100
AcDbDictionary
281
1
  0
DICTIONARY
  5
1A
102
{ACAD_REACTORS
330
C
102
}
100
AcDbDictionary
281
1
  3
Model
350
22E
  3
Layout1
350
22F
  0
ACDBPLACEHOLDER
  5
F
102
{ACAD_REACTORS
330
E
102
}
  0
MLINESTYLE
  5
18
102
{ACAD_REACTORS
330
17
102
}
100
AcDbMlineStyle
  2
STANDARD
 70
0
  3

 62
256
 51
90.0
 52
90.0
 71
2
 49
0.5
 62
256
  6
BYLAYER
 49
-0.5
 62
256
  6
BYLAYER
  0
LAYOUT
  5
22E
102
{ACAD_REACTORS
330
1A
102
}
100
AcDbPlotSettings
  1

  2
none_device
  4
ANSI_C_(22.00_x_17.00_Inches)
  6

 40
0.0
 41
0.0
 42
0.0
 43
0.0
 44
558.8
 45
431.8
 46
0.0
 47
0.0
 48
0.0
 49
0.0
140
0.0
141
0.0
142
1.0
143
1.0
 70
1024
 72
0
 73
0
 74
0
  7

 75
0
147
1.0
148
0.0
149
0.0
100
AcDbLayout
  1
Model
 70
0
 71
0
 10
0.0
 20
0.0
 11
22.0
 21
17.0
 12
0.0
 22
0.0
 32
0.0
 14
0.0
 24
0.0
 34
0.0
 15
0.0
 25
0.0
 35
0.0
146
0.0
 13
0.0
 23
0.0
 33
0.0
 16
1.0
 26
0.0
 36
0.0
 17
0.0
 27
1.0
 37
0.0
 76
0
330
205
345
0
346
0
  0
LAYOUT
  5
22F
102
{ACAD_REACTORS
330
1A
102
}
100
AcDbPlotSettings
  1

  2
none_device
  4
ANSI_C_(22.00_x_17.00_Inches)
  6

 40
0.0
 41
0.0
 42
0.0
 43
0.0
 44
558.8
 45
431.8
 46
0.0
 47
0.0
 48
0.0
 49
0.0
140
0.0
141
0.0
142
1.0
143
1.0
 70
0
 72
0
 73
0
 74
0
  7

 75
0
147
1.0
148
0.0
149
0.0
100
AcDbLayout
  1
Layout1
 70
0
 71
1
 10
0.0
 20
0.0
 11
22.0
 21
17.0
 12
0.0
 22
0.0
 32
0.0
 14
0.0
 24
0.0
 34
0.0
 15
0.0
 25
0.0
 35
0.0
146
0.0
 13
0.0
 23
0.0
 33
0.0
 16
1.0
 26
0.0
 36
0.0
 17
0.0
 27
1.0
 37
0.0
 76
0
330
206
345
0
346
0
  0
ENDSEC
  0
EOF
