999
DXF file: E:\BT Custom\CADOUTPUT\_FRONT.dxf
999
Pro/ENGINEER 2018400 by Parametric Technology Corporation
  0
SECTION
  2
HEADER
  9
$ACADVER
  1
AC1018
  9
$DWGCODEPAGE
  3
ANSI_1252
  9
$EXTMAX
 10
22.0
 20
17.0
 30
0.0
  9
$EXTMIN
 10
0.0
 20
0.0
 30
0.0
  9
$LIMMIN
 10
0.0
 20
0.0
  9
$LIMMAX
 10
22.0
 20
17.0
  9
$VIEWCTR
 10
11.0
 20
8.5
  9
$VIEWSIZE
 40
17.0
  9
$CLAYER
  8
0
  9
$LTSCALE
 40
1.21
  9
$CELTYPE
  6
BYLAYER
  9
$DIMSCALE
 40
1.0
  9
$DIMASZ
 40
0.1
  9
$DIMEXO
 40
0.0625
  9
$DIMDLI
 40
0.836
  9
$DIMEXE
 40
0.125
  9
$DIMCEN
 40
0.198
  9
$DIMLFAC
 40
1.0
  9
$DIMBLK
  1
_FILLED
  9
$DIMALT
 70
1
  9
$DIMALTD
 70
2
  9
$DIMALTTD
 70
2
  9
$DIMALTF
 40
25.4
  9
$DIMTXT
 40
0.08
  9
$DIMTOL
 70
1
  9
$DIMLIM
 70
0
  9
$DIMTFAC
 40
1.0
  9
$DIMTP
 40
0.001
  9
$DIMTM
 40
0.001
  9
$DIMGAP
 40
0.09
  9
$DIMDSEP
 70
46
  9
$AUNITS
 70
0
  9
$PDMODE
 70
3
  9
$PDSIZE
 40
0.06
  9
$HANDSEED
  5
306
  9
$TILEMODE
 70
1
  9
$MEASUREMENT
 70
0
  9
$INSUNITS
 70
1
  0
ENDSEC
  0
SECTION
  2
CLASSES
  0
CLASS
  1
ACDBDICTIONARYWDFLT
  2
AcDbDictionaryWithDefault
  3
AutoCAD 2000
 90
0
 91
1
280
0
281
0
  0
CLASS
  1
ACDBPLACEHOLDER
  2
AcDbPlaceHolder
  3
AutoCAD 2000
 90
0
 91
1
280
0
281
0
  0
CLASS
  1
LAYOUT
  2
AcDbLayout
  3
AutoCAD 2000
 90
0
 91
0
280
0
281
0
  0
ENDSEC
  0
SECTION
  2
TABLES
  0
TABLE
  2
VPORT
  5
8
100
AcDbSymbolTable
 70
2
  0
VPORT
  5
1F4
100
AcDbSymbolTableRecord
100
AcDbViewportTableRecord
  2
*ACTIVE
 70
0
 10
0.0
 20
0.0
 11
1.0
 21
1.0
 12
11.0
 22
8.5
 13
0.0
 23
0.0
 14
1.0
 24
1.0
 15
0.0
 25
0.0
 16
0.0
 26
0.0
 36
1.0
 17
0.0
 27
0.0
 37
0.0
 40
17.0
 41
1.2941176471
 42
50.0
 43
0.0
 44
0.0
 50
0.0
 51
0.0
 71
0
 72
100
 73
1
 74
1
 75
0
 76
0
 77
0
 78
0
  0
ENDTAB
  0
TABLE
  2
LTYPE
  5
5
100
AcDbSymbolTable
 70
6
  0
LTYPE
  5
14
100
AcDbSymbolTableRecord
100
AcDbLinetypeTableRecord
  2
BYBLOCK
 70
0
  3

 72
65
 73
0
 40
0.0
  0
LTYPE
  5
15
100
AcDbSymbolTableRecord
100
AcDbLinetypeTableRecord
  2
BYLAYER
 70
0
  3

 72
65
 73
0
 40
0.0
  0
LTYPE
  5
16
100
AcDbSymbolTableRecord
100
AcDbLinetypeTableRecord
  2
CONTINUOUS
 70
64
  3
Solid line
 72
65
 73
0
 40
0.0
  0
LTYPE
  5
1F5
100
AcDbSymbolTableRecord
100
AcDbLinetypeTableRecord
  2
CENTER
 70
64
  3
____ _ ____ _ ____ _ ____ _ ____ _ ____ _ ____
 72
65
 73
4
 40
0.6
 49
0.375
 74
0
 49
-0.075
 74
0
 49
0.075
 74
0
 49
-0.075
 74
0
  0
LTYPE
  5
1F6
100
AcDbSymbolTableRecord
100
AcDbLinetypeTableRecord
  2
HIDDEN
 70
64
  3
- - - - - - - - - - - - - - - - - - - -
 72
65
 73
2
 40
0.2
 49
0.1
 74
0
 49
-0.1
 74
0
  0
LTYPE
  5
1F7
100
AcDbSymbolTableRecord
100
AcDbLinetypeTableRecord
  2
PHANTOM
 70
64
  3
_____ _ _ _____ _ _ _____ _ _ _____
 72
65
 73
6
 40
0.8
 49
0.45
 74
0
 49
-0.05
 74
0
 49
0.1
 74
0
 49
-0.05
 74
0
 49
0.1
 74
0
 49
-0.05
 74
0
  0
LTYPE
  5
1F8
100
AcDbSymbolTableRecord
100
AcDbLinetypeTableRecord
  2
DOT
 70
64
  3
. . . . . . . . . . . . . . . . . . . .
 72
65
 73
2
 40
0.2
 49
0.1
 74
0
 49
-0.1
 74
0
  0
LTYPE
  5
1F9
100
AcDbSymbolTableRecord
100
AcDbLinetypeTableRecord
  2
DASHED
 70
64
  3
- - - - - - - - - - - - - - - - - - - -
 72
65
 73
2
 40
0.2
 49
0.1
 74
0
 49
-0.1
 74
0
  0
ENDTAB
  0
TABLE
  2
LAYER
  5
2
100
AcDbSymbolTable
 70
36
  0
LAYER
  5
10
100
AcDbSymbolTableRecord
100
AcDbLayerTableRecord
  2
0
 70
0
 62
7
  6
CONTINUOUS
370
-3
390
F
  0
LAYER
  5
1FA
100
AcDbSymbolTableRecord
100
AcDbLayerTableRecord
  2
DEFAULT_1
 70
0
 62
7
  6
CENTER
370
-3
390
F
  0
LAYER
  5
1FB
100
AcDbSymbolTableRecord
100
AcDbLayerTableRecord
  2
DEFAULT_2
 70
0
 62
8
  6
HIDDEN
370
-3
390
F
  0
LAYER
  5
1FC
100
AcDbSymbolTableRecord
100
AcDbLayerTableRecord
  2
DEFAULT_3
 70
0
 62
7
  6
PHANTOM
370
-3
390
F
  0
LAYER
  5
1FD
100
AcDbSymbolTableRecord
100
AcDbLayerTableRecord
  2
ALL_FEATURES
 70
0
 62
7
  6
CONTINUOUS
370
-3
390
F
  0
LAYER
  5
1FE
100
AcDbSymbolTableRecord
100
AcDbLayerTableRecord
  2
AXES_FEATURES
 70
0
 62
7
  6
CONTINUOUS
370
-3
390
F
  0
LAYER
  5
1FF
100
AcDbSymbolTableRecord
100
AcDbLayerTableRecord
  2
DIMENSIONS
 70
0
 62
7
  6
CONTINUOUS
370
-3
390
F
  0
ENDTAB
  0
TABLE
  2
STYLE
  5
3
100
AcDbSymbolTable
 70
1
  0
STYLE
  5
11
100
AcDbSymbolTableRecord
100
AcDbTextStyleTableRecord
  2
STANDARD
 70
0
 40
0.0
 41
0.8
 50
0.0
 71
0
 42
0.2
  3
txt
  4

  0
STYLE
  5
200
100
AcDbSymbolTableRecord
100
AcDbTextStyleTableRecord
  2
TEXTSTYLE_1
 70
0
 40
0.0
 41
0.8
 50
0.0
 71
0
 42
0.2
  3
gdt
  4

  0
ENDTAB
  0
TABLE
  2
VIEW
  5
6
100
AcDbSymbolTable
 70
0
  0
ENDTAB
  0
TABLE
  2
UCS
  5
7
100
AcDbSymbolTable
 70
0
  0
ENDTAB
  0
TABLE
  2
APPID
  5
9
100
AcDbSymbolTable
 70
1
  0
APPID
  5
201
100
AcDbSymbolTableRecord
100
AcDbRegAppTableRecord
  2
ACAD
 70
0
  0
ENDTAB
  0
TABLE
  2
BLOCK_RECORD
  5
1
100
AcDbSymbolTable
 70
0
  0
BLOCK_RECORD
  5
202
100
AcDbSymbolTableRecord
100
AcDbBlockTableRecord
  2
*Model_Space
  0
BLOCK_RECORD
  5
203
100
AcDbSymbolTableRecord
100
AcDbBlockTableRecord
  2
*Paper_Space
  0
BLOCK_RECORD
  5
204
100
AcDbSymbolTableRecord
100
AcDbBlockTableRecord
  2
_FILLED
  0
ENDTAB
  0
TABLE
  2
DIMSTYLE
  5
A
100
AcDbSymbolTable
 70
1
100
AcDbDimStyleTable
 71
0
  0
DIMSTYLE
105
205
100
AcDbSymbolTableRecord
100
AcDbDimStyleTableRecord
  2
STANDARD
 70
0
  3

  4

 40
1.0
 41
0.1
 42
0.0625
 43
0.38
 44
0.125
 45
0.0
 46
0.0
 47
0.001
 48
0.001
140
0.08
141
0.09
142
0.0
143
25.4
144
1.0
145
0.0
146
1.0
147
0.09
 71
1.0
 72
0.0
 73
1
 74
1
 75
0
 76
0
 77
0
 78
4
 79
1
170
1
171
2
172
0
173
0
174
0
175
0
176
0
177
0
178
0
270
2
179
3
271
3
272
3
273
2
274
2
275
0
280
0
281
0
282
0
283
1
284
4
285
0
286
0
287
3
288
0
340
11
278
46
341
204
342
204
343
204
344
204
  0
ENDTAB
  0
ENDSEC
  0
SECTION
  2
BLOCKS
  0
BLOCK
  5
20
100
AcDbEntity
  8
0
100
AcDbBlockBegin
  2
*Model_Space
 70
0
 10
0.0
 20
0.0
 30
0.0
  3
*Model_Space
  1

  0
ENDBLK
  5
21
100
AcDbEntity
  8
0
100
AcDbBlockEnd
  0
BLOCK
  5
1C
100
AcDbEntity
  8
0
100
AcDbBlockBegin
  2
*Paper_Space
 70
0
 10
0.0
 20
0.0
 30
0.0
  3
*Paper_Space
  1

  0
ENDBLK
  5
1D
100
AcDbEntity
  8
0
100
AcDbBlockEnd
  0
BLOCK
  5
206
100
AcDbEntity
  8
0
100
AcDbBlockBegin
  2
_FILLED
 70
64
 10
0.0
 20
0.0
  3
_FILLED
  1

  0
SOLID
  5
207
100
AcDbEntity
  8
0
  6
BYBLOCK
 62
0
100
AcDbTrace
 10
0.0
 20
0.0
 11
-1.0
 21
0.2
 12
-1.0
 22
-0.2
 13
-1.0
 23
-0.2
  0
ENDBLK
  5
208
100
AcDbEntity
  8
0
  6
BYBLOCK
 62
0
100
AcDbBlockEnd
  0
ENDSEC
  0
SECTION
  2
ENTITIES
  0
LINE
  5
209
100
AcDbEntity
  8
0
100
AcDbLine
 62
7
  6
CONTINUOUS
 10
4.3776923427
 20
7.0516433053
 11
4.3776923427
 21
7.9556433053
  0
LINE
  5
20A
100
AcDbEntity
  8
0
100
AcDbLine
 62
9
  6
CONTINUOUS
 10
4.4176923427
 20
7.9956433053
 11
4.4176923427
 21
7.0116433053
  0
LINE
  5
20B
100
AcDbEntity
  8
0
100
AcDbLine
 62
7
  6
CONTINUOUS
 10
6.0126923427
 20
4.5456433053
 11
6.0126923427
 21
4.7756433053
  0
LINE
  5
20C
100
AcDbEntity
  8
0
100
AcDbLine
 62
7
  6
CONTINUOUS
 10
6.5076923427
 20
6.9716433053
 11
6.5076923427
 21
5.2216433053
  0
LINE
  5
20D
100
AcDbEntity
  8
0
100
AcDbLine
 62
7
  6
CONTINUOUS
 10
6.5076923427
 20
4.7956433053
 11
6.5076923427
 21
5.1716433053
  0
LINE
  5
20E
100
AcDbEntity
  8
0
100
AcDbLine
 62
7
  6
CONTINUOUS
 10
6.5976923427
 20
5.1716433053
 11
6.5976923427
 21
5.1776433053
  0
LINE
  5
20F
100
AcDbEntity
  8
0
100
AcDbLine
 62
7
  6
CONTINUOUS
 10
6.0126928022
 20
4.5456433053
 11
7.8626919991
 21
4.5456433053
  0
LINE
  5
210
100
AcDbEntity
  8
0
100
AcDbLine
 62
7
  6
CONTINUOUS
 10
10.0126999981
 20
4.5456433053
 11
11.8626846873
 21
4.5456433053
  0
LINE
  5
211
100
AcDbEntity
  8
0
100
AcDbLine
 62
7
  6
CONTINUOUS
 10
14.0126928022
 20
4.5456433053
 11
15.8626919991
 21
4.5456433053
  0
LINE
  5
212
100
AcDbEntity
  8
0
100
AcDbLine
 62
9
  6
CONTINUOUS
 10
15.8626919991
 20
4.7756433053
 11
14.0126923427
 21
4.7756433053
  0
LINE
  5
213
100
AcDbEntity
  8
0
100
AcDbLine
 62
9
  6
CONTINUOUS
 10
11.8626923427
 20
4.7756433053
 11
10.0126923427
 21
4.7756433053
  0
LINE
  5
214
100
AcDbEntity
  8
0
100
AcDbLine
 62
9
  6
CONTINUOUS
 10
7.8626919991
 20
4.7756433053
 11
6.0126923427
 21
4.7756433053
  0
LINE
  5
215
100
AcDbEntity
  8
0
100
AcDbLine
 62
7
  6
CONTINUOUS
 10
15.8426920065
 20
4.7956433053
 11
14.0326927452
 21
4.7956433053
  0
LINE
  5
216
100
AcDbEntity
  8
0
100
AcDbLine
 62
7
  6
CONTINUOUS
 10
11.8426847562
 20
4.7956433053
 11
10.0326999293
 21
4.7956433053
  0
LINE
  5
217
100
AcDbEntity
  8
0
100
AcDbLine
 62
7
  6
CONTINUOUS
 10
7.8426920065
 20
4.7956433053
 11
6.0326927452
 21
4.7956433053
  0
LINE
  5
218
100
AcDbEntity
  8
0
100
AcDbLine
 62
7
  6
CONTINUOUS
 10
10.5001936753
 20
4.8057347227
 11
11.3751910102
 21
4.8057347227
  0
LINE
  5
219
100
AcDbEntity
  8
0
100
AcDbLine
 62
9
  6
CONTINUOUS
 10
6.5245630219
 20
7.0780825269
 11
6.5528472931
 21
7.0497982556
  0
LINE
  5
21A
100
AcDbEntity
  8
0
100
AcDbLine
 62
7
  6
CONTINUOUS
 10
15.3676866721
 20
5.1716433053
 11
14.5076980134
 21
5.1716433053
  0
LINE
  5
21B
100
AcDbEntity
  8
0
100
AcDbLine
 62
7
  6
CONTINUOUS
 10
7.3676866721
 20
5.1716433053
 11
6.5076980134
 21
5.1716433053
  0
LINE
  5
21C
100
AcDbEntity
  8
0
100
AcDbLine
 62
7
  6
CONTINUOUS
 10
6.5076923427
 20
5.2216433053
 11
7.3676923427
 21
5.2216433053
  0
LINE
  5
21D
100
AcDbEntity
  8
0
100
AcDbLine
 62
7
  6
CONTINUOUS
 10
14.5076923427
 20
5.2216433053
 11
15.3676923427
 21
5.2216433053
  0
LINE
  5
21E
100
AcDbEntity
  8
0
100
AcDbLine
 62
9
  6
CONTINUOUS
 10
6.5051984893
 20
7.0516433003
 11
6.5402917818
 21
7.033705376
  0
LINE
  5
21F
100
AcDbEntity
  8
0
100
AcDbLine
 62
7
  6
CONTINUOUS
 10
7.2776923427
 20
5.1716433053
 11
7.2776923427
 21
5.1776433053
  0
LINE
  5
220
100
AcDbEntity
  8
0
100
AcDbLine
 62
9
  6
CONTINUOUS
 10
7.3426671998
 20
7.7453760111
 11
7.3426671998
 21
7.0516352963
  0
LINE
  5
221
100
AcDbEntity
  8
0
100
AcDbLine
 62
7
  6
CONTINUOUS
 10
7.3676923427
 20
6.9716433053
 11
7.3676923427
 21
5.2216433053
  0
LINE
  5
222
100
AcDbEntity
  8
0
100
AcDbLine
 62
7
  6
CONTINUOUS
 10
7.3676923427
 20
4.7956433053
 11
7.3676923427
 21
5.1716433053
  0
LINE
  5
223
100
AcDbEntity
  8
0
100
AcDbLine
 62
9
  6
CONTINUOUS
 10
7.3803379507
 20
7.7453876539
 11
7.3803389286
 21
7.0516433052
  0
LINE
  5
224
100
AcDbEntity
  8
0
100
AcDbLine
 62
9
  6
CONTINUOUS
 10
7.5246923427
 20
7.0116433053
 11
7.5246923427
 21
7.9956433053
  0
LINE
  5
225
100
AcDbEntity
  8
0
100
AcDbLine
 62
7
  6
CONTINUOUS
 10
7.5646923427
 20
7.9556433053
 11
7.5646923427
 21
7.0516433053
  0
LINE
  5
226
100
AcDbEntity
  8
0
100
AcDbLine
 62
9
  6
CONTINUOUS
 10
7.2659690484
 20
7.7629200109
 11
7.2376847772
 21
7.7912042822
  0
LINE
  5
227
100
AcDbEntity
  8
0
100
AcDbLine
 62
7
  6
CONTINUOUS
 10
7.8626923427
 20
4.5456433053
 11
7.8626923427
 21
4.7756433053
  0
LINE
  5
228
100
AcDbEntity
  8
0
100
AcDbLine
 62
9
  6
CONTINUOUS
 10
15.3676923427
 20
6.9716433053
 11
15.3617294961
 21
6.9716433053
  0
LINE
  5
229
100
AcDbEntity
  8
0
100
AcDbLine
 62
9
  6
CONTINUOUS
 10
14.5136551893
 20
6.9716433053
 11
14.5076923427
 21
6.9716433053
  0
LINE
  5
22A
100
AcDbEntity
  8
0
100
AcDbLine
 62
9
  6
CONTINUOUS
 10
7.3676923427
 20
6.9716433053
 11
7.3617294961
 21
6.9716433053
  0
LINE
  5
22B
100
AcDbEntity
  8
0
100
AcDbLine
 62
9
  6
CONTINUOUS
 10
6.5136551893
 20
6.9716433053
 11
6.5076923427
 21
6.9716433053
  0
LINE
  5
22C
100
AcDbEntity
  8
0
100
AcDbLine
 62
7
  6
CONTINUOUS
 10
17.4576923427
 20
7.0116433053
 11
15.4011748127
 21
7.0116433053
  0
LINE
  5
22D
100
AcDbEntity
  8
0
100
AcDbLine
 62
7
  6
CONTINUOUS
 10
14.4742098727
 20
7.0116433053
 11
14.3506923427
 21
7.0116433053
  0
LINE
  5
22E
100
AcDbEntity
  8
0
100
AcDbLine
 62
7
  6
CONTINUOUS
 10
7.5246923427
 20
7.0116433053
 11
7.4011748127
 21
7.0116433053
  0
LINE
  5
22F
100
AcDbEntity
  8
0
100
AcDbLine
 62
7
  6
CONTINUOUS
 10
6.4742098727
 20
7.0116433053
 11
4.4176923427
 21
7.0116433053
  0
LINE
  5
230
100
AcDbEntity
  8
0
100
AcDbLine
 62
9
  6
CONTINUOUS
 10
4.3776923427
 20
7.0516433053
 11
6.5051984944
 21
7.0516433053
  0
LINE
  5
231
100
AcDbEntity
  8
0
100
AcDbLine
 62
9
  6
CONTINUOUS
 10
7.3426671998
 20
7.051643305
 11
7.5646923427
 21
7.0516433053
  0
LINE
  5
232
100
AcDbEntity
  8
0
100
AcDbLine
 62
9
  6
CONTINUOUS
 10
15.3701862348
 20
7.0516433053
 11
17.4976923427
 21
7.0516433053
  0
LINE
  5
233
100
AcDbEntity
  8
0
100
AcDbLine
 62
9
  6
CONTINUOUS
 10
14.5327174803
 20
7.0516435762
 11
14.3106923427
 21
7.0516433053
  0
LINE
  5
234
100
AcDbEntity
  8
0
100
AcDbLine
 62
9
  6
CONTINUOUS
 10
7.2376848402
 20
7.7912043453
 11
6.5245630219
 21
7.0780825269
  0
LINE
  5
235
100
AcDbEntity
  8
0
100
AcDbLine
 62
7
  6
CONTINUOUS
 10
10.5134788425
 20
10.6981682812
 11
10.5091923427
 21
10.6897876923
  0
LINE
  5
236
100
AcDbEntity
  8
0
100
AcDbLine
 62
7
  6
CONTINUOUS
 10
7.265969114
 20
7.7629200765
 11
6.5528472959
 21
7.0497982585
  0
LINE
  5
237
100
AcDbEntity
  8
0
100
AcDbLine
 62
7
  6
CONTINUOUS
 10
10.5461177265
 20
10.7103969609
 11
10.5332467531
 21
10.6977777496
  0
LINE
  5
238
100
AcDbEntity
  8
0
100
AcDbLine
 62
7
  6
CONTINUOUS
 10
11.0126923427
 20
10.7273321997
 11
11.0292465626
 21
10.7403982779
  0
LINE
  5
239
100
AcDbEntity
  8
0
100
AcDbLine
 62
9
  6
CONTINUOUS
 10
7.3803389286
 20
7.7453757256
 11
7.3426671998
 21
7.7453757256
  0
LINE
  5
23A
100
AcDbEntity
  8
0
100
AcDbLine
 62
9
  6
CONTINUOUS
 10
17.4976923427
 20
7.9556433053
 11
14.3106923427
 21
7.9556433053
  0
LINE
  5
23B
100
AcDbEntity
  8
0
100
AcDbLine
 62
9
  6
CONTINUOUS
 10
7.5646923427
 20
7.9556433053
 11
4.3776923427
 21
7.9556433053
  0
LINE
  5
23C
100
AcDbEntity
  8
0
100
AcDbLine
 62
7
  6
CONTINUOUS
 10
4.4176923427
 20
7.9956433053
 11
7.5246923427
 21
7.9956433053
  0
LINE
  5
23D
100
AcDbEntity
  8
0
100
AcDbLine
 62
7
  6
CONTINUOUS
 10
14.3506923427
 20
7.9956433053
 11
17.4576923427
 21
7.9956433053
  0
LINE
  5
23E
100
AcDbEntity
  8
0
100
AcDbLine
 62
7
  6
CONTINUOUS
 10
10.0126923427
 20
4.5456433053
 11
10.0126923427
 21
4.7756433053
  0
LINE
  5
23F
100
AcDbEntity
  8
0
100
AcDbLine
 62
7
  6
CONTINUOUS
 10
10.5001923427
 20
4.8057347227
 11
10.5001923427
 21
13.552195699
  0
LINE
  5
240
100
AcDbEntity
  8
0
100
AcDbLine
 62
7
  6
CONTINUOUS
 10
10.5421923427
 20
10.7119008982
 11
10.5421923427
 21
10.7065483594
  0
LINE
  5
241
100
AcDbEntity
  8
0
100
AcDbLine
 62
7
  6
CONTINUOUS
 10
10.6939042556
 20
10.6854745058
 11
10.6939042556
 21
10.6706204847
  0
LINE
  5
242
100
AcDbEntity
  8
0
100
AcDbLine
 62
7
  6
CONTINUOUS
 10
10.6939042556
 20
10.7089548998
 11
10.6939042556
 21
10.7282966147
  0
LINE
  5
243
100
AcDbEntity
  8
0
100
AcDbLine
 62
7
  6
CONTINUOUS
 10
10.8126923427
 20
4.7956433053
 11
10.8126923427
 21
4.8057347227
  0
LINE
  5
244
100
AcDbEntity
  8
0
100
AcDbLine
 62
9
  6
CONTINUOUS
 10
10.836978057
 20
4.7956433053
 11
10.836978057
 21
4.8057347227
  0
LINE
  5
245
100
AcDbEntity
  8
0
100
AcDbLine
 62
7
  6
CONTINUOUS
 10
10.8626923427
 20
10.7273321997
 11
10.8626923427
 21
10.7399391976
  0
LINE
  5
246
100
AcDbEntity
  8
0
100
AcDbLine
 62
7
  6
CONTINUOUS
 10
11.0126923427
 20
10.7399389868
 11
11.0126923427
 21
10.7273321997
  0
LINE
  5
247
100
AcDbEntity
  8
0
100
AcDbLine
 62
9
  6
CONTINUOUS
 10
11.0384066284
 20
4.7956433053
 11
11.0384066284
 21
4.8057347227
  0
LINE
  5
248
100
AcDbEntity
  8
0
100
AcDbLine
 62
7
  6
CONTINUOUS
 10
11.0626923427
 20
4.8057347227
 11
11.0626923427
 21
4.7956433053
  0
LINE
  5
249
100
AcDbEntity
  8
0
100
AcDbLine
 62
7
  6
CONTINUOUS
 10
11.1814804299
 20
10.728299882
 11
11.1814804299
 21
10.7089548998
  0
LINE
  5
24A
100
AcDbEntity
  8
0
100
AcDbLine
 62
7
  6
CONTINUOUS
 10
11.1814804299
 20
10.6706204847
 11
11.1814804299
 21
10.6854745058
  0
LINE
  5
24B
100
AcDbEntity
  8
0
100
AcDbLine
 62
7
  6
CONTINUOUS
 10
11.3331923427
 20
10.7119008982
 11
11.3331923427
 21
10.7065483594
  0
LINE
  5
24C
100
AcDbEntity
  8
0
100
AcDbLine
 62
7
  6
CONTINUOUS
 10
11.3751923427
 20
4.8057347227
 11
11.3751923427
 21
13.552195699
  0
LINE
  5
24D
100
AcDbEntity
  8
0
100
AcDbLine
 62
7
  6
CONTINUOUS
 10
11.8626923427
 20
4.5456433053
 11
11.8626923427
 21
4.7756433053
  0
LINE
  5
24E
100
AcDbEntity
  8
0
100
AcDbLine
 62
7
  6
CONTINUOUS
 10
10.8461381228
 20
10.7403982779
 11
10.8626923427
 21
10.7273321997
  0
LINE
  5
24F
100
AcDbEntity
  8
0
100
AcDbLine
 62
7
  6
CONTINUOUS
 10
11.3661923427
 20
10.6897876923
 11
11.361905843
 21
10.6981682812
  0
LINE
  5
250
100
AcDbEntity
  8
0
100
AcDbLine
 62
7
  6
CONTINUOUS
 10
11.1300945746
 20
10.7345846537
 11
11.0754144127
 21
10.7237164363
  0
LINE
  5
251
100
AcDbEntity
  8
0
100
AcDbLine
 62
7
  6
CONTINUOUS
 10
11.1814804299
 20
10.7089548998
 11
11.2595717941
 21
10.7165649075
  0
LINE
  5
252
100
AcDbEntity
  8
0
100
AcDbLine
 62
7
  6
CONTINUOUS
 10
11.3013444083
 20
10.702529577
 11
11.2074607619
 21
10.7002256749
  0
LINE
  5
253
100
AcDbEntity
  8
0
100
AcDbLine
 62
7
  6
CONTINUOUS
 10
10.6608444241
 20
10.6989813404
 11
10.5740402771
 21
10.696851169
  0
LINE
  5
254
100
AcDbEntity
  8
0
100
AcDbLine
 62
7
  6
CONTINUOUS
 10
10.6679239235
 20
10.7002256749
 11
10.5740402771
 21
10.702529577
  0
LINE
  5
255
100
AcDbEntity
  8
0
100
AcDbLine
 62
7
  6
CONTINUOUS
 10
11.3013444083
 20
10.696851169
 11
11.2145402614
 21
10.6989813404
  0
LINE
  5
256
100
AcDbEntity
  8
0
100
AcDbLine
 62
7
  6
CONTINUOUS
 10
10.6158128914
 20
10.7165649075
 11
10.6939042556
 21
10.7089548998
  0
LINE
  5
257
100
AcDbEntity
  8
0
100
AcDbLine
 62
7
  6
CONTINUOUS
 10
10.7999702728
 20
10.7237164363
 11
10.7452901109
 21
10.7345846537
  0
LINE
  5
258
100
AcDbEntity
  8
0
100
AcDbLine
 62
7
  6
CONTINUOUS
 10
11.3292669589
 20
10.7103969609
 11
11.3421379324
 21
10.6977777496
  0
LINE
  5
259
100
AcDbEntity
  8
0
100
AcDbLine
 62
7
  6
CONTINUOUS
 10
15.3225376512
 20
7.0497979968
 11
14.6094158395
 21
7.7629198085
  0
LINE
  5
25A
100
AcDbEntity
  8
0
100
AcDbLine
 62
9
  6
CONTINUOUS
 10
15.3508219252
 20
7.0780822653
 11
14.6377001069
 21
7.7912040836
  0
LINE
  5
25B
100
AcDbEntity
  8
0
100
AcDbLine
 62
7
  6
CONTINUOUS
 10
14.0126923427
 20
4.5456433053
 11
14.0126923427
 21
4.7756433053
  0
LINE
  5
25C
100
AcDbEntity
  8
0
100
AcDbLine
 62
7
  6
CONTINUOUS
 10
14.3106923427
 20
7.0516433053
 11
14.3106923427
 21
7.9556433053
  0
LINE
  5
25D
100
AcDbEntity
  8
0
100
AcDbLine
 62
9
  6
CONTINUOUS
 10
14.3506923427
 20
7.9956433053
 11
14.3506923427
 21
7.0116433053
  0
LINE
  5
25E
100
AcDbEntity
  8
0
100
AcDbLine
 62
9
  6
CONTINUOUS
 10
14.4950457569
 20
7.0516433052
 11
14.4950466738
 21
7.7453379129
  0
LINE
  5
25F
100
AcDbEntity
  8
0
100
AcDbLine
 62
7
  6
CONTINUOUS
 10
14.5076923427
 20
6.9716433053
 11
14.5076923427
 21
5.2216433053
  0
LINE
  5
260
100
AcDbEntity
  8
0
100
AcDbLine
 62
7
  6
CONTINUOUS
 10
14.5076923427
 20
4.7956433053
 11
14.5076923427
 21
5.1716433053
  0
LINE
  5
261
100
AcDbEntity
  8
0
100
AcDbLine
 62
9
  6
CONTINUOUS
 10
14.5327174803
 20
7.0516360483
 11
14.5327174803
 21
7.7453762936
  0
LINE
  5
262
100
AcDbEntity
  8
0
100
AcDbLine
 62
7
  6
CONTINUOUS
 10
14.5976923427
 20
5.1716433053
 11
14.5976923427
 21
5.1776433053
  0
LINE
  5
263
100
AcDbEntity
  8
0
100
AcDbLine
 62
9
  6
CONTINUOUS
 10
14.6377001069
 20
7.7912040837
 11
14.6094158356
 21
7.7629198124
  0
LINE
  5
264
100
AcDbEntity
  8
0
100
AcDbLine
 62
7
  6
CONTINUOUS
 10
15.2776923427
 20
5.1716433053
 11
15.2776923427
 21
5.1776433053
  0
LINE
  5
265
100
AcDbEntity
  8
0
100
AcDbLine
 62
9
  6
CONTINUOUS
 10
15.3701862164
 20
7.0516433419
 11
15.3350928727
 21
7.0337053038
  0
LINE
  5
266
100
AcDbEntity
  8
0
100
AcDbLine
 62
7
  6
CONTINUOUS
 10
15.3676923427
 20
6.9716433053
 11
15.3676923427
 21
5.2216433053
  0
LINE
  5
267
100
AcDbEntity
  8
0
100
AcDbLine
 62
7
  6
CONTINUOUS
 10
15.3676923427
 20
4.7956433053
 11
15.3676923427
 21
5.1716433053
  0
LINE
  5
268
100
AcDbEntity
  8
0
100
AcDbLine
 62
9
  6
CONTINUOUS
 10
15.3225376336
 20
7.0497980144
 11
15.3508219048
 21
7.0780822857
  0
LINE
  5
269
100
AcDbEntity
  8
0
100
AcDbLine
 62
7
  6
CONTINUOUS
 10
15.8626923427
 20
4.5456433053
 11
15.8626923427
 21
4.7756433053
  0
LINE
  5
26A
100
AcDbEntity
  8
0
100
AcDbLine
 62
9
  6
CONTINUOUS
 10
17.4576923427
 20
7.0116433053
 11
17.4576923427
 21
7.9956433053
  0
LINE
  5
26B
100
AcDbEntity
  8
0
100
AcDbLine
 62
7
  6
CONTINUOUS
 10
17.4976923427
 20
7.9556433053
 11
17.4976923427
 21
7.0516433053
  0
ARC
  5
26C
100
AcDbEntity
  8
0
100
AcDbCircle
 62
7
  6
CONTINUOUS
 10
10.8879385568
 20
9.0560575065
 40
1.6836054528
100
AcDbArc
 50
94.7410918416
 51
94.8662116749
  0
ARC
  5
26D
100
AcDbEntity
  8
0
100
AcDbCircle
 62
7
  6
CONTINUOUS
 10
10.9226908753
 20
9.1407244854
 40
1.5877417495
100
AcDbArc
 50
92.1656427268
 51
94.4329580313
  0
ARC
  5
26E
100
AcDbEntity
  8
0
100
AcDbCircle
 62
7
  6
CONTINUOUS
 10
7.6224912377
 20
5.2029686904
 40
0.34572792
100
AcDbArc
 50
183.5363956204
 51
183.9971212373
  0
ARC
  5
26F
100
AcDbEntity
  8
0
100
AcDbCircle
 62
7
  6
CONTINUOUS
 10
6.2532803889
 20
5.2029467798
 40
0.3453402013
100
AcDbArc
 50
356.0135828458
 51
356.5000828903
  0
ARC
  5
270
100
AcDbEntity
  8
0
100
AcDbCircle
 62
7
  6
CONTINUOUS
 10
6.258556855
 20
5.202642873
 40
0.3400553561
100
AcDbArc
 50
356.5894271452
 51
3.2285424285
  0
ARC
  5
271
100
AcDbEntity
  8
0
100
AcDbCircle
 62
7
  6
CONTINUOUS
 10
7.6164953529
 20
5.202641845
 40
0.3397232647
100
AcDbArc
 50
176.7611996098
 51
183.4973272023
  0
ARC
  5
272
100
AcDbEntity
  8
0
100
AcDbCircle
 62
7
  6
CONTINUOUS
 10
7.4076923427
 20
6.9716433053
 40
0.04
100
AcDbArc
 50
99.2587646005
 51
180.0
  0
ARC
  5
273
100
AcDbEntity
  8
0
100
AcDbCircle
 62
7
  6
CONTINUOUS
 10
6.4676923427
 20
6.9716433053
 40
0.04
100
AcDbArc
 50
0.0
 51
80.7412353995
  0
ARC
  5
274
100
AcDbEntity
  8
0
100
AcDbCircle
 62
7
  6
CONTINUOUS
 10
7.5246923427
 20
7.9556433053
 40
0.04
100
AcDbArc
 50
0.0
 51
90.0
  0
ARC
  5
275
100
AcDbEntity
  8
0
100
AcDbCircle
 62
7
  6
CONTINUOUS
 10
4.4176923427
 20
7.9556433053
 40
0.04
100
AcDbArc
 50
90.0
 51
180.0
  0
ARC
  5
276
100
AcDbEntity
  8
0
100
AcDbCircle
 62
7
  6
CONTINUOUS
 10
4.4176923427
 20
7.0516433053
 40
0.04
100
AcDbArc
 50
180.0
 51
270.0
  0
ARC
  5
277
100
AcDbEntity
  8
0
100
AcDbCircle
 62
7
  6
CONTINUOUS
 10
7.5246923427
 20
7.0516433053
 40
0.04
100
AcDbArc
 50
270.0
 51
360.0
  0
ARC
  5
278
100
AcDbEntity
  8
0
100
AcDbCircle
 62
7
  6
CONTINUOUS
 10
6.9376923427
 20
5.2026433053
 40
0.025
100
AcDbArc
 50
129.9995758519
 51
50.1408227931
  0
ARC
  5
279
100
AcDbEntity
  8
0
100
AcDbCircle
 62
7
  6
CONTINUOUS
 10
6.0326923427
 20
4.7756433053
 40
0.02
100
AcDbArc
 50
90.0
 51
180.0
  0
ARC
  5
27A
100
AcDbEntity
  8
0
100
AcDbCircle
 62
7
  6
CONTINUOUS
 10
7.8426923427
 20
4.7756433053
 40
0.02
100
AcDbArc
 50
0.0
 51
90.0
  0
ARC
  5
27B
100
AcDbEntity
  8
0
100
AcDbCircle
 62
7
  6
CONTINUOUS
 10
10.0326923427
 20
4.7756433053
 40
0.02
100
AcDbArc
 50
90.0
 51
180.0
  0
ARC
  5
27C
100
AcDbEntity
  8
0
100
AcDbCircle
 62
7
  6
CONTINUOUS
 10
10.9226908753
 20
12.2537049202
 40
1.5877417495
100
AcDbArc
 50
265.5670419687
 51
267.8343572732
  0
ARC
  5
27D
100
AcDbEntity
  8
0
100
AcDbCircle
 62
7
  6
CONTINUOUS
 10
10.8513869402
 20
9.9268386693
 40
0.8130661803
100
AcDbArc
 50
97.1475537593
 51
97.503653969
  0
ARC
  5
27E
100
AcDbEntity
  8
0
100
AcDbCircle
 62
7
  6
CONTINUOUS
 10
10.70160938
 20
11.0102831018
 40
0.3560963964
100
AcDbArc
 50
256.0016251911
 51
256.8695822869
  0
ARC
  5
27F
100
AcDbEntity
  8
0
100
AcDbCircle
 62
7
  6
CONTINUOUS
 10
10.6244230419
 20
10.4362655722
 40
0.2913966804
100
AcDbArc
 50
105.8021213912
 51
106.2272105495
  0
ARC
  5
280
100
AcDbEntity
  8
0
100
AcDbCircle
 62
7
  6
CONTINUOUS
 10
10.6186067175
 20
10.4561671047
 40
0.2706626493
100
AcDbArc
 50
106.2223032004
 51
106.8159852965
  0
ARC
  5
281
100
AcDbEntity
  8
0
100
AcDbCircle
 62
7
  6
CONTINUOUS
 10
10.6220739284
 20
10.4715808895
 40
0.2540444
100
AcDbArc
 50
106.0507514151
 51
108.0378555672
  0
ARC
  5
282
100
AcDbEntity
  8
0
100
AcDbCircle
 62
7
  6
CONTINUOUS
 10
10.6102778009
 20
10.4835180312
 40
0.242071742
100
AcDbArc
 50
106.8017436847
 51
107.7980984737
  0
ARC
  5
283
100
AcDbEntity
  8
0
100
AcDbCircle
 62
7
  6
CONTINUOUS
 10
10.9376923391
 20
8.1171265206
 40
2.6240168473
100
AcDbArc
 50
88.3595134256
 51
91.6404815272
  0
ARC
  5
284
100
AcDbEntity
  8
0
100
AcDbCircle
 62
7
  6
CONTINUOUS
 10
10.987937047
 20
9.0618988137
 40
1.6777435563
100
AcDbArc
 50
85.1333897105
 51
85.2591468354
  0
ARC
  5
285
100
AcDbEntity
  8
0
100
AcDbCircle
 62
7
  6
CONTINUOUS
 10
10.9526938101
 20
9.1407244854
 40
1.5877417495
100
AcDbArc
 50
85.5670419687
 51
87.8343572732
  0
ARC
  5
286
100
AcDbEntity
  8
0
100
AcDbCircle
 62
7
  6
CONTINUOUS
 10
15.6224912374
 20
5.2029686904
 40
0.3457279197
100
AcDbArc
 50
183.5363956202
 51
183.9971212375
  0
ARC
  5
287
100
AcDbEntity
  8
0
100
AcDbCircle
 62
7
  6
CONTINUOUS
 10
14.2532803892
 20
5.2029467798
 40
0.345340201
100
AcDbArc
 50
356.0135828455
 51
356.5000828904
  0
ARC
  5
288
100
AcDbEntity
  8
0
100
AcDbCircle
 62
7
  6
CONTINUOUS
 10
14.258556855
 20
5.202642873
 40
0.3400553561
100
AcDbArc
 50
356.5894271452
 51
3.2285424285
  0
ARC
  5
289
100
AcDbEntity
  8
0
100
AcDbCircle
 62
7
  6
CONTINUOUS
 10
15.6164953529
 20
5.202641845
 40
0.3397232647
100
AcDbArc
 50
176.7611996098
 51
183.4973272022
  0
ARC
  5
28A
100
AcDbEntity
  8
0
100
AcDbCircle
 62
7
  6
CONTINUOUS
 10
17.4576923427
 20
7.0516433053
 40
0.04
100
AcDbArc
 50
270.0
 51
360.0
  0
ARC
  5
28B
100
AcDbEntity
  8
0
100
AcDbCircle
 62
7
  6
CONTINUOUS
 10
17.4576923427
 20
7.9556433053
 40
0.04
100
AcDbArc
 50
0.0
 51
90.0
  0
ARC
  5
28C
100
AcDbEntity
  8
0
100
AcDbCircle
 62
7
  6
CONTINUOUS
 10
14.3506923427
 20
7.9556433053
 40
0.04
100
AcDbArc
 50
90.0
 51
180.0
  0
ARC
  5
28D
100
AcDbEntity
  8
0
100
AcDbCircle
 62
7
  6
CONTINUOUS
 10
14.3506923427
 20
7.0516433053
 40
0.04
100
AcDbArc
 50
180.0
 51
270.0
  0
ARC
  5
28E
100
AcDbEntity
  8
0
100
AcDbCircle
 62
7
  6
CONTINUOUS
 10
14.4676923427
 20
6.9716433053
 40
0.04
100
AcDbArc
 50
0.0
 51
80.7412353995
  0
ARC
  5
28F
100
AcDbEntity
  8
0
100
AcDbCircle
 62
7
  6
CONTINUOUS
 10
15.4076923427
 20
6.9716433053
 40
0.04
100
AcDbArc
 50
99.2587646005
 51
180.0
  0
ARC
  5
290
100
AcDbEntity
  8
0
100
AcDbCircle
 62
7
  6
CONTINUOUS
 10
14.9376923427
 20
5.2026433053
 40
0.025
100
AcDbArc
 50
129.9995758519
 51
50.1408227931
  0
ARC
  5
291
100
AcDbEntity
  8
0
100
AcDbCircle
 62
7
  6
CONTINUOUS
 10
15.8426923427
 20
4.7756433053
 40
0.02
100
AcDbArc
 50
0.0
 51
90.0
  0
ARC
  5
292
100
AcDbEntity
  8
0
100
AcDbCircle
 62
7
  6
CONTINUOUS
 10
14.0326923427
 20
4.7756433053
 40
0.02
100
AcDbArc
 50
90.0
 51
180.0
  0
ARC
  5
293
100
AcDbEntity
  8
0
100
AcDbCircle
 62
7
  6
CONTINUOUS
 10
11.8426923427
 20
4.7756433053
 40
0.02
100
AcDbArc
 50
0.0
 51
90.0
  0
ARC
  5
294
100
AcDbEntity
  8
0
100
AcDbCircle
 62
7
  6
CONTINUOUS
 10
10.9376923506
 20
13.2499890585
 40
2.6115580106
100
AcDbArc
 50
268.0127406295
 51
271.9872515037
  0
ARC
  5
295
100
AcDbEntity
  8
0
100
AcDbCircle
 62
7
  6
CONTINUOUS
 10
10.9376923427
 20
12.6415245319
 40
1.9758532323
100
AcDbArc
 50
267.8246257163
 51
272.1753742837
  0
ARC
  5
296
100
AcDbEntity
  8
0
100
AcDbCircle
 62
7
  6
CONTINUOUS
 10
10.9526938101
 20
12.2537049202
 40
1.5877417495
100
AcDbArc
 50
272.1656427268
 51
274.4329580313
  0
ARC
  5
297
100
AcDbEntity
  8
0
100
AcDbCircle
 62
7
  6
CONTINUOUS
 10
11.022859093
 20
9.9179815033
 40
0.8219961946
100
AcDbArc
 50
82.4982803406
 51
82.8505119313
  0
ARC
  5
298
100
AcDbEntity
  8
0
100
AcDbCircle
 62
7
  6
CONTINUOUS
 10
10.9376923427
 20
13.552195699
 40
0.4375
100
AcDbArc
 50
0.0
 51
180.0
  0
ARC
  5
299
100
AcDbEntity
  8
0
100
AcDbCircle
 62
7
  6
CONTINUOUS
 10
11.1718577676
 20
11.0182308619
 40
0.3642719706
100
AcDbArc
 50
283.1402501868
 51
283.9894476619
  0
ARC
  5
29A
100
AcDbEntity
  8
0
100
AcDbCircle
 62
7
  6
CONTINUOUS
 10
11.2490505802
 20
10.429587228
 40
0.2983431255
100
AcDbArc
 50
74.001170278
 51
74.2262417634
  0
ARC
  5
29B
100
AcDbEntity
  8
0
100
AcDbCircle
 62
7
  6
CONTINUOUS
 10
11.2544309582
 20
10.4482854741
 40
0.2788861856
100
AcDbArc
 50
73.1333462005
 51
74.0049532555
  0
ARC
  5
29C
100
AcDbEntity
  8
0
100
AcDbCircle
 62
7
  6
CONTINUOUS
 10
11.2639205634
 20
10.4797142314
 40
0.24605605
100
AcDbArc
 50
72.1872558904
 51
73.1246098019
  0
ARC
  5
29D
100
AcDbEntity
  8
0
100
AcDbCircle
 62
7
  6
CONTINUOUS
 10
11.2566977732
 20
10.4826287593
 40
0.2424908185
100
AcDbArc
 50
71.9148011175
 51
73.9965918993
  0
SPLINE
  5
29E
100
AcDbEntity
  8
0
100
AcDbSpline
 62
7
  6
CONTINUOUS
 70
0
 71
3
 72
45
 73
41
 74
0
 42
0.0000001
 43
0.0000001
 44
0.0000000001
 40
0.0
 40
0.0
 40
0.0
 40
0.0
 40
0.1016639385
 40
0.2022063801
 40
0.3004665613
 40
0.3953687031
 40
0.4412250233
 40
0.4858480317
 40
0.5291134772
 40
0.5709033254
 40
0.6111027522
 40
0.6496014103
 40
0.6862974658
 40
0.7210917743
 40
0.7538946866
 40
0.7846233262
 40
0.8132009646
 40
0.8395642129
 40
0.8636563633
 40
0.8854359591
 40
0.8954510124
 40
0.9048798038
 40
0.9137221105
 40
0.9219806176
 40
0.9296602207
 40
0.9367683407
 40
0.9433157992
 40
0.9493183198
 40
0.9547991897
 40
0.9597905188
 40
0.9643358838
 40
0.9684940966
 40
0.9723431434
 40
0.975982545
 40
0.9795299123
 40
0.9831119274
 40
0.9868517524
 40
0.9908579568
 40
0.9952183436
 40
1.0
 40
1.0
 40
1.0
 40
1.0
 10
10.9376923427
 20
10.6329354805
 30
0.0
 10
10.9231526013
 20
10.6329354805
 30
0.0
 10
10.8942330482
 20
10.633149916
 30
0.0
 10
10.8512701901
 20
10.634112031
 30
0.0
 10
10.809293659
 20
10.6357036821
 30
0.0
 10
10.7751582656
 20
10.6375583524
 30
0.0
 10
10.7487060553
 20
10.6393549785
 30
0.0
 10
10.7296348779
 20
10.6408305459
 30
0.0
 10
10.7111587221
 20
10.6424456718
 30
0.0
 10
10.6933303763
 20
10.6441954091
 30
0.0
 10
10.6762008382
 20
10.6460746471
 30
0.0
 10
10.6598190488
 20
10.6480782809
 30
0.0
 10
10.6442318677
 20
10.6501998984
 30
0.0
 10
10.6294836817
 20
10.6524337897
 30
0.0
 10
10.6156165457
 20
10.6547731652
 30
0.0
 10
10.6026698925
 20
10.6572108722
 30
0.0
 10
10.5906804432
 20
10.6597402855
 30
0.0
 10
10.5796819302
 20
10.6623529959
 30
0.0
 10
10.5697053211
 20
10.6650417899
 30
0.0
 10
10.5620657423
 20
10.6674000928
 30
0.0
 10
10.5564954314
 20
10.6693331939
 30
0.0
 10
10.5527081525
 20
10.6707565626
 30
0.0
 10
10.5491958737
 20
10.6721933548
 30
0.0
 10
10.5459608466
 20
10.6736424787
 30
0.0
 10
10.5430050211
 20
10.6751028822
 30
0.0
 10
10.54033025
 20
10.6765735993
 30
0.0
 10
10.5379382618
 20
10.6780537538
 30
0.0
 10
10.5358305828
 20
10.6795428048
 30
0.0
 10
10.5340081577
 20
10.6810401294
 30
0.0
 10
10.5324717142
 20
10.6825455767
 30
0.0
 10
10.5312222992
 20
10.68405959
 30
0.0
 10
10.5302618071
 20
10.6855831285
 30
0.0
 10
10.5295939294
 20
10.6871171495
 30
0.0
 10
10.5292233275
 20
10.6886605125
 30
0.0
 10
10.5291542442
 20
10.6902088103
 30
0.0
 10
10.5293877146
 20
10.6917551754
 30
0.0
 10
10.5299205652
 20
10.6932937791
 30
0.0
 10
10.5307481546
 20
10.6948220772
 30
0.0
 10
10.5318659873
 20
10.6963401839
 30
0.0
 10
10.5327589937
 20
10.6972989692
 30
0.0
 10
10.5332473032
 20
10.6977777387
 30
0.0
  0
SPLINE
  5
29F
100
AcDbEntity
  8
0
100
AcDbSpline
 62
7
  6
CONTINUOUS
 70
0
 71
3
 72
15
 73
11
 74
0
 42
0.0000001
 43
0.0000001
 44
0.0000000001
 40
0.0
 40
0.0
 40
0.0
 40
0.0
 40
0.1006123163
 40
0.2040410506
 40
0.312826743
 40
0.4291471021
 40
0.554777304
 40
0.6911190448
 40
0.8392563886
 40
1.0
 40
1.0
 40
1.0
 40
1.0
 10
11.3066923427
 20
10.6897876923
 30
0.0
 10
11.3066923427
 20
10.6901924708
 30
0.0
 10
11.306621529
 20
10.6910149641
 30
0.0
 10
11.3063058222
 20
10.6922385654
 30
0.0
 10
11.3057826369
 20
10.6934574217
 30
0.0
 10
11.3050543965
 20
10.6946703443
 30
0.0
 10
11.3041227853
 20
10.695877518
 30
0.0
 10
11.3029887395
 20
10.6970790945
 30
0.0
 10
11.3016529092
 20
10.6982749698
 30
0.0
 10
11.3006696125
 20
10.6990365063
 30
0.0
 10
11.3001470357
 20
10.6994174641
 30
0.0
  0
LINE
  5
2A0
100
AcDbEntity
  8
0
100
AcDbLine
 62
7
  6
CONTINUOUS
 10
11.3001470357
 20
10.6994174641
 11
11.2954066534
 21
10.7023914848
  0
SPLINE
  5
2A1
100
AcDbEntity
  8
0
100
AcDbSpline
 62
7
  6
CONTINUOUS
 70
0
 71
3
 72
23
 73
19
 74
0
 42
0.0000001
 43
0.0000001
 44
0.0000000001
 40
0.0
 40
0.0
 40
0.0
 40
0.0
 40
0.0153356535
 40
0.031752296
 40
0.0492606107
 40
0.0678656907
 40
0.1083700185
 40
0.1532623685
 40
0.2025037616
 40
0.2560217398
 40
0.3137310244
 40
0.3755285801
 40
0.4412891193
 40
0.5108814955
 40
0.5841614469
 40
0.6609678273
 40
0.8244886574
 40
1.0
 40
1.0
 40
1.0
 40
1.0
 10
11.2954066534
 20
10.7023914848
 30
0.0
 10
11.2946504418
 20
10.7028072017
 30
0.0
 10
11.2930655732
 20
10.7036334018
 30
0.0
 10
11.290561254
 20
10.704822843
 30
0.0
 10
11.2878509479
 20
10.7060036845
 30
0.0
 10
11.2838501764
 20
10.7076116428
 30
0.0
 10
11.27833686
 20
10.7095812162
 30
0.0
 10
11.2711031491
 20
10.7118385348
 30
0.0
 10
11.2630918886
 20
10.7140458646
 30
0.0
 10
11.2543215352
 20
10.7161984966
 30
0.0
 10
11.2448119494
 20
10.7182907435
 30
0.0
 10
11.2345850542
 20
10.7203173789
 30
0.0
 10
11.2236646188
 20
10.722273951
 30
0.0
 10
11.2120759903
 20
10.7241553862
 30
0.0
 10
11.199846138
 20
10.725957131
 30
0.0
 10
11.1823546351
 20
10.728296917
 30
0.0
 10
11.1591060625
 20
10.7309690418
 30
0.0
 10
11.1401110887
 20
10.7327560713
 30
0.0
 10
11.1302705659
 20
10.7335939444
 30
0.0
  0
SPLINE
  5
2A2
100
AcDbEntity
  8
0
100
AcDbSpline
 62
7
  6
CONTINUOUS
 70
0
 71
3
 72
11
 73
7
 74
0
 42
0.0000001
 43
0.0000001
 44
0.0000000001
 40
0.0
 40
0.0
 40
0.0
 40
0.0
 40
0.2372766153
 40
0.484150808
 40
0.7389631074
 40
1.0
 40
1.0
 40
1.0
 40
1.0
 10
11.1266010627
 20
10.7339023219
 30
0.0
 10
11.117617927
 20
10.7346473708
 30
0.0
 10
11.0992760276
 20
10.7360224459
 30
0.0
 10
11.07125407
 20
10.7377234514
 30
0.0
 10
11.0423105022
 20
10.7390967275
 30
0.0
 10
11.0227250842
 20
10.7397801828
 30
0.0
 10
11.0128126177
 20
10.740067047
 30
0.0
  0
SPLINE
  5
2A3
100
AcDbEntity
  8
0
100
AcDbSpline
 62
7
  6
CONTINUOUS
 70
0
 71
3
 72
11
 73
7
 74
0
 42
0.0000001
 43
0.0000001
 44
0.0000000001
 40
0.0
 40
0.0
 40
0.0
 40
0.0
 40
0.2610368933
 40
0.5158492076
 40
0.7627233812
 40
1.0
 40
1.0
 40
1.0
 40
1.0
 10
10.8625722915
 20
10.7400670536
 30
0.0
 10
10.8526597574
 20
10.7397801886
 30
0.0
 10
10.8330742052
 20
10.7390967284
 30
0.0
 10
10.80413044
 20
10.737723444
 30
0.0
 10
10.7761082917
 20
10.7360224199
 30
0.0
 10
10.7577662681
 20
10.7346473333
 30
0.0
 10
10.7487830712
 20
10.7339022763
 30
0.0
  0
SPLINE
  5
2A4
100
AcDbEntity
  8
0
100
AcDbSpline
 62
7
  6
CONTINUOUS
 70
0
 71
3
 72
23
 73
19
 74
0
 42
0.0000001
 43
0.0000001
 44
0.0000000001
 40
0.0
 40
0.0
 40
0.0
 40
0.0
 40
0.1755109515
 40
0.3390314379
 40
0.4158377295
 40
0.4891175955
 40
0.5587098699
 40
0.6244704878
 40
0.686268133
 40
0.7439774695
 40
0.7974956834
 40
0.8467372812
 40
0.8916297324
 40
0.9321342478
 40
0.9507393996
 40
0.9682477404
 40
0.9846643591
 40
1.0
 40
1.0
 40
1.0
 40
1.0
 10
10.7451194073
 20
10.7335943947
 30
0.0
 10
10.7352786075
 20
10.7327565292
 30
0.0
 10
10.7162830971
 20
10.7309695118
 30
0.0
 10
10.6930338622
 20
10.7282973847
 30
0.0
 10
10.675541853
 20
10.7259575955
 30
0.0
 10
10.6633116412
 20
10.7241558441
 30
0.0
 10
10.6517226639
 20
10.7222743891
 30
0.0
 10
10.6408018877
 20
10.7203178043
 30
0.0
 10
10.6305746637
 20
10.7182911489
 30
0.0
 10
10.621064764
 20
10.7161988654
 30
0.0
 10
10.6122941091
 20
10.7140462056
 30
0.0
 10
10.6042825672
 20
10.7118388398
 30
0.0
 10
10.5970486048
 20
10.709581468
 30
0.0
 10
10.5915350923
 20
10.7076118597
 30
0.0
 10
10.5875341766
 20
10.7060038691
 30
0.0
 10
10.5848237792
 20
10.7048230036
 30
0.0
 10
10.5823193816
 20
10.7036335343
 30
0.0
 10
10.580734464
 20
10.7028073162
 30
0.0
 10
10.5799782287
 20
10.7023915899
 30
0.0
  0
LINE
  5
2A5
100
AcDbEntity
  8
0
100
AcDbLine
 62
7
  6
CONTINUOUS
 10
10.5799782287
 20
10.7023915899
 11
10.5752346847
 21
10.6994153015
  0
SPLINE
  5
2A6
100
AcDbEntity
  8
0
100
AcDbSpline
 62
7
  6
CONTINUOUS
 70
0
 71
3
 72
15
 73
11
 74
0
 42
0.0000001
 43
0.0000001
 44
0.0000000001
 40
0.0
 40
0.0
 40
0.0
 40
0.0
 40
0.1607342231
 40
0.3088649552
 40
0.4452030481
 40
0.5708326289
 40
0.6871551579
 40
0.7959454062
 40
0.899380457
 40
1.0
 40
1.0
 40
1.0
 40
1.0
 10
10.5752346847
 20
10.6994153015
 30
0.0
 10
10.5747123393
 20
10.6990344241
 30
0.0
 10
10.5737294781
 20
10.6982730477
 30
0.0
 10
10.5723942535
 20
10.6970774315
 30
0.0
 10
10.571260725
 20
10.6958761181
 30
0.0
 10
10.5703295384
 20
10.6946692136
 30
0.0
 10
10.5696016306
 20
10.6934565653
 30
0.0
 10
10.5690786852
 20
10.6922379893
 30
0.0
 10
10.5687631238
 20
10.6910146739
 30
0.0
 10
10.5686923427
 20
10.6901923768
 30
0.0
 10
10.5686923427
 20
10.6897876923
 30
0.0
  0
SPLINE
  5
2A7
100
AcDbEntity
  8
0
100
AcDbSpline
 62
7
  6
CONTINUOUS
 70
0
 71
3
 72
45
 73
41
 74
0
 42
0.0000001
 43
0.0000001
 44
0.0000000001
 40
0.0
 40
0.0
 40
0.0
 40
0.0
 40
0.0047816637
 40
0.0091420588
 40
0.0131482735
 40
0.0168881024
 40
0.0204701182
 40
0.0240174866
 40
0.0276568888
 40
0.0315059304
 40
0.0356641363
 40
0.040209497
 40
0.045200822
 40
0.0506816835
 40
0.0566841861
 40
0.0632316205
 40
0.0703397159
 40
0.0780192933
 40
0.0862777729
 40
0.0951200496
 40
0.1045488058
 40
0.1145638185
 40
0.1363433305
 40
0.160435408
 40
0.1867985597
 40
0.215376106
 40
0.2461046506
 40
0.2789074357
 40
0.3137016391
 40
0.3503975535
 40
0.3888960829
 40
0.4290954218
 40
0.4708851715
 40
0.5141505905
 40
0.5587736115
 40
0.6046299918
 40
0.6995323732
 40
0.7977928502
 40
0.8983358188
 40
1.0
 40
1.0
 40
1.0
 40
1.0
 10
11.3421373797
 20
10.6977777387
 30
0.0
 10
11.3426256895
 20
10.697298968
 30
0.0
 10
11.3435186965
 20
10.6963401802
 30
0.0
 10
11.3446365301
 20
10.6948220698
 30
0.0
 10
11.3454641259
 20
10.6932937716
 30
0.0
 10
11.3459969776
 20
10.6917551655
 30
0.0
 10
11.3462304431
 20
10.6902087986
 30
0.0
 10
11.3461613536
 20
10.6886605008
 30
0.0
 10
11.3457907481
 20
10.6871171395
 30
0.0
 10
11.3451228754
 20
10.6855831184
 30
0.0
 10
11.3441623854
 20
10.6840595811
 30
0.0
 10
11.3429129699
 20
10.6825455709
 30
0.0
 10
11.3413765262
 20
10.6810401272
 30
0.0
 10
11.3395541035
 20
10.6795428066
 30
0.0
 10
11.3374464314
 20
10.6780537585
 30
0.0
 10
11.3350544524
 20
10.6765736071
 30
0.0
 10
11.3323796912
 20
10.6751028942
 30
0.0
 10
11.329423876
 20
10.6736424948
 30
0.0
 10
11.3261888601
 20
10.6721933749
 30
0.0
 10
11.322676594
 20
10.6707565868
 30
0.0
 10
11.3188893299
 20
10.6693332217
 30
0.0
 10
11.3133190417
 20
10.6674001245
 30
0.0
 10
11.3056794913
 20
10.6650418253
 30
0.0
 10
11.2957029175
 20
10.6623530397
 30
0.0
 10
11.2847044427
 20
10.6597403298
 30
0.0
 10
11.272715034
 20
10.6572109207
 30
0.0
 10
11.2597684255
 20
10.6547732187
 30
0.0
 10
11.2459013373
 20
10.6524338412
 30
0.0
 10
11.231153204
 20
10.6501999577
 30
0.0
 10
11.2155660773
 20
10.648078338
 30
0.0
 10
11.1991843394
 20
10.6460747038
 30
0.0
 10
11.1820548461
 20
10.6441954693
 30
0.0
 10
11.1642265318
 20
10.6424457226
 30
0.0
 10
11.1457503919
 20
10.6408305973
 30
0.0
 10
11.1266792085
 20
10.6393550218
 30
0.0
 10
11.1002269541
 20
10.6375583839
 30
0.0
 10
11.0660914758
 20
10.635703703
 30
0.0
 10
11.0241147929
 20
10.634112039
 30
0.0
 10
10.9811517822
 20
10.6331499194
 30
0.0
 10
10.952232119
 20
10.6329354805
 30
0.0
 10
10.9376923427
 20
10.6329354805
 30
0.0
  0
SPLINE
  5
2A8
100
AcDbEntity
  8
0
100
AcDbSpline
 62
7
  6
CONTINUOUS
 70
0
 71
3
 72
11
 73
7
 74
0
 42
0.0000001
 43
0.0000001
 44
0.0000000001
 40
0.0
 40
0.0
 40
0.0
 40
0.0
 40
0.2847826263
 40
0.5457690695
 40
0.7837893412
 40
1.0
 40
1.0
 40
1.0
 40
1.0
 10
11.3206464108
 20
10.7164150121
 30
0.0
 10
11.3215274254
 20
10.715939886
 30
0.0
 10
11.3231953936
 20
10.7149904139
 30
0.0
 10
11.3255101557
 20
10.7134934221
 30
0.0
 10
11.3275256854
 20
10.7119875535
 30
0.0
 10
11.3287244029
 20
10.7109290119
 30
0.0
 10
11.3292670269
 20
10.7103969623
 30
0.0
  0
SPLINE
  5
2A9
100
AcDbEntity
  8
0
100
AcDbSpline
 62
7
  6
CONTINUOUS
 70
0
 71
3
 72
11
 73
7
 74
0
 42
0.0000001
 43
0.0000001
 44
0.0000000001
 40
0.0
 40
0.0
 40
0.0
 40
0.0
 40
0.2087927846
 40
0.444119062
 40
0.7075390018
 40
1.0
 40
1.0
 40
1.0
 40
1.0
 10
10.5332473032
 20
10.6977777387
 30
0.0
 10
10.5339598814
 20
10.6984763954
 30
0.0
 10
10.5355741305
 20
10.6998629587
 30
0.0
 10
10.5383442584
 20
10.7018090953
 30
0.0
 10
10.5415994399
 20
10.7037397979
 30
0.0
 10
10.5439656318
 20
10.7049516009
 30
0.0
 10
10.545224822
 20
10.705558561
 30
0.0
  0
LINE
  5
2AA
100
AcDbEntity
  8
0
100
AcDbLine
 62
7
  6
CONTINUOUS
 10
10.545224822
 20
10.705558561
 11
10.5528063126
 21
10.7088370548
  0
SPLINE
  5
2AB
100
AcDbEntity
  8
0
100
AcDbSpline
 62
7
  6
CONTINUOUS
 70
0
 71
3
 72
28
 73
24
 74
0
 42
0.0000001
 43
0.0000001
 44
0.0000000001
 40
0.0
 40
0.0
 40
0.0
 40
0.0
 40
0.0152162385
 40
0.0317673929
 40
0.0496454178
 40
0.0688386648
 40
0.0893298835
 40
0.1110963757
 40
0.134113761
 40
0.1583557435
 40
0.1837909153
 40
0.2103857208
 40
0.2669140021
 40
0.3276343632
 40
0.3922124867
 40
0.4602831768
 40
0.5314623665
 40
0.6053439301
 40
0.6815039834
 40
0.7594986884
 40
0.8388882688
 40
0.9192283112
 40
1.0
 40
1.0
 40
1.0
 40
1.0
 10
10.5528063126
 20
10.7088370548
 30
0.0
 10
10.5546392257
 20
10.7095543611
 30
0.0
 10
10.5584981472
 20
10.7109700208
 30
0.0
 10
10.5646002771
 20
10.7129740121
 30
0.0
 10
10.5712515314
 20
10.7149449235
 30
0.0
 10
10.5784424478
 20
10.7168794445
 30
0.0
 10
10.5861626936
 20
10.7187746354
 30
0.0
 10
10.5944008501
 20
10.7206278543
 30
0.0
 10
10.6031449506
 20
10.7224362143
 30
0.0
 10
10.6123823151
 20
10.7241967243
 30
0.0
 10
10.6220992954
 20
10.7259070022
 30
0.0
 10
10.6359595917
 20
10.7281630738
 30
0.0
 10
10.6543770551
 20
10.7308213186
 30
0.0
 10
10.6777198624
 20
10.7337129105
 30
0.0
 10
10.7025947424
 20
10.7363488054
 30
0.0
 10
10.7288553003
 20
10.7387137916
 30
0.0
 10
10.7563469578
 20
10.7407928187
 30
0.0
 10
10.7849079344
 20
10.7425737862
 30
0.0
 10
10.8143691878
 20
10.7440456397
 30
0.0
 10
10.8445575581
 20
10.7451998046
 30
0.0
 10
10.8752974687
 20
10.7460292861
 30
0.0
 10
10.9064037143
 20
10.7465285619
 30
0.0
 10
10.9272442455
 20
10.746639904
 30
0.0
 10
10.9376923427
 20
10.746639904
 30
0.0
  0
SPLINE
  5
2AC
100
AcDbEntity
  8
0
100
AcDbSpline
 62
7
  6
CONTINUOUS
 70
0
 71
3
 72
11
 73
7
 74
0
 42
0.0000001
 43
0.0000001
 44
0.0000000001
 40
0.0
 40
0.0
 40
0.0
 40
0.0
 40
0.2162106588
 40
0.4542309305
 40
0.7152173737
 40
1.0
 40
1.0
 40
1.0
 40
1.0
 10
10.5461176585
 20
10.7103969623
 30
0.0
 10
10.5466602826
 20
10.7109290119
 30
0.0
 10
10.547859
 20
10.7119875535
 30
0.0
 10
10.5498745298
 20
10.7134934221
 30
0.0
 10
10.5521892919
 20
10.7149904139
 30
0.0
 10
10.5538572601
 20
10.715939886
 30
0.0
 10
10.5547382747
 20
10.7164150121
 30
0.0
  0
SPLINE
  5
2AD
100
AcDbEntity
  8
0
100
AcDbSpline
 62
7
  6
CONTINUOUS
 70
0
 71
3
 72
28
 73
24
 74
0
 42
0.0000001
 43
0.0000001
 44
0.0000000001
 40
0.0
 40
0.0
 40
0.0
 40
0.0
 40
0.0807693305
 40
0.1611068217
 40
0.2404939916
 40
0.3184866176
 40
0.3946448756
 40
0.4685249521
 40
0.5397031334
 40
0.607773314
 40
0.6723514318
 40
0.7330723151
 40
0.7896015949
 40
0.8161970995
 40
0.8416331015
 40
0.8658760233
 40
0.8888944795
 40
0.910662187
 40
0.9311547479
 40
0.9503494535
 40
0.9682290703
 40
0.9847819398
 40
1.0
 40
1.0
 40
1.0
 40
1.0
 10
10.9376923427
 20
10.746639904
 30
0.0
 10
10.9481398813
 20
10.746639904
 30
0.0
 10
10.9689792714
 20
10.7465285758
 30
0.0
 10
11.0000838153
 20
10.7460293523
 30
0.0
 10
11.0308220705
 20
10.7451999643
 30
0.0
 10
11.0610088978
 20
10.7440459224
 30
0.0
 10
11.0904687477
 20
10.7425742328
 30
0.0
 10
11.1190284834
 20
10.7407934478
 30
0.0
 10
11.146519096
 20
10.7387146383
 30
0.0
 10
11.1727788342
 20
10.7363498861
 30
0.0
 10
11.1976531309
 20
10.7337142438
 30
0.0
 10
11.2209955935
 20
10.7308229232
 30
0.0
 10
11.2394129251
 20
10.728164921
 30
0.0
 10
11.2532732407
 20
10.7259090561
 30
0.0
 10
11.2629903286
 20
10.7241989292
 30
0.0
 10
11.2722278631
 20
10.7224385686
 30
0.0
 10
11.2809721992
 20
10.7206303598
 30
0.0
 10
11.2892106611
 20
10.7187772947
 30
0.0
 10
11.2969312805
 20
10.7168822574
 30
0.0
 10
11.3041226382
 20
10.7149478865
 30
0.0
 10
11.310774404
 20
10.7129771258
 30
0.0
 10
11.3168771164
 20
10.7109732836
 30
0.0
 10
11.3207364599
 20
10.7095577374
 30
0.0
 10
11.3225695974
 20
10.7088404889
 30
0.0
  0
LINE
  5
2AE
100
AcDbEntity
  8
0
100
AcDbLine
 62
7
  6
CONTINUOUS
 10
11.3225695974
 20
10.7088404889
 11
11.3301610603
 21
10.7055579824
  0
SPLINE
  5
2AF
100
AcDbEntity
  8
0
100
AcDbSpline
 62
7
  6
CONTINUOUS
 70
0
 71
3
 72
11
 73
7
 74
0
 42
0.0000001
 43
0.0000001
 44
0.0000000001
 40
0.0
 40
0.0
 40
0.0
 40
0.0
 40
0.2924583154
 40
0.5558775403
 40
0.7912048253
 40
1.0
 40
1.0
 40
1.0
 40
1.0
 10
11.3301610603
 20
10.7055579824
 30
0.0
 10
11.3314201126
 20
10.7049510645
 30
0.0
 10
11.3337860518
 20
10.7037393451
 30
0.0
 10
11.3370408955
 20
10.7018087845
 30
0.0
 10
11.3398107574
 20
10.6998627938
 30
0.0
 10
11.3414248601
 20
10.6984763392
 30
0.0
 10
11.3421373797
 20
10.6977777387
 30
0.0
  0
SPLINE
  5
2B0
100
AcDbEntity
  8
0
100
AcDbSpline
 62
7
  6
CONTINUOUS
 70
0
 71
3
 72
14
 73
10
 74
0
 42
0.0000001
 43
0.0000001
 44
0.0000000001
 40
0.0
 40
0.0
 40
0.0
 40
0.0
 40
0.1051611129
 40
0.2125413181
 40
0.3241774475
 40
0.4418769134
 40
0.5671769452
 40
0.7013463093
 40
1.0
 40
1.0
 40
1.0
 40
1.0
 10
10.5686923427
 20
10.6897876923
 30
0.0
 10
10.5686923427
 20
10.6894380146
 30
0.0
 10
10.5687448504
 20
10.6887302296
 30
0.0
 10
10.5689795669
 20
10.6876746925
 30
0.0
 10
10.5693693144
 20
10.6866216809
 30
0.0
 10
10.5699127909
 20
10.6855722048
 30
0.0
 10
10.570608958
 20
10.6845263126
 30
0.0
 10
10.5717819152
 20
10.6830853812
 30
0.0
 10
10.5728311203
 20
10.6820900653
 30
0.0
 10
10.5735893755
 20
10.6814487851
 30
0.0
  0
LINE
  5
2B1
100
AcDbEntity
  8
0
100
AcDbLine
 62
7
  6
CONTINUOUS
 10
10.5735893755
 20
10.6814487851
 11
10.5752376498
 21
10.6801579204
  0
SPLINE
  5
2B2
100
AcDbEntity
  8
0
100
AcDbSpline
 62
7
  6
CONTINUOUS
 70
0
 71
3
 72
15
 73
11
 74
0
 42
0.0000001
 43
0.0000001
 44
0.0000000001
 40
0.0
 40
0.0
 40
0.0
 40
0.0
 40
0.084606892
 40
0.180400848
 40
0.2877294381
 40
0.4067639963
 40
0.5375526458
 40
0.6800801014
 40
0.8342771939
 40
1.0
 40
1.0
 40
1.0
 40
1.0
 10
10.5752376498
 20
10.6801579204
 30
0.0
 10
10.5762242771
 20
10.6794386704
 30
0.0
 10
10.5784116965
 20
10.6780190792
 30
0.0
 10
10.5820637412
 20
10.6760372828
 30
0.0
 10
10.5862819181
 20
10.6740766645
 30
0.0
 10
10.5910601908
 20
10.6721401627
 30
0.0
 10
10.5963918656
 20
10.6702304996
 30
0.0
 10
10.6022691572
 20
10.6683510508
 30
0.0
 10
10.6086832429
 20
10.6665052871
 30
0.0
 10
10.6131511886
 20
10.6653405527
 30
0.0
 10
10.6154716654
 20
10.6647618468
 30
0.0
  0
SPLINE
  5
2B3
100
AcDbEntity
  8
0
100
AcDbSpline
 62
7
  6
CONTINUOUS
 70
0
 71
3
 72
15
 73
11
 74
0
 42
0.0000001
 43
0.0000001
 44
0.0000000001
 40
0.0
 40
0.0
 40
0.0
 40
0.0
 40
0.0977684174
 40
0.2040761144
 40
0.318587121
 40
0.4409371379
 40
0.5707084484
 40
0.7074645357
 40
0.8507286077
 40
1.0
 40
1.0
 40
1.0
 40
1.0
 10
10.6207155496
 20
10.6634966665
 30
0.0
 10
10.6247054173
 20
10.6625648978
 30
0.0
 10
10.6330646227
 20
10.6607515177
 30
0.0
 10
10.6461807029
 20
10.6582512866
 30
0.0
 10
10.6603634875
 20
10.6558638732
 30
0.0
 10
10.6755610764
 20
10.6535991543
 30
0.0
 10
10.6917182466
 20
10.651464895
 30
0.0
 10
10.7087758575
 20
10.6494698452
 30
0.0
 10
10.7266715971
 20
10.6476210614
 30
0.0
 10
10.7388810921
 20
10.6465121524
 30
0.0
 10
10.7451141195
 20
10.6459814402
 30
0.0
  0
SPLINE
  5
2B4
100
AcDbEntity
  8
0
100
AcDbSpline
 62
7
  6
CONTINUOUS
 70
0
 71
3
 72
11
 73
7
 74
0
 42
0.0000001
 43
0.0000001
 44
0.0000000001
 40
0.0
 40
0.0
 40
0.0
 40
0.0
 40
0.2377677084
 40
0.4845829034
 40
0.7391198621
 40
1.0
 40
1.0
 40
1.0
 40
1.0
 10
10.7451141195
 20
10.6459814402
 30
0.0
 10
10.7530952909
 20
10.6453018819
 30
0.0
 10
10.7693714658
 20
10.6440339053
 30
0.0
 10
10.7942197526
 20
10.642422319
 30
0.0
 10
10.8198632848
 20
10.6410715655
 30
0.0
 10
10.8372126729
 20
10.6403573511
 30
0.0
 10
10.8459957513
 20
10.6400437854
 30
0.0
  0
LINE
  5
2B5
100
AcDbEntity
  8
0
100
AcDbLine
 62
7
  6
CONTINUOUS
 10
10.8459957513
 20
10.6400437854
 11
10.8471307228
 21
10.6400035327
  0
LINE
  5
2B6
100
AcDbEntity
  8
0
100
AcDbLine
 62
7
  6
CONTINUOUS
 10
11.0282536201
 20
10.6400035202
 11
11.0293877366
 21
10.6400437423
  0
SPLINE
  5
2B7
100
AcDbEntity
  8
0
100
AcDbSpline
 62
7
  6
CONTINUOUS
 70
0
 71
3
 72
11
 73
7
 74
0
 42
0.0000001
 43
0.0000001
 44
0.0000000001
 40
0.0
 40
0.0
 40
0.0
 40
0.0
 40
0.2608792525
 40
0.515415851
 40
0.7622312861
 40
1.0
 40
1.0
 40
1.0
 40
1.0
 10
11.0293877366
 20
10.6400437423
 30
0.0
 10
11.0381704282
 20
10.6403572899
 30
0.0
 10
11.0555190696
 20
10.6410714621
 30
0.0
 10
11.0811615274
 20
10.6424221225
 30
0.0
 10
11.1060088368
 20
10.6440335999
 30
0.0
 10
11.1222843955
 20
10.6453014814
 30
0.0
 10
11.1302652782
 20
10.6459809898
 30
0.0
  0
SPLINE
  5
2B8
100
AcDbEntity
  8
0
100
AcDbSpline
 62
7
  6
CONTINUOUS
 70
0
 71
3
 72
15
 73
11
 74
0
 42
0.0000001
 43
0.0000001
 44
0.0000000001
 40
0.0
 40
0.0
 40
0.0
 40
0.0
 40
0.1492720055
 40
0.292536622
 40
0.429292959
 40
0.5590644182
 40
0.6814143189
 40
0.795925031
 40
0.902232357
 40
1.0
 40
1.0
 40
1.0
 40
1.0
 10
11.1302652782
 20
10.6459809898
 30
0.0
 10
11.1364986251
 20
10.6465117095
 30
0.0
 10
11.148708744
 20
10.64762064
 30
0.0
 10
11.1666053868
 20
10.6494694617
 30
0.0
 10
11.183663841
 20
10.6514645722
 30
0.0
 10
11.1998217854
 20
10.6535988947
 30
0.0
 10
11.2150200797
 20
10.6558636929
 30
0.0
 10
11.2292034988
 20
10.6582512012
 30
0.0
 10
11.2423201375
 20
10.660751524
 30
0.0
 10
11.2506796847
 20
10.6625649936
 30
0.0
 10
11.2546697065
 20
10.6634968047
 30
0.0
  0
SPLINE
  5
2B9
100
AcDbEntity
  8
0
100
AcDbSpline
 62
7
  6
CONTINUOUS
 70
0
 71
3
 72
15
 73
11
 74
0
 42
0.0000001
 43
0.0000001
 44
0.0000000001
 40
0.0
 40
0.0
 40
0.0
 40
0.0
 40
0.1657279887
 40
0.3199284472
 40
0.4624577705
 40
0.5932471565
 40
0.7122809361
 40
0.8196070246
 40
0.9153974653
 40
1.0
 40
1.0
 40
1.0
 40
1.0
 10
11.2599180355
 20
10.6647631013
 30
0.0
 10
11.2622384956
 20
10.66534184
 30
0.0
 10
11.2667063871
 20
10.6665066368
 30
0.0
 10
11.2731203558
 20
10.6683525141
 30
0.0
 10
11.2789974761
 20
10.6702320795
 30
0.0
 10
11.2843289315
 20
10.6721418512
 30
0.0
 10
11.2891069291
 20
10.6740784601
 30
0.0
 10
11.2933247667
 20
10.6760391959
 30
0.0
 10
11.2969764175
 20
10.6780211044
 30
0.0
 10
11.299163538
 20
10.6794407861
 30
0.0
 10
11.3001500008
 20
10.6801600831
 30
0.0
  0
LINE
  5
2BA
100
AcDbEntity
  8
0
100
AcDbLine
 62
7
  6
CONTINUOUS
 10
11.3001500008
 20
10.6801600831
 11
11.3017920046
 21
10.6814459913
  0
SPLINE
  5
2BB
100
AcDbEntity
  8
0
100
AcDbSpline
 62
7
  6
CONTINUOUS
 70
0
 71
3
 72
14
 73
10
 74
0
 42
0.0000001
 43
0.0000001
 44
0.0000000001
 40
0.0
 40
0.0
 40
0.0
 40
0.0
 40
0.2986763002
 40
0.4328505262
 40
0.5581513135
 40
0.6758477348
 40
0.7874775566
 40
0.8948490056
 40
1.0
 40
1.0
 40
1.0
 40
1.0
 10
11.3017920046
 20
10.6814459913
 30
0.0
 10
11.302550754
 20
10.6820874694
 30
0.0
 10
11.3036006514
 20
10.683083099
 30
0.0
 10
11.3047744173
 20
10.6845245311
 30
0.0
 10
11.3054710566
 20
10.6855707735
 30
0.0
 10
11.3060149039
 20
10.6866206026
 30
0.0
 10
11.3064049192
 20
10.6876739709
 30
0.0
 10
11.3066397983
 20
10.6887298676
 30
0.0
 10
11.3066923427
 20
10.6894378969
 30
0.0
 10
11.3066923427
 20
10.6897876923
 30
0.0
  0
SPLINE
  5
2BC
100
AcDbEntity
  8
0
100
AcDbSpline
 62
7
  6
CONTINUOUS
 70
0
 71
3
 72
11
 73
7
 74
0
 42
0.0000001
 43
0.0000001
 44
0.0000000001
 40
0.0
 40
0.0
 40
0.0
 40
0.0
 40
0.2011805474
 40
0.4331888768
 40
0.6988912127
 40
1.0
 40
1.0
 40
1.0
 40
1.0
 10
11.2160443686
 20
10.7004200912
 30
0.0
 10
11.2156031603
 20
10.6998565629
 30
0.0
 10
11.2145348362
 20
10.6987349632
 30
0.0
 10
11.2125885523
 20
10.6971800509
 30
0.0
 10
11.2101961869
 20
10.6956391268
 30
0.0
 10
11.2084186425
 20
10.6946832394
 30
0.0
 10
11.2074607619
 20
10.6942037307
 30
0.0
  0
SPLINE
  5
2BD
100
AcDbEntity
  8
0
100
AcDbSpline
 62
7
  6
CONTINUOUS
 70
0
 71
3
 72
14
 73
10
 74
0
 42
0.0000001
 43
0.0000001
 44
0.0000000001
 40
0.0
 40
0.0
 40
0.0
 40
0.0
 40
0.0967836697
 40
0.2016268458
 40
0.3145596215
 40
0.4355870276
 40
0.5646979423
 40
0.7018622907
 40
1.0
 40
1.0
 40
1.0
 40
1.0
 10
11.2074607619
 20
10.7002256749
 30
0.0
 10
11.2066686476
 20
10.7006222021
 30
0.0
 10
11.204998168
 20
10.7014080709
 30
0.0
 10
11.2023460024
 20
10.7025297727
 30
0.0
 10
11.199450101
 20
10.7036400922
 30
0.0
 10
11.1963131776
 20
10.7047378331
 30
0.0
 10
11.1929378787
 20
10.7058221149
 30
0.0
 10
11.1879844767
 20
10.7072894568
 30
0.0
 10
11.1841299441
 20
10.7083021745
 30
0.0
 10
11.1814804299
 20
10.7089548998
 30
0.0
  0
SPLINE
  5
2BE
100
AcDbEntity
  8
0
100
AcDbSpline
 62
7
  6
CONTINUOUS
 70
0
 71
3
 72
15
 73
11
 74
0
 42
0.0000001
 43
0.0000001
 44
0.0000000001
 40
0.0
 40
0.0
 40
0.0
 40
0.0
 40
0.0946053673
 40
0.1988681273
 40
0.3123361138
 40
0.434538392
 40
0.5649819447
 40
0.7031271362
 40
0.8483815776
 40
1.0
 40
1.0
 40
1.0
 40
1.0
 10
11.1814804299
 20
10.6854745058
 30
0.0
 10
11.1781982936
 20
10.6846659298
 30
0.0
 10
11.1712661774
 20
10.6830983198
 30
0.0
 10
11.1603123346
 20
10.6809578159
 30
0.0
 10
11.1483369052
 20
10.6789236632
 30
0.0
 10
11.1353961985
 20
10.6770051889
 30
0.0
 10
11.1215481058
 20
10.6752118106
 30
0.0
 10
11.1068543197
 20
10.6735515428
 30
0.0
 10
11.0913848996
 20
10.6720330957
 30
0.0
 10
11.0808151022
 20
10.6711375845
 30
0.0
 10
11.0754144127
 20
10.6707129692
 30
0.0
  0
SPLINE
  5
2BF
100
AcDbEntity
  8
0
100
AcDbSpline
 62
7
  6
CONTINUOUS
 70
0
 71
3
 72
15
 73
11
 74
0
 42
0.0000001
 43
0.0000001
 44
0.0000000001
 40
0.0
 40
0.0
 40
0.0
 40
0.0
 40
0.1516184224
 40
0.2968728638
 40
0.4350180553
 40
0.565461608
 40
0.6876638862
 40
0.8011318727
 40
0.9053946327
 40
1.0
 40
1.0
 40
1.0
 40
1.0
 10
10.7999702728
 20
10.6707129692
 30
0.0
 10
10.7945695833
 20
10.6711375845
 30
0.0
 10
10.7839997859
 20
10.6720330957
 30
0.0
 10
10.7685303658
 20
10.6735515428
 30
0.0
 10
10.7538365797
 20
10.6752118106
 30
0.0
 10
10.739988487
 20
10.6770051889
 30
0.0
 10
10.7270477802
 20
10.6789236632
 30
0.0
 10
10.7150723509
 20
10.6809578159
 30
0.0
 10
10.7041185081
 20
10.6830983198
 30
0.0
 10
10.6971863919
 20
10.6846659298
 30
0.0
 10
10.6939042556
 20
10.6854745058
 30
0.0
  0
SPLINE
  5
2C0
100
AcDbEntity
  8
0
100
AcDbSpline
 62
7
  6
CONTINUOUS
 70
0
 71
3
 72
11
 73
7
 74
0
 42
0.0000001
 43
0.0000001
 44
0.0000000001
 40
0.0
 40
0.0
 40
0.0
 40
0.0
 40
0.3011087873
 40
0.5668111232
 40
0.7988194526
 40
1.0
 40
1.0
 40
1.0
 40
1.0
 10
10.6679239235
 20
10.6942037307
 30
0.0
 10
10.666966043
 20
10.6946832394
 30
0.0
 10
10.6651884986
 20
10.6956391268
 30
0.0
 10
10.6627961331
 20
10.6971800509
 30
0.0
 10
10.6608498493
 20
10.6987349632
 30
0.0
 10
10.6597815252
 20
10.6998565629
 30
0.0
 10
10.6593403169
 20
10.7004200912
 30
0.0
  0
SPLINE
  5
2C1
100
AcDbEntity
  8
0
100
AcDbSpline
 62
7
  6
CONTINUOUS
 70
0
 71
3
 72
14
 73
10
 74
0
 42
0.0000001
 43
0.0000001
 44
0.0000000001
 40
0.0
 40
0.0
 40
0.0
 40
0.0
 40
0.2981377093
 40
0.4353020577
 40
0.5644129724
 40
0.6854403785
 40
0.7983731542
 40
0.9032163303
 40
1.0
 40
1.0
 40
1.0
 40
1.0
 10
10.6939042556
 20
10.7089548998
 30
0.0
 10
10.6912547414
 20
10.7083021745
 30
0.0
 10
10.6874002088
 20
10.7072894568
 30
0.0
 10
10.6824468068
 20
10.7058221149
 30
0.0
 10
10.6790715078
 20
10.7047378331
 30
0.0
 10
10.6759345844
 20
10.7036400922
 30
0.0
 10
10.6730386831
 20
10.7025297727
 30
0.0
 10
10.6703865174
 20
10.7014080709
 30
0.0
 10
10.6687160378
 20
10.7006222021
 30
0.0
 10
10.6679239235
 20
10.7002256749
 30
0.0
  0
SPLINE
  5
2C2
100
AcDbEntity
  8
0
100
AcDbSpline
 62
7
  6
CONTINUOUS
 70
0
 71
3
 72
14
 73
10
 74
0
 42
0.0000001
 43
0.0000001
 44
0.0000000001
 40
0.0
 40
0.0
 40
0.0
 40
0.0
 40
0.2981377093
 40
0.4353020577
 40
0.5644129724
 40
0.6854403785
 40
0.7983731542
 40
0.9032163303
 40
1.0
 40
1.0
 40
1.0
 40
1.0
 10
10.6939042556
 20
10.6854745058
 30
0.0
 10
10.6912547414
 20
10.6861272311
 30
0.0
 10
10.6874002088
 20
10.6871399488
 30
0.0
 10
10.6824468068
 20
10.6886072907
 30
0.0
 10
10.6790715078
 20
10.6896915725
 30
0.0
 10
10.6759345844
 20
10.6907893134
 30
0.0
 10
10.6730386831
 20
10.6918996329
 30
0.0
 10
10.6703865174
 20
10.6930213347
 30
0.0
 10
10.6687160378
 20
10.6938072035
 30
0.0
 10
10.6679239235
 20
10.6942037307
 30
0.0
  0
SPLINE
  5
2C3
100
AcDbEntity
  8
0
100
AcDbSpline
 62
7
  6
CONTINUOUS
 70
0
 71
3
 72
12
 73
8
 74
0
 42
0.0000001
 43
0.0000001
 44
0.0000000001
 40
0.0
 40
0.0
 40
0.0
 40
0.0
 40
0.1045899283
 40
0.215321571
 40
0.4546001264
 40
0.7165943238
 40
1.0
 40
1.0
 40
1.0
 40
1.0
 10
10.6939042556
 20
10.7238089209
 30
0.0
 10
10.6956691004
 20
10.7242437021
 30
0.0
 10
10.6993118044
 20
10.7251010329
 30
0.0
 10
10.7070334567
 20
10.726772888
 30
0.0
 10
10.7174820971
 20
10.7287680262
 30
0.0
 10
10.7309402045
 20
10.7309737734
 30
0.0
 10
10.7403261331
 20
10.732298929
 30
0.0
 10
10.7452090991
 20
10.7329421859
 30
0.0
  0
SPLINE
  5
2C4
100
AcDbEntity
  8
0
100
AcDbSpline
 62
7
  6
CONTINUOUS
 70
0
 71
3
 72
12
 73
8
 74
0
 42
0.0000001
 43
0.0000001
 44
0.0000000001
 40
0.0
 40
0.0
 40
0.0
 40
0.0
 40
0.2834056762
 40
0.5453998736
 40
0.784678429
 40
0.8954100717
 40
1.0
 40
1.0
 40
1.0
 40
1.0
 10
11.1301755863
 20
10.7329421859
 30
0.0
 10
11.1350585523
 20
10.732298929
 30
0.0
 10
11.144444481
 20
10.7309737734
 30
0.0
 10
11.1579025884
 20
10.7287680262
 30
0.0
 10
11.1683512288
 20
10.726772888
 30
0.0
 10
11.176072881
 20
10.7251010329
 30
0.0
 10
11.1797155851
 20
10.7242437021
 30
0.0
 10
11.1814804299
 20
10.7238089209
 30
0.0
  0
SPLINE
  5
2C5
100
AcDbEntity
  8
0
100
AcDbSpline
 62
7
  6
CONTINUOUS
 70
0
 71
3
 72
14
 73
10
 74
0
 42
0.0000001
 43
0.0000001
 44
0.0000000001
 40
0.0
 40
0.0
 40
0.0
 40
0.0
 40
0.0967836697
 40
0.2016268458
 40
0.3145596215
 40
0.4355870276
 40
0.5646979423
 40
0.7018622907
 40
1.0
 40
1.0
 40
1.0
 40
1.0
 10
11.2074607619
 20
10.6942037307
 30
0.0
 10
11.2066686476
 20
10.6938072035
 30
0.0
 10
11.204998168
 20
10.6930213347
 30
0.0
 10
11.2023460024
 20
10.6918996329
 30
0.0
 10
11.199450101
 20
10.6907893134
 30
0.0
 10
11.1963131776
 20
10.6896915725
 30
0.0
 10
11.1929378787
 20
10.6886072907
 30
0.0
 10
11.1879844767
 20
10.6871399488
 30
0.0
 10
11.1841299441
 20
10.6861272311
 30
0.0
 10
11.1814804299
 20
10.6854745058
 30
0.0
  0
SPLINE
  5
2C6
100
AcDbEntity
  8
0
100
AcDbSpline
 62
7
  6
CONTINUOUS
 70
0
 71
3
 72
15
 73
11
 74
0
 42
0.0000001
 43
0.0000001
 44
0.0000000001
 40
0.0
 40
0.0
 40
0.0
 40
0.0
 40
0.0911692337
 40
0.1919668854
 40
0.302470455
 40
0.4227035349
 40
0.5526534336
 40
0.6922744102
 40
0.8414466238
 40
1.0
 40
1.0
 40
1.0
 40
1.0
 10
10.5740402771
 20
10.702529577
 30
0.0
 10
10.5752154989
 20
10.703179232
 30
0.0
 10
10.5777369315
 20
10.7044630196
 30
0.0
 10
10.581808628
 20
10.706274732
 30
0.0
 10
10.586353014
 20
10.7080654891
 30
0.0
 10
10.5913641254
 20
10.7098324924
 30
0.0
 10
10.5968360024
 20
10.7115736284
 30
0.0
 10
10.6027617541
 20
10.7132863636
 30
0.0
 10
10.6091329442
 20
10.7149683463
 30
0.0
 10
10.6135383944
 20
10.716035337
 30
0.0
 10
10.6158128914
 20
10.7165649075
 30
0.0
  0
SPLINE
  5
2C7
100
AcDbEntity
  8
0
100
AcDbSpline
 62
7
  6
CONTINUOUS
 70
0
 71
3
 72
11
 73
7
 74
0
 42
0.0000001
 43
0.0000001
 44
0.0000000001
 40
0.0
 40
0.0
 40
0.0
 40
0.0
 40
0.2382414938
 40
0.4851935079
 40
0.7395617077
 40
1.0
 40
1.0
 40
1.0
 40
1.0
 10
10.7452901109
 20
10.7345846537
 30
0.0
 10
10.7532852275
 20
10.735249769
 30
0.0
 10
10.7695773807
 20
10.7364908304
 30
0.0
 10
10.7944324958
 20
10.7380691375
 30
0.0
 10
10.820051001
 20
10.7393916245
 30
0.0
 10
10.8373732944
 20
10.74009117
 30
0.0
 10
10.8461381228
 20
10.7403982779
 30
0.0
  0
SPLINE
  5
2C8
100
AcDbEntity
  8
0
100
AcDbSpline
 62
7
  6
CONTINUOUS
 70
0
 71
3
 72
11
 73
7
 74
0
 42
0.0000001
 43
0.0000001
 44
0.0000000001
 40
0.0
 40
0.0
 40
0.0
 40
0.0
 40
0.2604382923
 40
0.5148064921
 40
0.7617585062
 40
1.0
 40
1.0
 40
1.0
 40
1.0
 10
11.0292465626
 20
10.7403982779
 30
0.0
 10
11.0380113911
 20
10.74009117
 30
0.0
 10
11.0553336845
 20
10.7393916245
 30
0.0
 10
11.0809521896
 20
10.7380691375
 30
0.0
 10
11.1058073048
 20
10.7364908304
 30
0.0
 10
11.122099458
 20
10.735249769
 30
0.0
 10
11.1300945746
 20
10.7345846537
 30
0.0
  0
SPLINE
  5
2C9
100
AcDbEntity
  8
0
100
AcDbSpline
 62
7
  6
CONTINUOUS
 70
0
 71
3
 72
15
 73
11
 74
0
 42
0.0000001
 43
0.0000001
 44
0.0000000001
 40
0.0
 40
0.0
 40
0.0
 40
0.0
 40
0.1585533762
 40
0.3077255898
 40
0.4473465664
 40
0.5772964651
 40
0.697529545
 40
0.8080331146
 40
0.9088307663
 40
1.0
 40
1.0
 40
1.0
 40
1.0
 10
11.2595717941
 20
10.7165649075
 30
0.0
 10
11.2618462911
 20
10.716035337
 30
0.0
 10
11.2662517413
 20
10.7149683463
 30
0.0
 10
11.2726229314
 20
10.7132863636
 30
0.0
 10
11.2785486831
 20
10.7115736284
 30
0.0
 10
11.2840205601
 20
10.7098324924
 30
0.0
 10
11.2890316714
 20
10.7080654891
 30
0.0
 10
11.2935760575
 20
10.706274732
 30
0.0
 10
11.297647754
 20
10.7044630196
 30
0.0
 10
11.3001691866
 20
10.703179232
 30
0.0
 10
11.3013444083
 20
10.702529577
 30
0.0
  0
LINE
  5
2CA
100
AcDbEntity
  8
0
100
AcDbLine
 62
7
  6
CONTINUOUS
 10
15.2776042823
 20
5.1788692583
 11
15.2776339288
 21
5.1784490796
  0
LINE
  5
2CB
100
AcDbEntity
  8
0
100
AcDbLine
 62
7
  6
CONTINUOUS
 10
15.2776339288
 20
5.1784490796
 11
15.2776923427
 21
5.1776433053
  0
LINE
  5
2CC
100
AcDbEntity
  8
0
100
AcDbLine
 62
7
  6
CONTINUOUS
 10
15.2774047734
 20
5.1819180541
 11
15.2774216467
 21
5.1816433053
  0
LINE
  5
2CD
100
AcDbEntity
  8
0
100
AcDbLine
 62
7
  6
CONTINUOUS
 10
14.5976923427
 20
5.1776433053
 11
14.5977406327
 21
5.1783077757
  0
LINE
  5
2CE
100
AcDbEntity
  8
0
100
AcDbLine
 62
7
  6
CONTINUOUS
 10
14.5977406327
 20
5.1783077757
 11
14.5977850599
 21
5.1789387346
  0
LINE
  5
2CF
100
AcDbEntity
  8
0
100
AcDbLine
 62
7
  6
CONTINUOUS
 10
14.5979764916
 20
5.1818647635
 11
14.5980095784
 21
5.1824128038
  0
LINE
  5
2D0
100
AcDbEntity
  8
0
100
AcDbLine
 62
7
  6
CONTINUOUS
 10
7.2774047734
 20
5.1819180541
 11
7.2774216467
 21
5.1816433053
  0
LINE
  5
2D1
100
AcDbEntity
  8
0
100
AcDbLine
 62
7
  6
CONTINUOUS
 10
7.2776042823
 20
5.1788692583
 11
7.2776339288
 21
5.1784490796
  0
LINE
  5
2D2
100
AcDbEntity
  8
0
100
AcDbLine
 62
7
  6
CONTINUOUS
 10
7.2776339288
 20
5.1784490796
 11
7.2776923427
 21
5.1776433053
  0
LINE
  5
2D3
100
AcDbEntity
  8
0
100
AcDbLine
 62
7
  6
CONTINUOUS
 10
6.5976923427
 20
5.1776433053
 11
6.5977406327
 21
5.1783077757
  0
LINE
  5
2D4
100
AcDbEntity
  8
0
100
AcDbLine
 62
7
  6
CONTINUOUS
 10
6.5977406327
 20
5.1783077757
 11
6.5977850599
 21
5.1789387346
  0
LINE
  5
2D5
100
AcDbEntity
  8
0
100
AcDbLine
 62
7
  6
CONTINUOUS
 10
6.5979764916
 20
5.1818647635
 11
6.5980095784
 21
5.1824128038
  0
SPLINE
  5
2D6
100
AcDbEntity
  8
0
100
AcDbSpline
 62
9
  6
CONTINUOUS
 70
0
 71
3
 72
9
 73
5
 74
0
 42
0.0000001
 43
0.0000001
 44
0.0000000001
 40
0.0
 40
0.0
 40
0.0
 40
0.0
 40
0.4577404219
 40
1.0
 40
1.0
 40
1.0
 40
1.0
 10
6.5284643261
 20
7.006902894
 30
0.0
 10
6.5300065181
 20
7.0111027057
 30
0.0
 10
6.5334437058
 20
7.0202510329
 30
0.0
 10
6.5376317158
 20
7.0291209988
 30
0.0
 10
6.540291669
 20
7.0337053016
 30
0.0
  0
SPLINE
  5
2D7
100
AcDbEntity
  8
0
100
AcDbSpline
 62
9
  6
CONTINUOUS
 70
0
 71
3
 72
9
 73
5
 74
0
 42
0.0000001
 43
0.0000001
 44
0.0000000001
 40
0.0
 40
0.0
 40
0.0
 40
0.0
 40
0.2453789301
 40
1.0
 40
1.0
 40
1.0
 40
1.0
 10
6.5402917716
 20
7.0337053319
 30
0.0
 10
6.541132228
 20
7.035151098
 30
0.0
 10
6.5447754024
 20
7.0409155793
 30
0.0
 10
6.5492114652
 20
7.0461625184
 30
0.0
 10
6.5528481576
 20
7.0497989728
 30
0.0
  0
SPLINE
  5
2D8
100
AcDbEntity
  8
0
100
AcDbSpline
 62
9
  6
CONTINUOUS
 70
0
 71
3
 72
22
 73
18
 74
0
 42
0.0000001
 43
0.0000001
 44
0.0000000001
 40
0.0
 40
0.0
 40
0.0
 40
0.0
 40
0.0706850188
 40
0.1401582894
 40
0.2746339224
 40
0.3398798763
 40
0.4035729039
 40
0.4656006791
 40
0.5261311663
 40
0.5856011533
 40
0.6442642435
 40
0.702425086
 40
0.7604165691
 40
0.8186908485
 40
0.8778589685
 40
0.9382581834
 40
1.0
 40
1.0
 40
1.0
 40
1.0
 10
7.2659682492
 20
7.7629194314
 30
0.0
 10
7.2677337361
 20
7.7646848989
 30
0.0
 10
7.2713799883
 20
7.7680458221
 30
0.0
 10
7.2790722651
 20
7.7739666423
 30
0.0
 10
7.2874479445
 20
7.7786608391
 30
0.0
 10
7.2962831672
 20
7.7816475781
 30
0.0
 10
7.3029198967
 20
7.7829662404
 30
0.0
 10
7.3095133827
 20
7.7833229808
 30
0.0
 10
7.3159385337
 20
7.7826494658
 30
0.0
 10
7.3220339918
 20
7.7808872829
 30
0.0
 10
7.3276350456
 20
7.778082389
 30
0.0
 10
7.3325523345
 20
7.7742836013
 30
0.0
 10
7.3366351725
 20
7.7696154984
 30
0.0
 10
7.3397274107
 20
7.7642004644
 30
0.0
 10
7.3417977063
 20
7.758234573
 30
0.0
 10
7.3428386591
 20
7.7518867149
 30
0.0
 10
7.3428370369
 20
7.7475506208
 30
0.0
 10
7.342665579
 20
7.7453765044
 30
0.0
  0
LINE
  5
2D9
100
AcDbEntity
  8
0
100
AcDbLine
 62
9
  6
CONTINUOUS
 10
7.3426671998
 20
7.7453760111
 11
6.5284639402
 21
7.0069028939
  0
SPLINE
  5
2DA
100
AcDbEntity
  8
0
100
AcDbSpline
 62
9
  6
CONTINUOUS
 70
0
 71
3
 72
15
 73
11
 74
0
 42
0.0000001
 43
0.0000001
 44
0.0000000001
 40
0.0
 40
0.0
 40
0.0
 40
0.0
 40
0.0725262357
 40
0.1139356511
 40
0.1591665507
 40
0.2614863979
 40
0.3798041648
 40
0.5137805082
 40
0.6627448209
 40
1.0
 40
1.0
 40
1.0
 40
1.0
 10
6.4742098727
 20
7.0116433053
 30
0.0
 10
6.4748176719
 20
7.0116432633
 30
0.0
 10
6.4757738968
 20
7.0118386733
 30
0.0
 10
6.4770083548
 20
7.0123442204
 30
0.0
 10
6.4784038106
 20
7.0130998465
 30
0.0
 10
6.4802053384
 20
7.014427257
 30
0.0
 10
6.4823535288
 20
7.0164893129
 30
0.0
 10
6.484524599
 20
7.0190646226
 30
0.0
 10
6.4875106243
 20
7.0233240487
 30
0.0
 10
6.4894159786
 20
7.0269545968
 30
0.0
 10
6.4905296447
 20
7.0295522718
 30
0.0
  0
SPLINE
  5
2DB
100
AcDbEntity
  8
0
100
AcDbSpline
 62
9
  6
CONTINUOUS
 70
0
 71
3
 72
15
 73
11
 74
0
 42
0.0000001
 43
0.0000001
 44
0.0000000001
 40
0.0
 40
0.0
 40
0.0
 40
0.0
 40
0.1430102002
 40
0.2858808168
 40
0.4251870085
 40
0.558457457
 40
0.6838131965
 40
0.7997476735
 40
0.9052173814
 40
1.0
 40
1.0
 40
1.0
 40
1.0
 10
6.4905296448
 20
7.0295524821
 30
0.0
 10
6.492674172
 20
7.0291698866
 30
0.0
 10
6.4969302074
 20
7.028221222
 30
0.0
 10
6.503125232
 20
7.0263100035
 30
0.0
 10
6.5090060693
 20
7.0239515105
 30
0.0
 10
6.5144064929
 20
7.0211752746
 30
0.0
 10
6.5191688495
 20
7.0180095872
 30
0.0
 10
6.5231804629
 20
7.0145475873
 30
0.0
 10
6.5263312896
 20
7.0108799812
 30
0.0
 10
6.5278865772
 20
7.0082265003
 30
0.0
 10
6.5284632297
 20
7.0069028938
 30
0.0
  0
SPLINE
  5
2DC
100
AcDbEntity
  8
0
100
AcDbSpline
 62
9
  6
CONTINUOUS
 70
0
 71
3
 72
16
 73
12
 74
0
 42
0.0000001
 43
0.0000001
 44
0.0000000001
 40
0.0
 40
0.0
 40
0.0
 40
0.0
 40
0.1174221751
 40
0.2415150564
 40
0.3707122077
 40
0.5021546317
 40
0.6332167099
 40
0.6979374334
 40
0.7615450272
 40
0.8841783942
 40
1.0
 40
1.0
 40
1.0
 40
1.0
 10
6.5136551847
 20
6.9716433053
 30
0.0
 10
6.513655185
 20
6.9740818003
 30
0.0
 10
6.5131952212
 20
6.9791075042
 30
0.0
 10
6.5110941606
 20
6.9865624194
 30
0.0
 10
6.5074112137
 20
6.9937126082
 30
0.0
 10
6.502317593
 20
7.0001269228
 30
0.0
 10
6.49701487
 20
7.0044631967
 30
0.0
 10
6.4923759876
 20
7.0072150388
 30
0.0
 10
6.4876428022
 20
7.009416731
 30
0.0
 10
6.4815769728
 20
7.0111759035
 30
0.0
 10
6.476615129
 20
7.0116433075
 30
0.0
 10
6.4742098729
 20
7.0116433075
 30
0.0
  0
SPLINE
  5
2DD
100
AcDbEntity
  8
0
100
AcDbSpline
 62
9
  6
CONTINUOUS
 70
0
 71
3
 72
19
 73
15
 74
0
 42
0.0000001
 43
0.0000001
 44
0.0000000001
 40
0.0
 40
0.0
 40
0.0
 40
0.0
 40
0.0207559831
 40
0.0454600084
 40
0.0756022388
 40
0.1118969837
 40
0.1546136616
 40
0.2037479336
 40
0.2591807572
 40
0.3207334049
 40
0.4612313319
 40
0.6230623365
 40
0.803664902
 40
1.0
 40
1.0
 40
1.0
 40
1.0
 10
6.5136551893
 20
6.9716433053
 30
0.0
 10
6.5139268766
 20
6.9716432451
 30
0.0
 10
6.5145231338
 20
6.9717782727
 30
0.0
 10
6.5153805733
 20
6.9722904642
 30
0.0
 10
6.5162665135
 20
6.9730973853
 30
0.0
 10
6.5171831286
 20
6.9741972969
 30
0.0
 10
6.5181288043
 20
6.9755849478
 30
0.0
 10
6.5190978265
 20
6.9772530578
 30
0.0
 10
6.5200833378
 20
6.9791923767
 30
0.0
 10
6.5214712771
 20
6.9822647004
 30
0.0
 10
6.5231736991
 20
6.9867174504
 30
0.0
 10
6.5250911801
 20
6.9927436623
 30
0.0
 10
6.5269023319
 20
6.9995618977
 30
0.0
 10
6.5279622932
 20
7.0043823834
 30
0.0
 10
6.5284639402
 20
7.0069028939
 30
0.0
  0
SPLINE
  5
2DE
100
AcDbEntity
  8
0
100
AcDbSpline
 62
9
  6
CONTINUOUS
 70
0
 71
3
 72
12
 73
8
 74
0
 42
0.0000001
 43
0.0000001
 44
0.0000000001
 40
0.0
 40
0.0
 40
0.0
 40
0.0
 40
0.2605095947
 40
0.3899328233
 40
0.5179557344
 40
0.7667583911
 40
1.0
 40
1.0
 40
1.0
 40
1.0
 10
6.5051984944
 20
7.0516433053
 30
0.0
 10
6.5035467483
 20
7.0500178891
 30
0.0
 10
6.5012008728
 20
7.0474502891
 30
0.0
 10
6.4983922022
 20
7.043795321
 30
0.0
 10
6.4958619092
 20
7.0400671867
 30
0.0
 10
6.4931714935
 20
7.0353435875
 30
0.0
 10
6.4913619478
 20
7.0314528314
 30
0.0
 10
6.4905296447
 20
7.0295522718
 30
0.0
  0
SPLINE
  5
2DF
100
AcDbEntity
  8
0
100
AcDbSpline
 62
9
  6
CONTINUOUS
 70
0
 71
3
 72
23
 73
19
 74
0
 42
0.0000001
 43
0.0000001
 44
0.0000000001
 40
0.0
 40
0.0
 40
0.0
 40
0.0
 40
0.0624961115
 40
0.1249886249
 40
0.187480739
 40
0.2499704876
 40
0.31245823
 40
0.3749463081
 40
0.4374361855
 40
0.4999286906
 40
0.5624245118
 40
0.6249249468
 40
0.6874293092
 40
0.7499375641
 40
0.8124501297
 40
0.8749636488
 40
0.9374836859
 40
1.0
 40
1.0
 40
1.0
 40
1.0
 10
7.3803379507
 20
7.7453876539
 30
0.0
 10
7.3803372868
 20
7.7494297235
 30
0.0
 10
7.3797373661
 20
7.7575274646
 30
0.0
 10
7.376987627
 20
7.7693862652
 30
0.0
 10
7.372384687
 20
7.780662344
 30
0.0
 10
7.3659945712
 20
7.7910323809
 30
0.0
 10
7.3579690773
 20
7.800196872
 30
0.0
 10
7.3485231992
 20
7.8078892678
 30
0.0
 10
7.3379318939
 20
7.8139050301
 30
0.0
 10
7.3265048249
 20
7.8181158242
 30
0.0
 10
7.3145586492
 20
7.8204677694
 30
0.0
 10
7.3023970241
 20
7.8209733623
 30
0.0
 10
7.2902941494
 20
7.8197093458
 30
0.0
 10
7.2784854785
 20
7.8167840736
 30
0.0
 10
7.2671656286
 20
7.8123364917
 30
0.0
 10
7.2564885822
 20
7.8065166443
 30
0.0
 10
7.2465793463
 20
7.7994753678
 30
0.0
 10
7.2405439182
 20
7.7940634648
 30
0.0
 10
7.2376848402
 20
7.7912043453
 30
0.0
  0
SPLINE
  5
2E0
100
AcDbEntity
  8
0
100
AcDbSpline
 62
9
  6
CONTINUOUS
 70
0
 71
3
 72
9
 73
5
 74
0
 42
0.0000001
 43
0.0000001
 44
0.0000000001
 40
0.0
 40
0.0
 40
0.0
 40
0.0
 40
0.5000273854
 40
1.0
 40
1.0
 40
1.0
 40
1.0
 10
6.5245630219
 20
7.0780825269
 30
0.0
 10
6.5206885598
 20
7.0742084109
 30
0.0
 10
6.5134997931
 20
7.0658773998
 30
0.0
 10
6.5076913127
 20
7.0565217796
 30
0.0
 10
6.5051984944
 20
7.0516433053
 30
0.0
  0
SPLINE
  5
2E1
100
AcDbEntity
  8
0
100
AcDbSpline
 62
9
  6
CONTINUOUS
 70
0
 71
3
 72
18
 73
14
 74
0
 42
0.0000001
 43
0.0000001
 44
0.0000000001
 40
0.0
 40
0.0
 40
0.0
 40
0.0
 40
0.0298808456
 40
0.0642694763
 40
0.1039383716
 40
0.149178507
 40
0.1999729867
 40
0.2559952972
 40
0.3818924956
 40
0.5232115568
 40
0.6758404656
 40
0.8360410017
 40
1.0
 40
1.0
 40
1.0
 40
1.0
 10
7.4011742988
 20
7.0116432971
 30
0.0
 10
7.4006979352
 20
7.0116432747
 30
0.0
 10
7.399672079
 20
7.0118077494
 30
0.0
 10
7.39812798
 20
7.0124324931
 30
0.0
 10
7.3964993182
 20
7.0134275075
 30
0.0
 10
7.3948059377
 20
7.0147807989
 30
0.0
 10
7.3930701852
 20
7.0164778586
 30
0.0
 10
7.39064314
 20
7.0192883923
 30
0.0
 10
7.3877332685
 20
7.0235637438
 30
0.0
 10
7.384704326
 20
7.0295510643
 30
0.0
 10
7.3822732104
 20
7.0363938102
 30
0.0
 10
7.3807138426
 20
7.0438554374
 30
0.0
 10
7.3803403235
 20
7.0490294531
 30
0.0
 10
7.3803406741
 20
7.0516433048
 30
0.0
  0
SPLINE
  5
2E2
100
AcDbEntity
  8
0
100
AcDbSpline
 62
9
  6
CONTINUOUS
 70
0
 71
3
 72
16
 73
12
 74
0
 42
0.0000001
 43
0.0000001
 44
0.0000000001
 40
0.0
 40
0.0
 40
0.0
 40
0.0
 40
0.1158214011
 40
0.2384546034
 40
0.3020621353
 40
0.3667828118
 40
0.4978448461
 40
0.6292873042
 40
0.7584845585
 40
0.8825776081
 40
1.0
 40
1.0
 40
1.0
 40
1.0
 10
7.4011748122
 20
7.0116432971
 30
0.0
 10
7.39876956
 20
7.0116432974
 30
0.0
 10
7.3938077232
 20
7.0111758959
 30
0.0
 10
7.3877419004
 20
7.0094167302
 30
0.0
 10
7.3830087172
 20
7.007215045
 30
0.0
 10
7.3783698337
 20
7.0044632097
 30
0.0
 10
7.3730671053
 20
7.0001269427
 30
0.0
 10
7.3679734741
 20
6.9937126325
 30
0.0
 10
7.3642905146
 20
6.9865624416
 30
0.0
 10
7.3621894435
 20
6.9791075176
 30
0.0
 10
7.3617294752
 20
6.9740818051
 30
0.0
 10
7.3617294742
 20
6.9716433053
 30
0.0
  0
SPLINE
  5
2E3
100
AcDbEntity
  8
0
100
AcDbSpline
 62
9
  6
CONTINUOUS
 70
0
 71
3
 72
25
 73
21
 74
0
 42
0.0000001
 43
0.0000001
 44
0.0000000001
 40
0.0
 40
0.0
 40
0.0
 40
0.0
 40
0.0078037021
 40
0.0167159299
 40
0.0271857011
 40
0.0394666931
 40
0.05369345
 40
0.0699176862
 40
0.0881379478
 40
0.1083285599
 40
0.1544421106
 40
0.2078014922
 40
0.2678108896
 40
0.3338415771
 40
0.405254782
 40
0.4813964011
 40
0.5615810299
 40
0.6451306096
 40
0.8198269102
 40
1.0
 40
1.0
 40
1.0
 40
1.0
 10
7.3617294961
 20
6.9716433053
 30
0.0
 10
7.3615102822
 20
6.9716432977
 30
0.0
 10
7.3610392953
 20
6.9717284311
 30
0.0
 10
7.360347673
 20
6.9720666447
 30
0.0
 10
7.3596359862
 20
6.9726068176
 30
0.0
 10
7.3589026197
 20
6.9733457988
 30
0.0
 10
7.358147929
 20
6.9742812856
 30
0.0
 10
7.3573743021
 20
6.9754098603
 30
0.0
 10
7.3565847941
 20
6.9767268612
 30
0.0
 10
7.3554658982
 20
6.9788219423
 30
0.0
 10
7.3540720495
 20
6.9818843403
 30
0.0
 10
7.3524609
 20
6.9860665672
 30
0.0
 10
7.3508772459
 20
6.9908526007
 30
0.0
 10
7.349353314
 20
6.9961872444
 30
0.0
 10
7.3479219776
 20
7.002015205
 30
0.0
 10
7.3466143254
 20
7.0082788069
 30
0.0
 10
7.3454546608
 20
7.0149178551
 30
0.0
 10
7.3441193962
 20
7.0243318921
 30
0.0
 10
7.3429752462
 20
7.0366027629
 30
0.0
 10
7.3426666608
 20
7.0465740501
 30
0.0
 10
7.3426671998
 20
7.0516352963
 30
0.0
  0
SPLINE
  5
2E4
100
AcDbEntity
  8
0
100
AcDbSpline
 62
9
  6
CONTINUOUS
 70
0
 71
3
 72
11
 73
7
 74
0
 42
0.0000001
 43
0.0000001
 44
0.0000000001
 40
0.0
 40
0.0
 40
0.0
 40
0.0
 40
0.2805592676
 40
0.5424892715
 40
0.7826761715
 40
1.0
 40
1.0
 40
1.0
 40
1.0
 10
15.3350929619
 20
7.0337053823
 30
0.0
 10
15.3364723115
 20
7.0313346083
 30
0.0
 10
15.3389299838
 20
7.0266273551
 30
0.0
 10
15.3420392568
 20
7.0196329811
 30
0.0
 10
15.3446299256
 20
7.0130926703
 30
0.0
 10
15.346186051
 20
7.0088992577
 30
0.0
 10
15.3469218849
 20
7.0069061193
 30
0.0
  0
LINE
  5
2E5
100
AcDbEntity
  8
0
100
AcDbLine
 62
9
  6
CONTINUOUS
 10
15.3469225055
 20
7.0069061192
 11
14.5327174803
 21
7.7453762936
  0
SPLINE
  5
2E6
100
AcDbEntity
  8
0
100
AcDbSpline
 62
9
  6
CONTINUOUS
 70
0
 71
3
 72
22
 73
18
 74
0
 42
0.0000001
 43
0.0000001
 44
0.0000000001
 40
0.0
 40
0.0
 40
0.0
 40
0.0
 40
0.0617405088
 40
0.1221382751
 40
0.181305388
 40
0.2395793296
 40
0.2975709952
 40
0.3557324939
 40
0.4143967874
 40
0.4738672891
 40
0.5343963723
 40
0.5964216275
 40
0.6601121723
 40
0.7253565268
 40
0.8598329234
 40
0.9293091579
 40
1.0
 40
1.0
 40
1.0
 40
1.0
 10
14.5327189478
 20
7.7453767802
 30
0.0
 10
14.5325474257
 20
7.7475508546
 30
0.0
 10
14.5325457217
 20
7.7518868759
 30
0.0
 10
14.5335866641
 20
7.7582346334
 30
0.0
 10
14.5356569976
 20
7.7642004367
 30
0.0
 10
14.5387492465
 20
7.7696154399
 30
0.0
 10
14.5428320317
 20
7.7742836401
 30
0.0
 10
14.5477493315
 20
7.778082582
 30
0.0
 10
14.5533504658
 20
7.7808875689
 30
0.0
 10
14.5594459474
 20
7.7826498121
 30
0.0
 10
14.5658710114
 20
7.7833233112
 30
0.0
 10
14.5724642967
 20
7.7829664841
 30
0.0
 10
14.579100801
 20
7.7816477422
 30
0.0
 10
14.5879359208
 20
7.7786609785
 30
0.0
 10
14.5963118581
 20
7.7739670343
 30
0.0
 10
14.6040045358
 20
7.7680460953
 30
0.0
 10
14.6076509808
 20
7.7646848823
 30
0.0
 10
14.6094165526
 20
7.7629191935
 30
0.0
  0
SPLINE
  5
2E7
100
AcDbEntity
  8
0
100
AcDbSpline
 62
9
  6
CONTINUOUS
 70
0
 71
3
 72
9
 73
5
 74
0
 42
0.0000001
 43
0.0000001
 44
0.0000000001
 40
0.0
 40
0.0
 40
0.0
 40
0.0
 40
0.254936026
 40
1.0
 40
1.0
 40
1.0
 40
1.0
 10
15.3225367963
 20
7.0497987103
 30
0.0
 10
15.3237652162
 20
7.0485703686
 30
0.0
 10
15.3284445598
 20
7.0436174106
 30
0.0
 10
15.3325413025
 20
7.0380947004
 30
0.0
 10
15.3350928597
 20
7.0337054105
 30
0.0
  0
SPLINE
  5
2E8
100
AcDbEntity
  8
0
100
AcDbSpline
 62
9
  6
CONTINUOUS
 70
0
 71
3
 72
27
 73
23
 74
0
 42
0.0000001
 43
0.0000001
 44
0.0000000001
 40
0.0
 40
0.0
 40
0.0
 40
0.0
 40
0.06248848
 40
0.125087594
 40
0.1563866342
 40
0.187665154
 40
0.218929663
 40
0.2501936038
 40
0.2814625182
 40
0.3127328165
 40
0.3440036236
 40
0.3752798949
 40
0.4377962405
 40
0.5003332509
 40
0.5628644356
 40
0.5941290899
 40
0.6253897598
 40
0.6878559736
 40
0.75031773
 40
0.8127695468
 40
0.8752564321
 40
1.0
 40
1.0
 40
1.0
 40
1.0
 10
14.4950466738
 20
7.7453379129
 30
0.0
 10
14.4950453185
 20
7.7493807483
 30
0.0
 10
14.4956477473
 20
7.7574859279
 30
0.0
 10
14.497930922
 20
7.7673876013
 30
0.0
 10
14.5006924814
 20
7.7750090866
 30
0.0
 10
14.5032185801
 20
7.7805375203
 30
0.0
 10
14.506187284
 20
7.7858388187
 30
0.0
 10
14.5095873826
 20
7.7908738528
 30
0.0
 10
14.5133961388
 20
7.7956077078
 30
0.0
 10
14.5175861476
 20
7.8000082776
 30
0.0
 10
14.522132892
 20
7.8040407385
 30
0.0
 10
14.5286218116
 20
7.8088870108
 30
0.0
 10
14.5374578796
 20
7.8139123855
 30
0.0
 10
14.5488965234
 20
7.8181162508
 30
0.0
 10
14.558863349
 20
7.8200814044
 30
0.0
 10
14.56693536
 20
7.8207213979
 30
0.0
 10
14.5750283741
 20
7.8207606049
 30
0.0
 10
14.5851154606
 20
7.8197032358
 30
0.0
 10
14.5969169516
 20
7.8167793015
 30
0.0
 10
14.6082333597
 20
7.8123294956
 30
0.0
 10
14.6224412792
 20
7.804581952
 30
0.0
 10
14.6319935716
 20
7.7969110599
 30
0.0
 10
14.6377001069
 20
7.7912040836
 30
0.0
  0
LINE
  5
2E9
100
AcDbEntity
  8
0
100
AcDbLine
 62
9
  6
CONTINUOUS
 10
14.5327174803
 20
7.7453776708
 11
14.4950457568
 21
7.7453379125
  0
SPLINE
  5
2EA
100
AcDbEntity
  8
0
100
AcDbSpline
 62
9
  6
CONTINUOUS
 70
0
 71
3
 72
16
 73
12
 74
0
 42
0.0000001
 43
0.0000001
 44
0.0000000001
 40
0.0
 40
0.0
 40
0.0
 40
0.0
 40
0.1174224298
 40
0.2415155145
 40
0.3707127954
 40
0.5021552661
 40
0.6332172951
 40
0.6979379627
 40
0.7615454815
 40
0.8841786464
 40
1.0
 40
1.0
 40
1.0
 40
1.0
 10
14.5136551832
 20
6.9716433053
 30
0.0
 10
14.5136551836
 20
6.9740818056
 30
0.0
 10
14.5131952179
 20
6.9791075191
 30
0.0
 10
14.5110941504
 20
6.9865624451
 30
0.0
 10
14.5074111941
 20
6.9937126381
 30
0.0
 10
14.502317566
 20
7.0001269502
 30
0.0
 10
14.49701484
 20
7.0044632185
 30
0.0
 10
14.4923759584
 20
7.0072150545
 30
0.0
 10
14.4876427776
 20
7.0094167402
 30
0.0
 10
14.4815769581
 20
7.0111759064
 30
0.0
 10
14.4766151238
 20
7.0116433083
 30
0.0
 10
14.4742098729
 20
7.0116433083
 30
0.0
  0
SPLINE
  5
2EB
100
AcDbEntity
  8
0
100
AcDbSpline
 62
9
  6
CONTINUOUS
 70
0
 71
3
 72
18
 73
14
 74
0
 42
0.0000001
 43
0.0000001
 44
0.0000000001
 40
0.0
 40
0.0
 40
0.0
 40
0.0
 40
0.1638950194
 40
0.3240336354
 40
0.4766399793
 40
0.617969551
 40
0.7438977975
 40
0.799940128
 40
0.8507560041
 40
0.8960176016
 40
0.935705834
 40
0.9701095273
 40
1.0
 40
1.0
 40
1.0
 40
1.0
 10
14.4950441591
 20
7.0516433047
 30
0.0
 10
14.4950446514
 20
7.0490304683
 30
0.0
 10
14.4946715175
 20
7.0438584199
 30
0.0
 10
14.4931125937
 20
7.0363991174
 30
0.0
 10
14.4906823876
 20
7.0295573248
 30
0.0
 10
14.4876541869
 20
7.0235692834
 30
0.0
 10
14.484744359
 20
7.0192926964
 30
0.0
 10
14.4823169662
 20
7.0164809272
 30
0.0
 10
14.4805807407
 20
7.0147829086
 30
0.0
 10
14.4788867739
 20
7.0134287535
 30
0.0
 10
14.4772574886
 20
7.0124330375
 30
0.0
 10
14.475712814
 20
7.0118078247
 30
0.0
 10
14.4746865503
 20
7.0116432383
 30
0.0
 10
14.4742100324
 20
7.0116433083
 30
0.0
  0
SPLINE
  5
2EC
100
AcDbEntity
  8
0
100
AcDbSpline
 62
9
  6
CONTINUOUS
 70
0
 71
3
 72
19
 73
15
 74
0
 42
0.0000001
 43
0.0000001
 44
0.0000000001
 40
0.0
 40
0.0
 40
0.0
 40
0.0
 40
0.1963734376
 40
0.3770478812
 40
0.5388532334
 40
0.6792774719
 40
0.7408163791
 40
0.7962526051
 40
0.8453972576
 40
0.8881220223
 40
0.9244155377
 40
0.9545498609
 40
0.9792470086
 40
1.0
 40
1.0
 40
1.0
 40
1.0
 10
15.3469225055
 20
7.0069061192
 30
0.0
 10
15.3474246192
 20
7.0043850001
 30
0.0
 10
15.3484843148
 20
6.9995626537
 30
0.0
 10
15.3502931196
 20
6.9927421118
 30
0.0
 10
15.3522105588
 20
6.9867157143
 30
0.0
 10
15.3539142573
 20
6.9822646733
 30
0.0
 10
15.3553021422
 20
6.9791932793
 30
0.0
 10
15.3562874486
 20
6.9772536866
 30
0.0
 10
15.3572561915
 20
6.9755849281
 30
0.0
 10
15.358201566
 20
6.9741966487
 30
0.0
 10
15.3591180847
 20
6.973096517
 30
0.0
 10
15.3600041167
 20
6.9722898478
 30
0.0
 10
15.360861667
 20
6.9717781309
 30
0.0
 10
15.3614578283
 20
6.9716432972
 30
0.0
 10
15.3617294961
 20
6.9716433053
 30
0.0
  0
SPLINE
  5
2ED
100
AcDbEntity
  8
0
100
AcDbSpline
 62
9
  6
CONTINUOUS
 70
0
 71
3
 72
25
 73
21
 74
0
 42
0.0000001
 43
0.0000001
 44
0.0000000001
 40
0.0
 40
0.0
 40
0.0
 40
0.0
 40
0.0077992028
 40
0.0167083221
 40
0.0271754143
 40
0.0394525627
 40
0.0536734073
 40
0.0698958857
 40
0.0881178244
 40
0.1083099743
 40
0.1544131667
 40
0.207761043
 40
0.2677749337
 40
0.3338284475
 40
0.4052673584
 40
0.4814122612
 40
0.5615854308
 40
0.6451436659
 40
0.8199034917
 40
1.0
 40
1.0
 40
1.0
 40
1.0
 10
14.5136551893
 20
6.9716433053
 30
0.0
 10
14.5138742776
 20
6.9716432547
 30
0.0
 10
14.5143450626
 20
6.9717283991
 30
0.0
 10
14.5150363449
 20
6.9720666412
 30
0.0
 10
14.5157477445
 20
6.9726067382
 30
0.0
 10
14.5164808619
 20
6.9733454685
 30
0.0
 10
14.5172354828
 20
6.9742806006
 30
0.0
 10
14.5180089979
 20
6.9754090576
 30
0.0
 10
14.5187985491
 20
6.9767260827
 30
0.0
 10
14.5199175369
 20
6.9788208901
 30
0.0
 10
14.5213121094
 20
6.9818823286
 30
0.0
 10
14.5229239595
 20
6.9860637971
 30
0.0
 10
14.5245077581
 20
6.9908502865
 30
0.0
 10
14.5260306363
 20
6.9961868132
 30
0.0
 10
14.5274611842
 20
7.0020164489
 30
0.0
 10
14.5287711293
 20
7.008280088
 30
0.0
 10
14.529930583
 20
7.0149192326
 30
0.0
 10
14.5312650388
 20
7.0243351523
 30
0.0
 10
14.5324064092
 20
7.0366061034
 30
0.0
 10
14.5327183163
 20
7.046576938
 30
0.0
 10
14.5327174803
 20
7.0516360483
 30
0.0
  0
SPLINE
  5
2EE
100
AcDbEntity
  8
0
100
AcDbSpline
 62
9
  6
CONTINUOUS
 70
0
 71
3
 72
16
 73
12
 74
0
 42
0.0000001
 43
0.0000001
 44
0.0000000001
 40
0.0
 40
0.0
 40
0.0
 40
0.0
 40
0.115821635
 40
0.2384550249
 40
0.3020626265
 40
0.3667833552
 40
0.4978454355
 40
0.6292878506
 40
0.7584849848
 40
0.8825778453
 40
1.0
 40
1.0
 40
1.0
 40
1.0
 10
15.4011748122
 20
7.011643297
 30
0.0
 10
15.3987695551
 20
7.0116432973
 30
0.0
 10
15.3938077095
 20
7.0111758939
 30
0.0
 10
15.3877418776
 20
7.0094167224
 30
0.0
 10
15.3830086901
 20
7.007215031
 30
0.0
 10
15.3783698058
 20
7.0044631899
 30
0.0
 10
15.3730670802
 20
7.0001269176
 30
0.0
 10
15.3679734561
 20
6.9937126049
 30
0.0
 10
15.3642905055
 20
6.9865624178
 30
0.0
 10
15.3621894411
 20
6.9791075038
 30
0.0
 10
15.3617294746
 20
6.9740818002
 30
0.0
 10
15.3617294736
 20
6.9716433053
 30
0.0
  0
SPLINE
  5
2EF
100
AcDbEntity
  8
0
100
AcDbSpline
 62
9
  6
CONTINUOUS
 70
0
 71
3
 72
15
 73
11
 74
0
 42
0.0000001
 43
0.0000001
 44
0.0000000001
 40
0.0
 40
0.0
 40
0.0
 40
0.0
 40
0.0948994958
 40
0.200245137
 40
0.3158221556
 40
0.4412319526
 40
0.5750043829
 40
0.7144369831
 40
0.8570334863
 40
1.0
 40
1.0
 40
1.0
 40
1.0
 10
15.3469231538
 20
7.0069061191
 30
0.0
 10
15.3474996906
 20
7.0082345357
 30
0.0
 10
15.3490505545
 20
7.0108966705
 30
0.0
 10
15.3522038537
 20
7.0145685903
 30
0.0
 10
15.3562421
 20
7.0180047333
 30
0.0
 10
15.361008647
 20
7.0211807433
 30
0.0
 10
15.3663642174
 20
7.0240826581
 30
0.0
 10
15.372230052
 20
7.026535621
 30
0.0
 10
15.3784706831
 20
7.028345289
 30
0.0
 10
15.3827635192
 20
7.0291374656
 30
0.0
 10
15.3849252858
 20
7.029431093
 30
0.0
  0
SPLINE
  5
2F0
100
AcDbEntity
  8
0
100
AcDbSpline
 62
9
  6
CONTINUOUS
 70
0
 71
3
 72
16
 73
12
 74
0
 42
0.0000001
 43
0.0000001
 44
0.0000000001
 40
0.0
 40
0.0
 40
0.0
 40
0.0
 40
0.0726030271
 40
0.1140171444
 40
0.1592447758
 40
0.2615686734
 40
0.3799024413
 40
0.5138439722
 40
0.6626918919
 40
0.8252246525
 40
1.0
 40
1.0
 40
1.0
 40
1.0
 10
15.4011748127
 20
7.0116433053
 30
0.0
 10
15.400569581
 20
7.0116432958
 30
0.0
 10
15.3996176897
 20
7.0118370936
 30
0.0
 10
15.3983886578
 20
7.012339068
 30
0.0
 10
15.3969996033
 20
7.0130889595
 30
0.0
 10
15.3952047529
 20
7.0144054918
 30
0.0
 10
15.3930618375
 20
7.0164502369
 30
0.0
 10
15.3908973955
 20
7.0190062614
 30
0.0
 10
15.3887636267
 20
7.0220496559
 30
0.0
 10
15.386720051
 20
7.0255543877
 30
0.0
 10
15.3855031034
 20
7.0280932829
 30
0.0
 10
15.3849252859
 20
7.0294307635
 30
0.0
  0
SPLINE
  5
2F1
100
AcDbEntity
  8
0
100
AcDbSpline
 62
9
  6
CONTINUOUS
 70
0
 71
3
 72
12
 73
8
 74
0
 42
0.0000001
 43
0.0000001
 44
0.0000000001
 40
0.0
 40
0.0
 40
0.0
 40
0.0
 40
0.2330194769
 40
0.4818188895
 40
0.6098705852
 40
0.7393475196
 40
1.0
 40
1.0
 40
1.0
 40
1.0
 10
15.3849252859
 20
7.0294307635
 30
0.0
 10
15.3840915531
 20
7.031340404
 30
0.0
 10
15.3822655742
 20
7.0352462362
 30
0.0
 10
15.3795648856
 20
7.039994135
 30
0.0
 10
15.3770269498
 20
7.0437465268
 30
0.0
 10
15.3742064494
 20
7.0474254647
 30
0.0
 10
15.3718479182
 20
7.0500088416
 30
0.0
 10
15.3701862348
 20
7.0516433053
 30
0.0
  0
SPLINE
  5
2F2
100
AcDbEntity
  8
0
100
AcDbSpline
 62
9
  6
CONTINUOUS
 70
0
 71
3
 72
9
 73
5
 74
0
 42
0.0000001
 43
0.0000001
 44
0.0000000001
 40
0.0
 40
0.0
 40
0.0
 40
0.0
 40
0.4999726939
 40
1.0
 40
1.0
 40
1.0
 40
1.0
 10
15.3701862348
 20
7.0516433053
 30
0.0
 10
15.3676934487
 20
7.0565217335
 30
0.0
 10
15.3618850441
 20
7.0658772694
 30
0.0
 10
15.354696337
 20
7.0742081804
 30
0.0
 10
15.3508219252
 20
7.0780822653
 30
0.0
  0
SPLINE
  5
2F3
100
AcDbEntity
  8
0
100
AcDbSpline
 62
7
  6
CONTINUOUS
 70
0
 71
3
 72
26
 73
22
 74
0
 42
0.0000001
 43
0.0000001
 44
0.0000000001
 40
0.0
 40
0.0
 40
0.0
 40
0.0
 40
0.1898333318
 40
0.3725598106
 40
0.4590526409
 40
0.5412393534
 40
0.6183502703
 40
0.6896579354
 40
0.7545363203
 40
0.8124056241
 40
0.8628064921
 40
0.8850869026
 40
0.9053693312
 40
0.9236402046
 40
0.9398984506
 40
0.9541600005
 40
0.9664700741
 40
0.9769340296
 40
0.985748238
 40
0.9932521849
 40
1.0
 40
1.0
 40
1.0
 40
1.0
 10
10.9376923427
 20
10.6288994606
 30
0.0
 10
10.909241216
 20
10.6288994606
 30
0.0
 10
10.853401383
 20
10.6296519597
 30
0.0
 10
10.7846490617
 20
10.6324928822
 30
0.0
 10
10.7320925443
 20
10.6359319972
 30
0.0
 10
10.6953788111
 20
10.6389762338
 30
0.0
 10
10.6609944425
 20
10.6424983324
 30
0.0
 10
10.6292711155
 20
10.6464680143
 30
0.0
 10
10.600513012
 20
10.6508378439
 30
0.0
 10
10.5749924739
 20
10.6555692651
 30
0.0
 10
10.5559079772
 20
10.659924423
 30
0.0
 10
10.5424712361
 20
10.6636175026
 30
0.0
 10
10.5337657097
 20
10.666334086
 30
0.0
 10
10.5260288547
 20
10.6691038157
 30
0.0
 10
10.5192760598
 20
10.6719199081
 30
0.0
 10
10.5135205147
 20
10.6747754403
 30
0.0
 10
10.5087720674
 20
10.6776674638
 30
0.0
 10
10.505033543
 20
10.68059576
 30
0.0
 10
10.5023036194
 20
10.683572611
 30
0.0
 10
10.5005977209
 20
10.6866274389
 30
0.0
 10
10.5001936747
 20
10.6887763686
 30
0.0
 10
10.5001937535
 20
10.6897876923
 30
0.0
  0
SPLINE
  5
2F4
100
AcDbEntity
  8
0
100
AcDbSpline
 62
7
  6
CONTINUOUS
 70
0
 71
3
 72
17
 73
13
 74
0
 42
0.0000001
 43
0.0000001
 44
0.0000000001
 40
0.0
 40
0.0
 40
0.0
 40
0.0
 40
0.1540911273
 40
0.3053735181
 40
0.4506899228
 40
0.587364241
 40
0.7128300036
 40
0.8247041314
 40
0.8749040123
 40
0.9209692316
 40
0.9627215397
 40
1.0
 40
1.0
 40
1.0
 40
1.0
 10
10.9376923427
 20
10.749423366
 30
0.0
 10
10.9177524657
 20
10.749423366
 30
0.0
 10
10.8782350842
 20
10.7490396113
 30
0.0
 10
10.8199357134
 20
10.7473282582
 30
0.0
 10
10.7639351897
 20
10.7445108664
 30
0.0
 10
10.7113451563
 20
10.7406491875
 30
0.0
 10
10.6631813269
 20
10.7358267638
 30
0.0
 10
10.6262861662
 20
10.7309327727
 30
0.0
 10
10.5997131166
 20
10.7265254737
 30
0.0
 10
10.5821702674
 20
10.7231629115
 30
0.0
 10
10.5663669695
 20
10.719644087
 30
0.0
 10
10.5564688961
 20
10.7170574991
 30
0.0
 10
10.5518335192
 20
10.7157219186
 30
0.0
  0
SPLINE
  5
2F5
100
AcDbEntity
  8
0
100
AcDbSpline
 62
7
  6
CONTINUOUS
 70
0
 71
3
 72
9
 73
5
 74
0
 42
0.0000001
 43
0.0000001
 44
0.0000000001
 40
0.0
 40
0.0
 40
0.0
 40
0.0
 40
0.532161507
 40
1.0
 40
1.0
 40
1.0
 40
1.0
 10
10.5434102755
 20
10.7131395509
 30
0.0
 10
10.5405268811
 20
10.712196543
 30
0.0
 10
10.5351444498
 20
10.7103115844
 30
0.0
 10
10.5298733581
 20
10.7081279583
 30
0.0
 10
10.527451606
 20
10.7070108234
 30
0.0
  0
SPLINE
  5
2F6
100
AcDbEntity
  8
0
100
AcDbSpline
 62
7
  6
CONTINUOUS
 70
0
 71
3
 72
11
 73
7
 74
0
 42
0.0000001
 43
0.0000001
 44
0.0000000001
 40
0.0
 40
0.0
 40
0.0
 40
0.0
 40
0.2954820553
 40
0.559855155
 40
0.7941117458
 40
1.0
 40
1.0
 40
1.0
 40
1.0
 10
10.527451606
 20
10.7070108234
 30
0.0
 10
10.5259643098
 20
10.7063247455
 30
0.0
 10
10.5231772045
 20
10.7049555033
 30
0.0
 10
10.5193550837
 20
10.7027641506
 30
0.0
 10
10.5161308222
 20
10.7005524501
 30
0.0
 10
10.5142662743
 20
10.6989680599
 30
0.0
 10
10.5134515802
 20
10.6981688195
 30
0.0
  0
SPLINE
  5
2F7
100
AcDbEntity
  8
0
100
AcDbSpline
 62
7
  6
CONTINUOUS
 70
0
 71
3
 72
11
 73
7
 74
0
 42
0.0000001
 43
0.0000001
 44
0.0000000001
 40
0.0
 40
0.0
 40
0.0
 40
0.0
 40
0.2058882542
 40
0.440144845
 40
0.7045179447
 40
1.0
 40
1.0
 40
1.0
 40
1.0
 10
11.3619331053
 20
10.6981688195
 30
0.0
 10
11.3611184112
 20
10.6989680599
 30
0.0
 10
11.3592538633
 20
10.7005524501
 30
0.0
 10
11.3560296018
 20
10.7027641506
 30
0.0
 10
11.352207481
 20
10.7049555033
 30
0.0
 10
11.3494203757
 20
10.7063247455
 30
0.0
 10
11.3479330795
 20
10.7070108234
 30
0.0
  0
SPLINE
  5
2F8
100
AcDbEntity
  8
0
100
AcDbSpline
 62
7
  6
CONTINUOUS
 70
0
 71
3
 72
9
 73
5
 74
0
 42
0.0000001
 43
0.0000001
 44
0.0000000001
 40
0.0
 40
0.0
 40
0.0
 40
0.0
 40
0.467838493
 40
1.0
 40
1.0
 40
1.0
 40
1.0
 10
11.3479330795
 20
10.7070108234
 30
0.0
 10
11.3455113274
 20
10.7081279583
 30
0.0
 10
11.3402402357
 20
10.7103115844
 30
0.0
 10
11.3348578043
 20
10.712196543
 30
0.0
 10
11.33197441
 20
10.7131395509
 30
0.0
  0
SPLINE
  5
2F9
100
AcDbEntity
  8
0
100
AcDbSpline
 62
7
  6
CONTINUOUS
 70
0
 71
3
 72
17
 73
13
 74
0
 42
0.0000001
 43
0.0000001
 44
0.0000000001
 40
0.0
 40
0.0
 40
0.0
 40
0.0
 40
0.0372784603
 40
0.0790307684
 40
0.1250959877
 40
0.1752958686
 40
0.2871699964
 40
0.412635759
 40
0.5493100772
 40
0.6946264819
 40
0.8459088728
 40
1.0
 40
1.0
 40
1.0
 40
1.0
 10
11.3235511663
 20
10.7157219186
 30
0.0
 10
11.3189157894
 20
10.7170574991
 30
0.0
 10
11.309017716
 20
10.719644087
 30
0.0
 10
11.2932144181
 20
10.7231629115
 30
0.0
 10
11.2756715689
 20
10.7265254737
 30
0.0
 10
11.2490985193
 20
10.7309327727
 30
0.0
 10
11.2122033585
 20
10.7358267638
 30
0.0
 10
11.1640395292
 20
10.7406491876
 30
0.0
 10
11.1114494957
 20
10.7445108664
 30
0.0
 10
11.0554489721
 20
10.7473282582
 30
0.0
 10
10.9971496013
 20
10.7490396114
 30
0.0
 10
10.9576322197
 20
10.7494233661
 30
0.0
 10
10.9376923427
 20
10.749423366
 30
0.0
  0
SPLINE
  5
2FA
100
AcDbEntity
  8
0
100
AcDbSpline
 62
7
  6
CONTINUOUS
 70
0
 71
3
 72
26
 73
22
 74
0
 42
0.0000001
 43
0.0000001
 44
0.0000000001
 40
0.0
 40
0.0
 40
0.0
 40
0.0
 40
0.0067478023
 40
0.0142514781
 40
0.0230651688
 40
0.0335287804
 40
0.0458390429
 40
0.060100113
 40
0.0763573176
 40
0.0946271587
 40
0.1149091724
 40
0.1371894432
 40
0.187588214
 40
0.2454567665
 40
0.310334814
 40
0.3816427407
 40
0.4587550367
 40
0.540942395
 40
0.6274365528
 40
0.8101670227
 40
1.0
 40
1.0
 40
1.0
 40
1.0
 10
11.375190932
 20
10.6897876923
 30
0.0
 10
11.3751908532
 20
10.6887763707
 30
0.0
 10
11.3747867139
 20
10.6866275519
 30
0.0
 10
11.3730810748
 20
10.6835727329
 30
0.0
 10
11.3703514106
 20
10.6805958622
 30
0.0
 10
11.3666129833
 20
10.6776675879
 30
0.0
 10
11.3618644904
 20
10.674775825
 30
0.0
 10
11.3561091834
 20
10.671920287
 30
0.0
 10
11.3493568002
 20
10.6691041991
 30
0.0
 10
11.3416203406
 20
10.6663344739
 30
0.0
 10
11.3329150307
 20
10.6636179938
 30
0.0
 10
11.3194786527
 20
10.6599251128
 30
0.0
 10
11.3003946821
 20
10.6555696934
 30
0.0
 10
11.2748745967
 20
10.6508384459
 30
0.0
 10
11.2461166498
 20
10.6464684765
 30
0.0
 10
11.2143931463
 20
10.6424986621
 30
0.0
 10
11.1800084406
 20
10.6389765666
 30
0.0
 10
11.1432942286
 20
10.6359321128
 30
0.0
 10
11.0907368256
 20
10.6324929858
 30
0.0
 10
11.0219837782
 20
10.6296519735
 30
0.0
 10
10.9661434107
 20
10.6288994606
 30
0.0
 10
10.9376923427
 20
10.6288994606
 30
0.0
  0
SPLINE
  5
2FB
100
AcDbEntity
  8
0
100
AcDbSpline
 62
7
  6
CONTINUOUS
 70
0
 71
3
 72
16
 73
12
 74
0
 42
0.0000001
 43
0.0000001
 44
0.0000000001
 40
0.0
 40
0.0
 40
0.0
 40
0.0
 40
0.0343590523
 40
0.0698318568
 40
0.1477829868
 40
0.240155643
 40
0.3505474276
 40
0.4809846255
 40
0.6324772569
 40
0.8054409407
 40
1.0
 40
1.0
 40
1.0
 40
1.0
 10
10.5001937535
 20
10.6897876923
 30
0.0
 10
10.5001937941
 20
10.6903086885
 30
0.0
 10
10.5002933481
 20
10.6913699817
 30
0.0
 10
10.5009018228
 20
10.693537492
 30
0.0
 10
10.5024930013
 20
10.696277293
 30
0.0
 10
10.5054547496
 20
10.6993677526
 30
0.0
 10
10.5095071886
 20
10.7024118437
 30
0.0
 10
10.5146535467
 20
10.7054141828
 30
0.0
 10
10.5208888989
 20
10.7083777014
 30
0.0
 10
10.5282017974
 20
10.7112967006
 30
0.0
 10
10.5334763846
 20
10.7131020766
 30
0.0
 10
10.5362852553
 20
10.7140041077
 30
0.0
  0
SPLINE
  5
2FC
100
AcDbEntity
  8
0
100
AcDbSpline
 62
7
  6
CONTINUOUS
 70
0
 71
3
 72
17
 73
13
 74
0
 42
0.0000001
 43
0.0000001
 44
0.0000000001
 40
0.0
 40
0.0
 40
0.0
 40
0.0
 40
0.0376146416
 40
0.0796477593
 40
0.1259406548
 40
0.1763149994
 40
0.2883816414
 40
0.4138556011
 40
0.5503761742
 40
0.6954133604
 40
0.8463269033
 40
1.0
 40
1.0
 40
1.0
 40
1.0
 10
10.5450711004
 20
10.7166497636
 30
0.0
 10
10.5498360625
 20
10.7179985976
 30
0.0
 10
10.559995038
 20
10.7206114794
 30
0.0
 10
10.5761923614
 20
10.7241684938
 30
0.0
 10
10.5941365884
 20
10.7275658574
 30
0.0
 10
10.6212573274
 20
10.7320147365
 30
0.0
 10
10.6588493723
 20
10.7369558244
 30
0.0
 10
10.7078616444
 20
10.7418237603
 30
0.0
 10
10.7613133971
 20
10.7457206897
 30
0.0
 10
10.8181843126
 20
10.748562863
 30
0.0
 10
10.8773586116
 20
10.7502888706
 30
0.0
 10
10.9174603579
 20
10.750675924
 30
0.0
 10
10.9376923427
 20
10.750675924
 30
0.0
  0
SPLINE
  5
2FD
100
AcDbEntity
  8
0
100
AcDbSpline
 62
9
  6
CONTINUOUS
 70
0
 71
3
 72
26
 73
22
 74
0
 42
0.0000001
 43
0.0000001
 44
0.0000000001
 40
0.0
 40
0.0
 40
0.0
 40
0.0
 40
0.1898297748
 40
0.372554151
 40
0.4590470007
 40
0.5412340077
 40
0.6183461673
 40
0.6896563768
 40
0.7545376622
 40
0.8124081674
 40
0.8628085279
 40
0.8850889781
 40
0.9053712341
 40
0.9236415918
 40
0.9398993061
 40
0.9541606152
 40
0.9664707812
 40
0.9769345332
 40
0.9857484435
 40
0.9932522199
 40
1.0
 40
1.0
 40
1.0
 40
1.0
 10
10.9376923427
 20
11.2458099583
 30
0.0
 10
10.9092416637
 20
11.2458099583
 30
0.0
 10
10.8534025109
 20
11.2450575236
 30
0.0
 10
10.7846508278
 20
11.2422166428
 30
0.0
 10
10.7320944148
 20
11.2387776242
 30
0.0
 10
10.6953803318
 20
11.2357334441
 30
0.0
 10
10.6609952474
 20
11.2322113065
 30
0.0
 10
10.6292708354
 20
11.2282414494
 30
0.0
 10
10.6005116541
 20
11.2238715137
 30
0.0
 10
10.5749904911
 20
11.2191400587
 30
0.0
 10
10.5559058704
 20
11.2147846923
 30
0.0
 10
10.5424691671
 20
11.2110916845
 30
0.0
 10
10.5337637008
 20
11.2083751391
 30
0.0
 10
10.5260270155
 20
11.2056054033
 30
0.0
 10
10.5192744064
 20
11.2027893071
 30
0.0
 10
10.5135189611
 20
11.1999337715
 30
0.0
 10
10.5087704726
 20
11.197041885
 30
0.0
 10
10.5050319921
 20
11.1941135991
 30
0.0
 10
10.5023022008
 20
11.1911367397
 30
0.0
 10
10.5005964397
 20
11.1880819184
 30
0.0
 10
10.5001923427
 20
11.1859330481
 30
0.0
 10
10.5001923427
 20
11.1849217267
 30
0.0
  0
SPLINE
  5
2FE
100
AcDbEntity
  8
0
100
AcDbSpline
 62
7
  6
CONTINUOUS
 70
0
 71
3
 72
17
 73
13
 74
0
 42
0.0000001
 43
0.0000001
 44
0.0000000001
 40
0.0
 40
0.0
 40
0.0
 40
0.0
 40
0.1536257793
 40
0.3044938979
 40
0.4494954103
 40
0.5859966344
 40
0.7114699179
 40
0.8235602313
 40
0.8739553836
 40
0.9202762519
 40
0.9623446227
 40
1.0
 40
1.0
 40
1.0
 40
1.0
 10
10.9376923427
 20
10.750675924
 30
0.0
 10
10.9579095022
 20
10.750675924
 30
0.0
 10
10.9979819991
 20
10.7502894534
 30
0.0
 10
11.0571142878
 20
10.7485659528
 30
0.0
 10
11.1139479343
 20
10.7457279069
 30
0.0
 10
11.1673698971
 20
10.7418365838
 30
0.0
 10
11.2163622538
 20
10.7369752378
 30
0.0
 10
11.2539447343
 20
10.7320410558
 30
0.0
 10
11.281064266
 20
10.7275981216
 30
0.0
 10
11.299012624
 20
10.7242049182
 30
0.0
 10
11.3152176747
 20
10.7206522279
 30
0.0
 10
11.3253832063
 20
10.7180426657
 30
0.0
 10
11.3301520316
 20
10.7166955266
 30
0.0
  0
LINE
  5
2FF
100
AcDbEntity
  8
0
100
AcDbLine
 62
7
  6
CONTINUOUS
 10
11.3391908503
 20
10.7139746926
 11
11.3496104287
 21
10.7103015223
  0
SPLINE
  5
300
100
AcDbEntity
  8
0
100
AcDbSpline
 62
7
  6
CONTINUOUS
 70
0
 71
3
 72
15
 73
11
 74
0
 42
0.0000001
 43
0.0000001
 44
0.0000000001
 40
0.0
 40
0.0
 40
0.0
 40
0.0
 40
0.1876944986
 40
0.3553390732
 40
0.5032627354
 40
0.6321814901
 40
0.7434328623
 40
0.8391972912
 40
0.9229693747
 40
1.0
 40
1.0
 40
1.0
 40
1.0
 10
11.3496104287
 20
10.7103015223
 30
0.0
 10
11.3516131226
 20
10.7095225809
 30
0.0
 10
11.3553740363
 20
10.7079665418
 30
0.0
 10
11.3605702238
 20
10.7054689443
 30
0.0
 10
11.3649941833
 20
10.7029432276
 30
0.0
 10
11.3686407073
 20
10.7003904849
 30
0.0
 10
11.3715094396
 20
10.6978102592
 30
0.0
 10
11.373598501
 20
10.695191998
 30
0.0
 10
11.3748907547
 20
10.6925202921
 30
0.0
 10
11.3751910007
 20
10.6906695872
 30
0.0
 10
11.375190932
 20
10.6897876923
 30
0.0
  0
SPLINE
  5
301
100
AcDbEntity
  8
0
100
AcDbSpline
 62
9
  6
CONTINUOUS
 70
0
 71
3
 72
26
 73
22
 74
0
 42
0.0000001
 43
0.0000001
 44
0.0000000001
 40
0.0
 40
0.0
 40
0.0
 40
0.0
 40
0.0067477801
 40
0.0142515565
 40
0.0230654668
 40
0.0335292188
 40
0.0458393848
 40
0.0601006939
 40
0.0763584082
 40
0.0946287659
 40
0.1149110219
 40
0.1371914721
 40
0.1875918326
 40
0.2454623378
 40
0.3103436232
 40
0.3816538327
 40
0.4587659923
 40
0.5409529993
 40
0.627445849
 40
0.8101702252
 40
1.0
 40
1.0
 40
1.0
 40
1.0
 10
11.3751923427
 20
11.1849217267
 30
0.0
 10
11.3751923427
 20
11.1859330481
 30
0.0
 10
11.3747882458
 20
11.1880819184
 30
0.0
 10
11.3730824847
 20
11.1911367397
 30
0.0
 10
11.3703526934
 20
11.1941135991
 30
0.0
 10
11.3666142129
 20
11.197041885
 30
0.0
 10
11.3618657243
 20
11.1999337715
 30
0.0
 10
11.3561102791
 20
11.2027893071
 30
0.0
 10
11.3493576699
 20
11.2056054033
 30
0.0
 10
11.3416209847
 20
11.2083751391
 30
0.0
 10
11.3329155184
 20
11.2110916845
 30
0.0
 10
11.319478815
 20
11.2147846923
 30
0.0
 10
11.3003941944
 20
11.2191400587
 30
0.0
 10
11.2748730314
 20
11.2238715137
 30
0.0
 10
11.2461138501
 20
11.2282414494
 30
0.0
 10
11.214389438
 20
11.2322113065
 30
0.0
 10
11.1800043536
 20
11.2357334441
 30
0.0
 10
11.1432902707
 20
11.2387776242
 30
0.0
 10
11.0907338577
 20
11.2422166428
 30
0.0
 10
11.0219821746
 20
11.2450575236
 30
0.0
 10
10.9661430217
 20
11.2458099583
 30
0.0
 10
10.9376923427
 20
11.2458099583
 30
0.0
  0
SPLINE
  5
302
100
AcDbEntity
  8
0
100
AcDbSpline
 62
7
  6
CONTINUOUS
 70
0
 71
3
 72
26
 73
22
 74
0
 42
0.0000001
 43
0.0000001
 44
0.0000000001
 40
0.0
 40
0.0
 40
0.0
 40
0.0
 40
0.1898332196
 40
0.3725593864
 40
0.4590512171
 40
0.5412369243
 40
0.6183478957
 40
0.6896570207
 40
0.7545374017
 40
0.8124076342
 40
0.8628081276
 40
0.8850884484
 40
0.9053705866
 40
0.9236410496
 40
0.9398992459
 40
0.9541617221
 40
0.9664743057
 40
0.9769416251
 40
0.9857583552
 40
0.9932610881
 40
1.0
 40
1.0
 40
1.0
 40
1.0
 10
10.9376923427
 20
10.6301520185
 30
0.0
 10
10.9655581553
 20
10.6301520186
 30
0.0
 10
11.0202491866
 20
10.6308890685
 30
0.0
 10
11.0875869221
 20
10.6336715623
 30
0.0
 10
11.1390619053
 20
10.637039907
 30
0.0
 10
11.1750200758
 20
10.6400215045
 30
0.0
 10
11.2086971648
 20
10.6434711251
 30
0.0
 10
11.239768398
 20
10.6473591367
 30
0.0
 10
11.2679355342
 20
10.6516391126
 30
0.0
 10
11.2929313904
 20
10.6562735244
 30
0.0
 10
11.3116232839
 20
10.6605393228
 30
0.0
 10
11.3247836284
 20
10.6641558972
 30
0.0
 10
11.3333101508
 20
10.66681592
 30
0.0
 10
11.340887936
 20
10.6695280928
 30
0.0
 10
11.3475019547
 20
10.6722861091
 30
0.0
 10
11.3531393762
 20
10.6750835004
 30
0.0
 10
11.3577903196
 20
10.6779177271
 30
0.0
 10
11.3614517669
 20
10.680788021
 30
0.0
 10
11.3641251249
 20
10.6837048521
 30
0.0
 10
11.3657957657
 20
10.6866954303
 30
0.0
 10
11.3661923427
 20
10.6887984805
 30
0.0
 10
11.3661923427
 20
10.6897876923
 30
0.0
  0
SPLINE
  5
303
100
AcDbEntity
  8
0
100
AcDbSpline
 62
7
  6
CONTINUOUS
 70
0
 71
3
 72
26
 73
22
 74
0
 42
0.0000001
 43
0.0000001
 44
0.0000000001
 40
0.0
 40
0.0
 40
0.0
 40
0.0
 40
0.0067389119
 40
0.0142416448
 40
0.0230583749
 40
0.0335256943
 40
0.0458382779
 40
0.0601007541
 40
0.0763589504
 40
0.0946294134
 40
0.1149115516
 40
0.1371918724
 40
0.1875923658
 40
0.2454625983
 40
0.3103429793
 40
0.3816521042
 40
0.4587630757
 40
0.5409487829
 40
0.6274406136
 40
0.8101667804
 40
1.0
 40
1.0
 40
1.0
 40
1.0
 10
10.5091923427
 20
10.6897876923
 30
0.0
 10
10.5091923427
 20
10.6887984805
 30
0.0
 10
10.5095889198
 20
10.6866954303
 30
0.0
 10
10.5112595606
 20
10.6837048521
 30
0.0
 10
10.5139329186
 20
10.680788021
 30
0.0
 10
10.5175943659
 20
10.6779177271
 30
0.0
 10
10.5222453093
 20
10.6750835004
 30
0.0
 10
10.5278827307
 20
10.6722861091
 30
0.0
 10
10.5344967494
 20
10.6695280928
 30
0.0
 10
10.5420745347
 20
10.66681592
 30
0.0
 10
10.5506010571
 20
10.6641558972
 30
0.0
 10
10.5637614016
 20
10.6605393228
 30
0.0
 10
10.582453295
 20
10.6562735244
 30
0.0
 10
10.6074491513
 20
10.6516391126
 30
0.0
 10
10.6356162875
 20
10.6473591367
 30
0.0
 10
10.6666875207
 20
10.6434711251
 30
0.0
 10
10.7003646096
 20
10.6400215045
 30
0.0
 10
10.7363227802
 20
10.637039907
 30
0.0
 10
10.7877977634
 20
10.6336715623
 30
0.0
 10
10.8551354989
 20
10.6308890685
 30
0.0
 10
10.9098265302
 20
10.6301520185
 30
0.0
 10
10.9376923427
 20
10.6301520185
 30
0.0
  0
ENDSEC
  0
SECTION
  2
OBJECTS
  0
DICTIONARY
  5
C
100
AcDbDictionary
280
0
281
1
  3
ACAD_GROUP
350
D
  3
ACAD_MLINESTYLE
350
17
  3
ACAD_LAYOUT
350
1A
  3
ACAD_PLOTSETTINGS
350
19
  3
ACAD_PLOTSTYLENAME
350
E
  0
DICTIONARY
  5
D
102
{ACAD_REACTORS
330
C
102
}
100
AcDbDictionary
280
0
281
1
  0
ACDBDICTIONARYWDFLT
  5
E
102
{ACAD_REACTORS
330
C
102
}
100
AcDbDictionary
281
1
  3
Normal
350
F
100
AcDbDictionaryWithDefault
340
F
  0
DICTIONARY
  5
17
102
{ACAD_REACTORS
330
C
102
}
100
AcDbDictionary
280
0
281
1
  3
Standard
350
18
  0
DICTIONARY
  5
19
102
{ACAD_REACTORS
330
C
102
}
100
AcDbDictionary
281
1
  0
DICTIONARY
  5
1A
102
{ACAD_REACTORS
330
C
102
}
100
AcDbDictionary
281
1
  3
Model
350
304
  3
Layout1
350
305
  0
ACDBPLACEHOLDER
  5
F
102
{ACAD_REACTORS
330
E
102
}
  0
MLINESTYLE
  5
18
102
{ACAD_REACTORS
330
17
102
}
100
AcDbMlineStyle
  2
STANDARD
 70
0
  3

 62
256
 51
90.0
 52
90.0
 71
2
 49
0.5
 62
256
  6
BYLAYER
 49
-0.5
 62
256
  6
BYLAYER
  0
LAYOUT
  5
304
102
{ACAD_REACTORS
330
1A
102
}
100
AcDbPlotSettings
  1

  2
none_device
  4
ANSI_C_(22.00_x_17.00_Inches)
  6

 40
0.0
 41
0.0
 42
0.0
 43
0.0
 44
558.8
 45
431.8
 46
0.0
 47
0.0
 48
0.0
 49
0.0
140
0.0
141
0.0
142
1.0
143
1.0
 70
1024
 72
0
 73
0
 74
0
  7

 75
0
147
1.0
148
0.0
149
0.0
100
AcDbLayout
  1
Model
 70
0
 71
0
 10
0.0
 20
0.0
 11
22.0
 21
17.0
 12
0.0
 22
0.0
 32
0.0
 14
0.0
 24
0.0
 34
0.0
 15
0.0
 25
0.0
 35
0.0
146
0.0
 13
0.0
 23
0.0
 33
0.0
 16
1.0
 26
0.0
 36
0.0
 17
0.0
 27
1.0
 37
0.0
 76
0
330
202
345
0
346
0
  0
LAYOUT
  5
305
102
{ACAD_REACTORS
330
1A
102
}
100
AcDbPlotSettings
  1

  2
none_device
  4
ANSI_C_(22.00_x_17.00_Inches)
  6

 40
0.0
 41
0.0
 42
0.0
 43
0.0
 44
558.8
 45
431.8
 46
0.0
 47
0.0
 48
0.0
 49
0.0
140
0.0
141
0.0
142
1.0
143
1.0
 70
0
 72
0
 73
0
 74
0
  7

 75
0
147
1.0
148
0.0
149
0.0
100
AcDbLayout
  1
Layout1
 70
0
 71
1
 10
0.0
 20
0.0
 11
22.0
 21
17.0
 12
0.0
 22
0.0
 32
0.0
 14
0.0
 24
0.0
 34
0.0
 15
0.0
 25
0.0
 35
0.0
146
0.0
 13
0.0
 23
0.0
 33
0.0
 16
1.0
 26
0.0
 36
0.0
 17
0.0
 27
1.0
 37
0.0
 76
0
330
203
345
0
346
0
  0
ENDSEC
  0
EOF
