999
DXF file: E:\BT Custom\CADOUTPUT\_RIGHT.dxf
999
Pro/ENGINEER 2018400 by Parametric Technology Corporation
  0
SECTION
  2
HEADER
  9
$ACADVER
  1
AC1018
  9
$DWGCODEPAGE
  3
ANSI_1252
  9
$EXTMAX
 10
22.0
 20
17.0
 30
0.0
  9
$EXTMIN
 10
0.0
 20
0.0
 30
0.0
  9
$LIMMIN
 10
0.0
 20
0.0
  9
$LIMMAX
 10
22.0
 20
17.0
  9
$VIEWCTR
 10
11.0
 20
8.5
  9
$VIEWSIZE
 40
17.0
  9
$CLAYER
  8
0
  9
$LTSCALE
 40
1.21
  9
$CELTYPE
  6
BYLAYER
  9
$DIMSCALE
 40
1.0
  9
$DIMASZ
 40
0.1
  9
$DIMEXO
 40
0.0625
  9
$DIMDLI
 40
0.836
  9
$DIMEXE
 40
0.125
  9
$DIMCEN
 40
0.198
  9
$DIMLFAC
 40
1.0
  9
$DIMBLK
  1
_FILLED
  9
$DIMALT
 70
1
  9
$DIMALTD
 70
2
  9
$DIMALTTD
 70
2
  9
$DIMALTF
 40
25.4
  9
$DIMTXT
 40
0.08
  9
$DIMTOL
 70
1
  9
$DIMLIM
 70
0
  9
$DIMTFAC
 40
1.0
  9
$DIMTP
 40
0.001
  9
$DIMTM
 40
0.001
  9
$DIMGAP
 40
0.09
  9
$DIMDSEP
 70
46
  9
$AUNITS
 70
0
  9
$PDMODE
 70
3
  9
$PDSIZE
 40
0.06
  9
$HANDSEED
  5
269
  9
$TILEMODE
 70
1
  9
$MEASUREMENT
 70
0
  9
$INSUNITS
 70
1
  0
ENDSEC
  0
SECTION
  2
CLASSES
  0
CLASS
  1
ACDBDICTIONARYWDFLT
  2
AcDbDictionaryWithDefault
  3
AutoCAD 2000
 90
0
 91
1
280
0
281
0
  0
CLASS
  1
ACDBPLACEHOLDER
  2
AcDbPlaceHolder
  3
AutoCAD 2000
 90
0
 91
1
280
0
281
0
  0
CLASS
  1
LAYOUT
  2
AcDbLayout
  3
AutoCAD 2000
 90
0
 91
0
280
0
281
0
  0
ENDSEC
  0
SECTION
  2
TABLES
  0
TABLE
  2
VPORT
  5
8
100
AcDbSymbolTable
 70
2
  0
VPORT
  5
1F4
100
AcDbSymbolTableRecord
100
AcDbViewportTableRecord
  2
*ACTIVE
 70
0
 10
0.0
 20
0.0
 11
1.0
 21
1.0
 12
11.0
 22
8.5
 13
0.0
 23
0.0
 14
1.0
 24
1.0
 15
0.0
 25
0.0
 16
0.0
 26
0.0
 36
1.0
 17
0.0
 27
0.0
 37
0.0
 40
17.0
 41
1.2941176471
 42
50.0
 43
0.0
 44
0.0
 50
0.0
 51
0.0
 71
0
 72
100
 73
1
 74
1
 75
0
 76
0
 77
0
 78
0
  0
ENDTAB
  0
TABLE
  2
LTYPE
  5
5
100
AcDbSymbolTable
 70
6
  0
LTYPE
  5
14
100
AcDbSymbolTableRecord
100
AcDbLinetypeTableRecord
  2
BYBLOCK
 70
0
  3

 72
65
 73
0
 40
0.0
  0
LTYPE
  5
15
100
AcDbSymbolTableRecord
100
AcDbLinetypeTableRecord
  2
BYLAYER
 70
0
  3

 72
65
 73
0
 40
0.0
  0
LTYPE
  5
16
100
AcDbSymbolTableRecord
100
AcDbLinetypeTableRecord
  2
CONTINUOUS
 70
64
  3
Solid line
 72
65
 73
0
 40
0.0
  0
LTYPE
  5
1F5
100
AcDbSymbolTableRecord
100
AcDbLinetypeTableRecord
  2
CENTER
 70
64
  3
____ _ ____ _ ____ _ ____ _ ____ _ ____ _ ____
 72
65
 73
4
 40
0.6
 49
0.375
 74
0
 49
-0.075
 74
0
 49
0.075
 74
0
 49
-0.075
 74
0
  0
LTYPE
  5
1F6
100
AcDbSymbolTableRecord
100
AcDbLinetypeTableRecord
  2
HIDDEN
 70
64
  3
- - - - - - - - - - - - - - - - - - - -
 72
65
 73
2
 40
0.2
 49
0.1
 74
0
 49
-0.1
 74
0
  0
LTYPE
  5
1F7
100
AcDbSymbolTableRecord
100
AcDbLinetypeTableRecord
  2
PHANTOM
 70
64
  3
_____ _ _ _____ _ _ _____ _ _ _____
 72
65
 73
6
 40
0.8
 49
0.45
 74
0
 49
-0.05
 74
0
 49
0.1
 74
0
 49
-0.05
 74
0
 49
0.1
 74
0
 49
-0.05
 74
0
  0
LTYPE
  5
1F8
100
AcDbSymbolTableRecord
100
AcDbLinetypeTableRecord
  2
DOT
 70
64
  3
. . . . . . . . . . . . . . . . . . . .
 72
65
 73
2
 40
0.2
 49
0.1
 74
0
 49
-0.1
 74
0
  0
LTYPE
  5
1F9
100
AcDbSymbolTableRecord
100
AcDbLinetypeTableRecord
  2
DASHED
 70
64
  3
- - - - - - - - - - - - - - - - - - - -
 72
65
 73
2
 40
0.2
 49
0.1
 74
0
 49
-0.1
 74
0
  0
ENDTAB
  0
TABLE
  2
LAYER
  5
2
100
AcDbSymbolTable
 70
36
  0
LAYER
  5
10
100
AcDbSymbolTableRecord
100
AcDbLayerTableRecord
  2
0
 70
0
 62
7
  6
CONTINUOUS
370
-3
390
F
  0
LAYER
  5
1FA
100
AcDbSymbolTableRecord
100
AcDbLayerTableRecord
  2
DEFAULT_1
 70
0
 62
7
  6
CENTER
370
-3
390
F
  0
LAYER
  5
1FB
100
AcDbSymbolTableRecord
100
AcDbLayerTableRecord
  2
DEFAULT_2
 70
0
 62
8
  6
HIDDEN
370
-3
390
F
  0
LAYER
  5
1FC
100
AcDbSymbolTableRecord
100
AcDbLayerTableRecord
  2
DEFAULT_3
 70
0
 62
7
  6
PHANTOM
370
-3
390
F
  0
LAYER
  5
1FD
100
AcDbSymbolTableRecord
100
AcDbLayerTableRecord
  2
ALL_FEATURES
 70
0
 62
7
  6
CONTINUOUS
370
-3
390
F
  0
LAYER
  5
1FE
100
AcDbSymbolTableRecord
100
AcDbLayerTableRecord
  2
AXES_FEATURES
 70
0
 62
7
  6
CONTINUOUS
370
-3
390
F
  0
LAYER
  5
1FF
100
AcDbSymbolTableRecord
100
AcDbLayerTableRecord
  2
DIMENSIONS
 70
0
 62
7
  6
CONTINUOUS
370
-3
390
F
  0
ENDTAB
  0
TABLE
  2
STYLE
  5
3
100
AcDbSymbolTable
 70
1
  0
STYLE
  5
11
100
AcDbSymbolTableRecord
100
AcDbTextStyleTableRecord
  2
STANDARD
 70
0
 40
0.0
 41
0.8
 50
0.0
 71
0
 42
0.2
  3
txt
  4

  0
STYLE
  5
200
100
AcDbSymbolTableRecord
100
AcDbTextStyleTableRecord
  2
TEXTSTYLE_1
 70
0
 40
0.0
 41
0.8
 50
0.0
 71
0
 42
0.2
  3
gdt
  4

  0
ENDTAB
  0
TABLE
  2
VIEW
  5
6
100
AcDbSymbolTable
 70
0
  0
ENDTAB
  0
TABLE
  2
UCS
  5
7
100
AcDbSymbolTable
 70
0
  0
ENDTAB
  0
TABLE
  2
APPID
  5
9
100
AcDbSymbolTable
 70
1
  0
APPID
  5
201
100
AcDbSymbolTableRecord
100
AcDbRegAppTableRecord
  2
ACAD
 70
0
  0
ENDTAB
  0
TABLE
  2
BLOCK_RECORD
  5
1
100
AcDbSymbolTable
 70
0
  0
BLOCK_RECORD
  5
202
100
AcDbSymbolTableRecord
100
AcDbBlockTableRecord
  2
*Model_Space
  0
BLOCK_RECORD
  5
203
100
AcDbSymbolTableRecord
100
AcDbBlockTableRecord
  2
*Paper_Space
  0
BLOCK_RECORD
  5
204
100
AcDbSymbolTableRecord
100
AcDbBlockTableRecord
  2
_FILLED
  0
ENDTAB
  0
TABLE
  2
DIMSTYLE
  5
A
100
AcDbSymbolTable
 70
1
100
AcDbDimStyleTable
 71
0
  0
DIMSTYLE
105
205
100
AcDbSymbolTableRecord
100
AcDbDimStyleTableRecord
  2
STANDARD
 70
0
  3

  4

 40
1.0
 41
0.1
 42
0.0625
 43
0.38
 44
0.125
 45
0.0
 46
0.0
 47
0.001
 48
0.001
140
0.08
141
0.09
142
0.0
143
25.4
144
1.0
145
0.0
146
1.0
147
0.09
 71
1.0
 72
0.0
 73
1
 74
1
 75
0
 76
0
 77
0
 78
4
 79
1
170
1
171
2
172
0
173
0
174
0
175
0
176
0
177
0
178
0
270
2
179
3
271
3
272
3
273
2
274
2
275
0
280
0
281
0
282
0
283
1
284
4
285
0
286
0
287
3
288
0
340
11
278
46
341
204
342
204
343
204
344
204
  0
ENDTAB
  0
ENDSEC
  0
SECTION
  2
BLOCKS
  0
BLOCK
  5
20
100
AcDbEntity
  8
0
100
AcDbBlockBegin
  2
*Model_Space
 70
0
 10
0.0
 20
0.0
 30
0.0
  3
*Model_Space
  1

  0
ENDBLK
  5
21
100
AcDbEntity
  8
0
100
AcDbBlockEnd
  0
BLOCK
  5
1C
100
AcDbEntity
  8
0
100
AcDbBlockBegin
  2
*Paper_Space
 70
0
 10
0.0
 20
0.0
 30
0.0
  3
*Paper_Space
  1

  0
ENDBLK
  5
1D
100
AcDbEntity
  8
0
100
AcDbBlockEnd
  0
BLOCK
  5
206
100
AcDbEntity
  8
0
100
AcDbBlockBegin
  2
_FILLED
 70
64
 10
0.0
 20
0.0
  3
_FILLED
  1

  0
SOLID
  5
207
100
AcDbEntity
  8
0
  6
BYBLOCK
 62
0
100
AcDbTrace
 10
0.0
 20
0.0
 11
-1.0
 21
0.2
 12
-1.0
 22
-0.2
 13
-1.0
 23
-0.2
  0
ENDBLK
  5
208
100
AcDbEntity
  8
0
  6
BYBLOCK
 62
0
100
AcDbBlockEnd
  0
ENDSEC
  0
SECTION
  2
ENTITIES
  0
LINE
  5
209
100
AcDbEntity
  8
0
100
AcDbLine
 62
7
  6
CONTINUOUS
 10
12.3105241745
 20
4.2878656072
 11
14.1605088234
 21
4.2878656072
  0
LINE
  5
20A
100
AcDbEntity
  8
0
100
AcDbLine
 62
9
  6
CONTINUOUS
 10
14.1605164989
 20
4.5178656072
 11
12.3105164989
 21
4.5178656072
  0
LINE
  5
20B
100
AcDbEntity
  8
0
100
AcDbLine
 62
7
  6
CONTINUOUS
 10
14.1405089384
 20
4.5378656072
 11
12.3305240595
 21
4.5378656072
  0
LINE
  5
20C
100
AcDbEntity
  8
0
100
AcDbLine
 62
7
  6
CONTINUOUS
 10
12.7980164989
 20
4.5479570246
 11
12.8055164989
 21
4.5479570246
  0
LINE
  5
20D
100
AcDbEntity
  8
0
100
AcDbLine
 62
7
  6
CONTINUOUS
 10
13.661888903
 20
4.5479570246
 11
13.6730164989
 21
4.5479570246
  0
LINE
  5
20E
100
AcDbEntity
  8
0
100
AcDbLine
 62
7
  6
CONTINUOUS
 10
13.6655164989
 20
4.9138656072
 11
12.8055164989
 21
4.9138656072
  0
LINE
  5
20F
100
AcDbEntity
  8
0
100
AcDbLine
 62
7
  6
CONTINUOUS
 10
12.805527693
 20
4.9638656072
 11
13.6655053048
 21
4.9638656072
  0
LINE
  5
210
100
AcDbEntity
  8
0
100
AcDbLine
 62
7
  6
CONTINUOUS
 10
7.2594504793
 20
10.4928982259
 11
7.3290370298
 21
10.9880322602
  0
LINE
  5
211
100
AcDbEntity
  8
0
100
AcDbLine
 62
9
  6
CONTINUOUS
 10
14.1105164989
 20
5.5178656072
 11
13.6931343005
 21
5.5178656072
  0
LINE
  5
212
100
AcDbEntity
  8
0
100
AcDbLine
 62
7
  6
CONTINUOUS
 10
13.7131343005
 20
5.5378656072
 11
14.0905155449
 21
5.5378656072
  0
LINE
  5
213
100
AcDbEntity
  8
0
100
AcDbLine
 62
7
  6
CONTINUOUS
 10
8.1259350395
 20
10.3711217625
 11
8.19552159
 21
10.8662557969
  0
LINE
  5
214
100
AcDbEntity
  8
0
100
AcDbLine
 62
9
  6
CONTINUOUS
 10
13.3068782011
 20
6.7138656072
 11
13.1641547968
 21
6.7138656072
  0
LINE
  5
215
100
AcDbEntity
  8
0
100
AcDbLine
 62
7
  6
CONTINUOUS
 10
13.3135164989
 20
6.7538656072
 11
13.1575164989
 21
6.7538656072
  0
LINE
  5
216
100
AcDbEntity
  8
0
100
AcDbLine
 62
9
  6
CONTINUOUS
 10
13.1175164989
 20
6.7938656072
 11
13.3535164989
 21
6.7938656072
  0
LINE
  5
217
100
AcDbEntity
  8
0
100
AcDbLine
 62
9
  6
CONTINUOUS
 10
13.3535164989
 20
7.6978656072
 11
13.1175164989
 21
7.6978656072
  0
LINE
  5
218
100
AcDbEntity
  8
0
100
AcDbLine
 62
7
  6
CONTINUOUS
 10
13.1575164989
 20
7.7378656072
 11
13.3135164989
 21
7.7378656072
  0
LINE
  5
219
100
AcDbEntity
  8
0
100
AcDbLine
 62
7
  6
CONTINUOUS
 10
13.3799948829
 20
7.5252966404
 11
13.3799912385
 21
7.5252979402
  0
LWPOLYLINE
  5
21A
100
AcDbEntity
  8
0
100
AcDbPolyline
 62
7
  6
CONTINUOUS
 90
6
 70
0
 10
13.4292480243
 20
7.5041832281
 10
13.3752660206
 20
7.5273479861
 10
13.3663115142
 20
7.5336178631
 10
13.3593841049
 20
7.5420854648
 10
13.3550102073
 20
7.5521126002
 10
13.3535164826
 20
7.562941506
  0
LINE
  5
21B
100
AcDbEntity
  8
0
100
AcDbLine
 62
7
  6
CONTINUOUS
 10
7.2594504793
 20
10.4928982259
 11
8.1259350395
 21
10.3711217625
  0
LINE
  5
21C
100
AcDbEntity
  8
0
100
AcDbLine
 62
7
  6
CONTINUOUS
 10
12.3105164989
 20
4.2878656072
 11
12.3105164989
 21
4.5178656072
  0
LINE
  5
21D
100
AcDbEntity
  8
0
100
AcDbLine
 62
9
  6
CONTINUOUS
 10
13.6730164989
 20
10.5444180009
 11
12.7980164989
 21
10.5444180009
  0
LINE
  5
21E
100
AcDbEntity
  8
0
100
AcDbLine
 62
9
  6
CONTINUOUS
 10
8.19552159
 20
10.8662557969
 11
7.3290370298
 21
10.9880322602
  0
LINE
  5
21F
100
AcDbEntity
  8
0
100
AcDbLine
 62
7
  6
CONTINUOUS
 10
12.7980164989
 20
10.5444180009
 11
12.7980164989
 21
4.5479570246
  0
LINE
  5
220
100
AcDbEntity
  8
0
100
AcDbLine
 62
7
  6
CONTINUOUS
 10
12.8055164989
 20
4.9138656072
 11
12.8055164989
 21
4.5378656072
  0
LINE
  5
221
100
AcDbEntity
  8
0
100
AcDbLine
 62
7
  6
CONTINUOUS
 10
12.8955164989
 20
4.9138656072
 11
12.8955164989
 21
4.9198656072
  0
LINE
  5
222
100
AcDbEntity
  8
0
100
AcDbLine
 62
9
  6
CONTINUOUS
 10
13.0775164989
 20
6.7920202987
 11
13.0775164989
 21
7.5051421104
  0
LINE
  5
223
100
AcDbEntity
  8
0
100
AcDbLine
 62
7
  6
CONTINUOUS
 10
12.8055164989
 20
4.9638656072
 11
12.8055165038
 21
7.1203477784
  0
LWPOLYLINE
  5
224
100
AcDbEntity
  8
0
100
AcDbPolyline
 62
7
  6
CONTINUOUS
 90
9
 70
0
 10
13.0957673305
 20
7.5273485614
 10
13.0423010175
 20
7.5044432339
 10
12.9828313268
 20
7.4682207137
 10
12.929642582
 20
7.4225246431
 10
12.8844619786
 20
7.3686128542
 10
12.8485512032
 20
7.3078037837
 10
12.8228424165
 20
7.2411365359
 10
12.807910682
 20
7.1656336385
 10
12.8055164825
 20
7.1203566943
  0
LINE
  5
225
100
AcDbEntity
  8
0
100
AcDbLine
 62
7
  6
CONTINUOUS
 10
13.0910206637
 20
7.5252906347
 11
13.0910174752
 21
7.5252894977
  0
LINE
  5
226
100
AcDbEntity
  8
0
100
AcDbLine
 62
7
  6
CONTINUOUS
 10
13.1175164989
 20
6.7938656072
 11
13.1175164989
 21
7.6978656072
  0
LINE
  5
227
100
AcDbEntity
  8
0
100
AcDbLine
 62
9
  6
CONTINUOUS
 10
13.1575164989
 20
7.7378656072
 11
13.1575164989
 21
6.7538656072
  0
LINE
  5
228
100
AcDbEntity
  8
0
100
AcDbLine
 62
9
  6
CONTINUOUS
 10
13.3135164989
 20
6.7538656072
 11
13.3135164989
 21
7.7378656072
  0
LINE
  5
229
100
AcDbEntity
  8
0
100
AcDbLine
 62
7
  6
CONTINUOUS
 10
13.3535164989
 20
7.6978656072
 11
13.3535164989
 21
6.7938656072
  0
LINE
  5
22A
100
AcDbEntity
  8
0
100
AcDbLine
 62
9
  6
CONTINUOUS
 10
13.3935164989
 20
7.5051423784
 11
13.3935164989
 21
6.7920205604
  0
LWPOLYLINE
  5
22B
100
AcDbEntity
  8
0
100
AcDbPolyline
 62
7
  6
CONTINUOUS
 90
5
 70
0
 10
13.1175165017
 20
7.562942174
 10
13.1160236663
 20
7.5521163649
 10
13.1116503402
 20
7.5420883848
 10
13.1047225701
 20
7.5336193394
 10
13.0957673305
 20
7.5273485614
  0
LWPOLYLINE
  5
22C
100
AcDbEntity
  8
0
100
AcDbPolyline
 62
7
  6
CONTINUOUS
 90
8
 70
0
 10
13.6655165179
 20
7.1202700572
 10
13.6631810734
 20
7.1650760122
 10
13.6483344186
 20
7.2406432146
 10
13.6227028441
 20
7.3073459453
 10
13.5868700673
 20
7.3681895964
 10
13.5417670262
 20
7.422143503
 10
13.4886517068
 20
7.4678936938
 10
13.4292480243
 20
7.5041832281
  0
LINE
  5
22D
100
AcDbEntity
  8
0
100
AcDbLine
 62
7
  6
CONTINUOUS
 10
13.5755164989
 20
4.9138656072
 11
13.5755164989
 21
4.9198656072
  0
LINE
  5
22E
100
AcDbEntity
  8
0
100
AcDbLine
 62
7
  6
CONTINUOUS
 10
13.6655164989
 20
4.9138656072
 11
13.6655164989
 21
4.5378656072
  0
LINE
  5
22F
100
AcDbEntity
  8
0
100
AcDbLine
 62
7
  6
CONTINUOUS
 10
13.6655164989
 20
4.9638656072
 11
13.6655164989
 21
7.1202963232
  0
LINE
  5
230
100
AcDbEntity
  8
0
100
AcDbLine
 62
7
  6
CONTINUOUS
 10
13.6730164989
 20
10.5444180009
 11
13.6730164989
 21
4.5479570246
  0
LINE
  5
231
100
AcDbEntity
  8
0
100
AcDbLine
 62
7
  6
CONTINUOUS
 10
13.6931343005
 20
5.5178656072
 11
13.6931343005
 21
4.5378656072
  0
LINE
  5
232
100
AcDbEntity
  8
0
100
AcDbLine
 62
9
  6
CONTINUOUS
 10
13.7131343005
 20
5.5378656072
 11
13.7131343005
 21
4.5378656072
  0
LINE
  5
233
100
AcDbEntity
  8
0
100
AcDbLine
 62
9
  6
CONTINUOUS
 10
14.0840522545
 20
4.5378656072
 11
14.0840522545
 21
5.5378656072
  0
LINE
  5
234
100
AcDbEntity
  8
0
100
AcDbLine
 62
9
  6
CONTINUOUS
 10
14.1039012208
 20
4.5378656072
 11
14.1039012208
 21
5.5178656072
  0
LINE
  5
235
100
AcDbEntity
  8
0
100
AcDbLine
 62
7
  6
CONTINUOUS
 10
14.1105164989
 20
4.5378656072
 11
14.1105164989
 21
5.5178656072
  0
LINE
  5
236
100
AcDbEntity
  8
0
100
AcDbLine
 62
7
  6
CONTINUOUS
 10
14.1605164989
 20
4.2878656072
 11
14.1605164989
 21
4.5178656072
  0
ARC
  5
237
100
AcDbEntity
  8
0
100
AcDbCircle
 62
7
  6
CONTINUOUS
 10
10.4855164989
 20
10.5444180009
 40
3.1875
100
AcDbArc
 50
0.0
 51
172.0
  0
ARC
  5
238
100
AcDbEntity
  8
0
100
AcDbCircle
 62
7
  6
CONTINUOUS
 10
10.4855164989
 20
10.5444180009
 40
2.3125
100
AcDbArc
 50
0.0
 51
172.0
  0
ARC
  5
239
100
AcDbEntity
  8
0
100
AcDbCircle
 62
9
  6
CONTINUOUS
 10
13.2355069501
 20
7.1485813183
 40
0.3899963124
100
AcDbArc
 50
113.8979124816
 51
246.1021011012
  0
ARC
  5
23A
100
AcDbEntity
  8
0
100
AcDbCircle
 62
9
  6
CONTINUOUS
 10
13.2355260477
 20
7.1485813536
 40
0.389996312
100
AcDbArc
 50
293.8979123827
 51
66.1021016326
  0
ARC
  5
23B
100
AcDbEntity
  8
0
100
AcDbCircle
 62
7
  6
CONTINUOUS
 10
12.5499421829
 20
4.9452421881
 40
0.3465050224
100
AcDbArc
 50
356.0047929786
 51
356.4630639479
  0
ARC
  5
23C
100
AcDbEntity
  8
0
100
AcDbCircle
 62
7
  6
CONTINUOUS
 10
13.9160706455
 20
4.9449251351
 40
0.3414747595
100
AcDbArc
 50
183.4941676006
 51
183.989070117
  0
ARC
  5
23D
100
AcDbEntity
  8
0
100
AcDbCircle
 62
7
  6
CONTINUOUS
 10
12.556710151
 20
4.944864217
 40
0.3397265972
100
AcDbArc
 50
356.5084885872
 51
3.2387392516
  0
ARC
  5
23E
100
AcDbEntity
  8
0
100
AcDbCircle
 62
7
  6
CONTINUOUS
 10
13.9140306884
 20
4.9448626612
 40
0.339434676
100
AcDbArc
 50
176.7645694585
 51
183.3990220729
  0
ARC
  5
23F
100
AcDbEntity
  8
0
100
AcDbCircle
 62
7
  6
CONTINUOUS
 10
13.1575164989
 20
6.7938656072
 40
0.04
100
AcDbArc
 50
179.9999999899
 51
270.0
  0
ARC
  5
240
100
AcDbEntity
  8
0
100
AcDbCircle
 62
7
  6
CONTINUOUS
 10
13.3135164989
 20
6.7938656072
 40
0.04
100
AcDbArc
 50
270.0
 51
360.0
  0
ARC
  5
241
100
AcDbEntity
  8
0
100
AcDbCircle
 62
7
  6
CONTINUOUS
 10
13.2355164989
 20
4.9448656072
 40
0.025
100
AcDbArc
 50
129.8604536291
 51
49.9828257449
  0
ARC
  5
242
100
AcDbEntity
  8
0
100
AcDbCircle
 62
7
  6
CONTINUOUS
 10
14.0905164989
 20
5.5178656072
 40
0.02
100
AcDbArc
 50
0.0
 51
90.0
  0
ARC
  5
243
100
AcDbEntity
  8
0
100
AcDbCircle
 62
7
  6
CONTINUOUS
 10
14.1405164989
 20
4.5178656072
 40
0.02
100
AcDbArc
 50
0.0
 51
90.0
  0
ARC
  5
244
100
AcDbEntity
  8
0
100
AcDbCircle
 62
7
  6
CONTINUOUS
 10
12.3305164989
 20
4.5178656072
 40
0.02
100
AcDbArc
 50
90.0
 51
180.0
  0
ARC
  5
245
100
AcDbEntity
  8
0
100
AcDbCircle
 62
7
  6
CONTINUOUS
 10
13.7131342374
 20
5.5178655703
 40
0.0199999415
100
AcDbArc
 50
89.9998190895
 51
179.9998944489
  0
ARC
  5
246
100
AcDbEntity
  8
0
100
AcDbCircle
 62
9
  6
CONTINUOUS
 10
14.084043351
 20
5.5180942287
 40
0.0197713805
100
AcDbArc
 50
74.9127718088
 51
89.9741981716
  0
ARC
  5
247
100
AcDbEntity
  8
0
100
AcDbCircle
 62
9
  6
CONTINUOUS
 10
14.0840709147
 20
5.5182126107
 40
0.0196499049
100
AcDbArc
 50
72.1079674976
 51
74.9005254265
  0
ARC
  5
248
100
AcDbEntity
  8
0
100
AcDbCircle
 62
7
  6
CONTINUOUS
 10
13.1575164989
 20
7.6978656072
 40
0.04
100
AcDbArc
 50
90.0
 51
180.0
  0
ARC
  5
249
100
AcDbEntity
  8
0
100
AcDbCircle
 62
7
  6
CONTINUOUS
 10
13.3135164989
 20
7.6978656072
 40
0.04
100
AcDbArc
 50
0.0
 51
90.0
  0
SPLINE
  5
24A
100
AcDbEntity
  8
0
100
AcDbSpline
 62
9
  6
CONTINUOUS
 70
0
 71
3
 72
15
 73
11
 74
0
 42
0.0000001
 43
0.0000001
 44
0.0000000001
 40
0.0
 40
0.0
 40
0.0
 40
0.0
 40
0.1245487356
 40
0.2492057946
 40
0.374029004
 40
0.4990011283
 40
0.6240902922
 40
0.7493078871
 40
0.8747184066
 40
1.0
 40
1.0
 40
1.0
 40
1.0
 10
14.0901078427
 20
5.5369121899
 30
0.0
 10
14.0911001488
 20
5.5365918555
 30
0.0
 10
14.0930382885
 20
5.5357919075
 30
0.0
 10
14.0957182488
 20
5.5341483289
 30
0.0
 10
14.0981107025
 20
5.5321021226
 30
0.0
 10
14.1001532138
 20
5.5297020479
 30
0.0
 10
14.1017976691
 20
5.5270098645
 30
0.0
 10
14.1030024506
 20
5.5240899597
 30
0.0
 10
14.1037357142
 20
5.5210168629
 30
0.0
 10
14.1039012208
 20
5.5189144725
 30
0.0
 10
14.1039012208
 20
5.5178656072
 30
0.0
  0
LINE
  5
24B
100
AcDbEntity
  8
0
100
AcDbLine
 62
7
  6
CONTINUOUS
 10
12.8955164989
 20
4.9198656072
 11
12.8955761054
 21
4.9206881085
  0
LINE
  5
24C
100
AcDbEntity
  8
0
100
AcDbLine
 62
7
  6
CONTINUOUS
 10
12.8955761054
 20
4.9206881085
 11
12.8956051573
 21
4.9211001354
  0
LINE
  5
24D
100
AcDbEntity
  8
0
100
AcDbLine
 62
7
  6
CONTINUOUS
 10
12.8957871949
 20
4.9238656072
 11
12.8958061585
 21
4.9241746425
  0
LINE
  5
24E
100
AcDbEntity
  8
0
100
AcDbLine
 62
7
  6
CONTINUOUS
 10
13.5751931032
 20
4.9247378031
 11
13.575230685
 21
4.9241132953
  0
LINE
  5
24F
100
AcDbEntity
  8
0
100
AcDbLine
 62
7
  6
CONTINUOUS
 10
13.5754231636
 20
4.9211700423
 11
13.5754667356
 21
4.9205509492
  0
LINE
  5
250
100
AcDbEntity
  8
0
100
AcDbLine
 62
7
  6
CONTINUOUS
 10
13.5754667356
 20
4.9205509492
 11
13.5755164989
 21
4.9198656072
  0
SPLINE
  5
251
100
AcDbEntity
  8
0
100
AcDbSpline
 62
9
  6
CONTINUOUS
 70
0
 71
3
 72
14
 73
10
 74
0
 42
0.0000001
 43
0.0000001
 44
0.0000000001
 40
0.0
 40
0.0
 40
0.0
 40
0.0
 40
0.1254728974
 40
0.2507487833
 40
0.3756496338
 40
0.5003122669
 40
0.6249015024
 40
0.7497373453
 40
1.0
 40
1.0
 40
1.0
 40
1.0
 10
13.3068782011
 20
6.7138656072
 30
0.0
 10
13.3099413023
 20
6.7138654931
 30
0.0
 10
13.3160706206
 20
6.7142923904
 30
0.0
 10
13.3250747866
 20
6.7161663992
 30
0.0
 10
13.3337278667
 20
6.719226362
 30
0.0
 10
13.3418907503
 20
6.7233806137
 30
0.0
 10
13.3494510533
 20
6.7285499286
 30
0.0
 10
13.3586075731
 20
6.7366428287
 30
0.0
 10
13.3643385556
 20
6.7439260907
 30
0.0
 10
13.3675472324
 20
6.7491251958
 30
0.0
  0
SPLINE
  5
252
100
AcDbEntity
  8
0
100
AcDbSpline
 62
9
  6
CONTINUOUS
 70
0
 71
3
 72
14
 73
10
 74
0
 42
0.0000001
 43
0.0000001
 44
0.0000000001
 40
0.0
 40
0.0
 40
0.0
 40
0.0
 40
0.2502918511
 40
0.3751240051
 40
0.4997071552
 40
0.6243651057
 40
0.7492569972
 40
0.8745265038
 40
1.0
 40
1.0
 40
1.0
 40
1.0
 10
13.1034912214
 20
6.7491284211
 30
0.0
 10
13.1067008179
 20
6.7439291222
 30
0.0
 10
13.1124247484
 20
6.7366399024
 30
0.0
 10
13.1215826836
 20
6.7285471918
 30
0.0
 10
13.1291451234
 20
6.7233819974
 30
0.0
 10
13.1373069254
 20
6.7192273837
 30
0.0
 10
13.1459586606
 20
6.7161651811
 30
0.0
 10
13.154962599
 20
6.7142917021
 30
0.0
 10
13.1610917134
 20
6.7138655918
 30
0.0
 10
13.1641547968
 20
6.7138656072
 30
0.0
  0
SPLINE
  5
253
100
AcDbEntity
  8
0
100
AcDbSpline
 62
9
  6
CONTINUOUS
 70
0
 71
3
 72
24
 73
20
 74
0
 42
0.0000001
 43
0.0000001
 44
0.0000000001
 40
0.0
 40
0.0
 40
0.0
 40
0.0
 40
0.0544783673
 40
0.109141386
 40
0.1641755559
 40
0.2197691146
 40
0.2761127884
 40
0.3334018617
 40
0.3918359399
 40
0.4516168016
 40
0.5129490547
 40
0.5760360103
 40
0.6410720427
 40
0.7082349975
 40
0.7776664234
 40
0.8494554636
 40
0.8862441411
 40
0.9236151203
 40
1.0
 40
1.0
 40
1.0
 40
1.0
 10
13.6655165584
 20
7.1202744588
 30
0.0
 10
13.6655158737
 20
7.1110051027
 30
0.0
 10
13.6647840677
 20
7.0924267538
 30
0.0
 10
13.6614903374
 20
7.0646599562
 30
0.0
 10
13.6559876748
 20
7.0370497794
 30
0.0
 10
13.6482535309
 20
7.0096826471
 30
0.0
 10
13.6382567895
 20
6.9826485128
 30
0.0
 10
13.6259589332
 20
6.9560464864
 30
0.0
 10
13.6113141704
 20
6.9299868935
 30
0.0
 10
13.59426984
 20
6.9045955376
 30
0.0
 10
13.5747710592
 20
6.880016245
 30
0.0
 10
13.5527640948
 20
6.8564146664
 30
0.0
 10
13.5281992183
 20
6.8339866908
 30
0.0
 10
13.5010479814
 20
6.8129536651
 30
0.0
 10
13.4713048928
 20
6.7935827772
 30
0.0
 10
13.4446183313
 20
6.7791792669
 30
0.0
 10
13.4220667681
 20
6.7687666044
 30
0.0
 10
13.3983753842
 20
6.7590146305
 30
0.0
 10
13.3800206429
 20
6.75277596
 30
0.0
 10
13.3675472324
 20
6.7491251958
 30
0.0
  0
SPLINE
  5
254
100
AcDbEntity
  8
0
100
AcDbSpline
 62
9
  6
CONTINUOUS
 70
0
 71
3
 72
15
 73
11
 74
0
 42
0.0000001
 43
0.0000001
 44
0.0000000001
 40
0.0
 40
0.0
 40
0.0
 40
0.0
 40
0.121843533
 40
0.2476228843
 40
0.375812896
 40
0.5050811862
 40
0.6338482185
 40
0.7602665555
 40
0.8826868162
 40
1.0
 40
1.0
 40
1.0
 40
1.0
 10
13.0775164989
 20
6.792020338
 30
0.0
 10
13.0789251347
 20
6.7920203381
 30
0.0
 10
13.081789002
 20
6.7921294054
 30
0.0
 10
13.0861097935
 20
6.7926226937
 30
0.0
 10
13.0904630682
 20
6.7934746753
 30
0.0
 10
13.0947588771
 20
6.7947149286
 30
0.0
 10
13.0989042827
 20
6.7963358729
 30
0.0
 10
13.1028069146
 20
6.7983084084
 30
0.0
 10
13.1063692424
 20
6.8006111192
 30
0.0
 10
13.1085058253
 20
6.8023894636
 30
0.0
 10
13.1094917269
 20
6.8033208282
 30
0.0
  0
SPLINE
  5
255
100
AcDbEntity
  8
0
100
AcDbSpline
 62
9
  6
CONTINUOUS
 70
0
 71
3
 72
12
 73
8
 74
0
 42
0.0000001
 43
0.0000001
 44
0.0000000001
 40
0.0
 40
0.0
 40
0.0
 40
0.0
 40
0.2809579471
 40
0.4133103487
 40
0.5399942528
 40
0.7782047354
 40
1.0
 40
1.0
 40
1.0
 40
1.0
 10
13.1094917269
 20
6.8033208282
 30
0.0
 10
13.1108055365
 20
6.804561962
 30
0.0
 10
13.1125923941
 20
6.8065572939
 30
0.0
 10
13.1145095538
 20
6.8094598188
 30
0.0
 10
13.115986688
 20
6.8123029993
 30
0.0
 10
13.1171912159
 20
6.8159106502
 30
0.0
 10
13.1175169999
 20
6.8188776526
 30
0.0
 10
13.1175169898
 20
6.8203044189
 30
0.0
  0
SPLINE
  5
256
100
AcDbEntity
  8
0
100
AcDbSpline
 62
9
  6
CONTINUOUS
 70
0
 71
3
 72
19
 73
15
 74
0
 42
0.0000001
 43
0.0000001
 44
0.0000000001
 40
0.0
 40
0.0
 40
0.0
 40
0.0
 40
0.0379893065
 40
0.0779102595
 40
0.1667456293
 40
0.217490115
 40
0.2728316708
 40
0.3327340221
 40
0.3970440592
 40
0.4654807669
 40
0.5374465654
 40
0.6888546422
 40
0.845002781
 40
1.0
 40
1.0
 40
1.0
 40
1.0
 10
13.1175162896
 20
6.7938656833
 30
0.0
 10
13.1175162973
 20
6.7933533611
 30
0.0
 10
13.1174151649
 20
6.7923002502
 30
0.0
 10
13.1167950891
 20
6.7901279652
 30
0.0
 10
13.1155174811
 20
6.7880158985
 30
0.0
 10
13.113731338
 20
6.7860832857
 30
0.0
 10
13.1120298085
 20
6.784620867
 30
0.0
 10
13.1100438151
 20
6.7832299816
 30
0.0
 10
13.1077920734
 20
6.7819279675
 30
0.0
 10
13.1052992732
 20
6.780735865
 30
0.0
 10
13.1016426242
 20
6.779275376
 30
0.0
 10
13.0967318229
 20
6.7777947925
 30
0.0
 10
13.0906062664
 20
6.7765778805
 30
0.0
 10
13.0864335727
 20
6.7760921417
 30
0.0
 10
13.0843497649
 20
6.7759277043
 30
0.0
  0
SPLINE
  5
257
100
AcDbEntity
  8
0
100
AcDbSpline
 62
9
  6
CONTINUOUS
 70
0
 71
3
 72
12
 73
8
 74
0
 42
0.0000001
 43
0.0000001
 44
0.0000000001
 40
0.0
 40
0.0
 40
0.0
 40
0.0
 40
0.2396085213
 40
0.3631804935
 40
0.4884404073
 40
0.7426550366
 40
1.0
 40
1.0
 40
1.0
 40
1.0
 10
13.0843497354
 20
6.7759276842
 30
0.0
 10
13.0852561526
 20
6.773430034
 30
0.0
 10
13.0869133757
 20
6.7697398527
 30
0.0
 10
13.0896349351
 20
6.7650536039
 30
0.0
 10
13.0927617865
 20
6.7604291592
 30
0.0
 10
13.0972614529
 20
6.7549640616
 30
0.0
 10
13.1013425829
 20
6.7510062392
 30
0.0
 10
13.1034914216
 20
6.7491284212
 30
0.0
  0
SPLINE
  5
258
100
AcDbEntity
  8
0
100
AcDbSpline
 62
9
  6
CONTINUOUS
 70
0
 71
3
 72
23
 73
19
 74
0
 42
0.0000001
 43
0.0000001
 44
0.0000000001
 40
0.0
 40
0.0
 40
0.0
 40
0.0
 40
0.0763862587
 40
0.1505313089
 40
0.2223216673
 40
0.2917543616
 40
0.3589186107
 40
0.4239554908
 40
0.4870437131
 40
0.5483766191
 40
0.6081582287
 40
0.6665933604
 40
0.7238827752
 40
0.7802272213
 40
0.8358217273
 40
0.8908565183
 40
0.9455204915
 40
1.0
 40
1.0
 40
1.0
 40
1.0
 10
13.1034912214
 20
6.7491284211
 30
0.0
 10
13.0910171371
 20
6.7527794172
 30
0.0
 10
13.0667285213
 20
6.7610244389
 30
0.0
 10
13.0320126305
 20
6.7761576662
 30
0.0
 10
12.9997266673
 20
6.7935836804
 30
0.0
 10
12.9699812821
 20
6.8129559371
 30
0.0
 10
12.9428294321
 20
6.8339908714
 30
0.0
 10
12.9182629232
 20
6.8564198115
 30
0.0
 10
12.8962559868
 20
6.8800236904
 30
0.0
 10
12.8767564914
 20
6.9046044373
 30
0.0
 10
12.8597120054
 20
6.9299975815
 30
0.0
 10
12.8450678288
 20
6.9560591729
 30
0.0
 10
12.832770085
 20
6.9826628389
 30
0.0
 10
12.8227741325
 20
7.0096987852
 30
0.0
 10
12.8150410531
 20
7.0370677138
 30
0.0
 10
12.8095394693
 20
7.0646795999
 30
0.0
 10
12.8062471969
 20
7.0924480765
 30
0.0
 10
12.8055165292
 20
7.1110275122
 30
0.0
 10
12.8055164471
 20
7.1202974029
 30
0.0
  0
SPLINE
  5
259
100
AcDbEntity
  8
0
100
AcDbSpline
 62
9
  6
CONTINUOUS
 70
0
 71
3
 72
9
 73
5
 74
0
 42
0.0000001
 43
0.0000001
 44
0.0000000001
 40
0.0
 40
0.0
 40
0.0
 40
0.0
 40
0.4872887089
 40
1.0
 40
1.0
 40
1.0
 40
1.0
 10
13.0775162424
 20
6.7920210122
 30
0.0
 10
13.0787795524
 20
6.7894762519
 30
0.0
 10
13.08120838
 20
6.7841716449
 30
0.0
 10
13.0833346604
 20
6.7787393114
 30
0.0
 10
13.0843499782
 20
6.7759277124
 30
0.0
  0
SPLINE
  5
25A
100
AcDbEntity
  8
0
100
AcDbSpline
 62
9
  6
CONTINUOUS
 70
0
 71
3
 72
16
 73
12
 74
0
 42
0.0000001
 43
0.0000001
 44
0.0000000001
 40
0.0
 40
0.0
 40
0.0
 40
0.0
 40
0.0269585881
 40
0.0583506799
 40
0.094592773
 40
0.135884257
 40
0.2338019174
 40
0.3518937688
 40
0.4890487903
 40
0.6438389199
 40
1.0
 40
1.0
 40
1.0
 40
1.0
 10
13.0909644706
 20
7.5252466275
 30
0.0
 10
13.0907576875
 20
7.5251720088
 30
0.0
 10
13.0903281914
 20
7.5249600035
 30
0.0
 10
13.0896939387
 20
7.5245180487
 30
0.0
 10
13.089023238
 20
7.5239336133
 30
0.0
 10
13.0880237071
 20
7.5229083865
 30
0.0
 10
13.0867065653
 20
7.5212699792
 30
0.0
 10
13.0850733942
 20
7.5188964564
 30
0.0
 10
13.0833194048
 20
7.5160484216
 30
0.0
 10
13.0807122159
 20
7.5114504799
 30
0.0
 10
13.0788070596
 20
7.5077429765
 30
0.0
 10
13.0775157808
 20
7.5051414954
 30
0.0
  0
SPLINE
  5
25B
100
AcDbEntity
  8
0
100
AcDbSpline
 62
9
  6
CONTINUOUS
 70
0
 71
3
 72
22
 73
18
 74
0
 42
0.0000001
 43
0.0000001
 44
0.0000000001
 40
0.0
 40
0.0
 40
0.0
 40
0.0
 40
0.0072057822
 40
0.0150479604
 40
0.0239597107
 40
0.0342810348
 40
0.0600878897
 40
0.093971437
 40
0.1367445976
 40
0.1882801742
 40
0.2481458661
 40
0.3158528717
 40
0.3907354709
 40
0.4715028039
 40
0.6448142946
 40
0.8243410544
 40
1.0
 40
1.0
 40
1.0
 40
1.0
 10
13.1575164957
 20
6.7538655989
 30
0.0
 10
13.1576161273
 20
6.753865599
 30
0.0
 10
13.1578250793
 20
6.7538357953
 30
0.0
 10
13.1581326992
 20
6.7537051515
 30
0.0
 10
13.1584405253
 20
6.7534881955
 30
0.0
 10
13.1588843749
 20
6.7530482957
 30
0.0
 10
13.1594272205
 20
6.7522373903
 30
0.0
 10
13.1600318213
 20
6.7509536287
 30
0.0
 10
13.1606226473
 20
6.7492800314
 30
0.0
 10
13.1611958431
 20
6.747225818
 30
0.0
 10
13.1617399469
 20
6.7448089534
 30
0.0
 10
13.1622433848
 20
6.7420546861
 30
0.0
 10
13.1626941715
 20
6.7389989825
 30
0.0
 10
13.1632350852
 20
6.7344824245
 30
0.0
 10
13.1637404522
 20
6.7285064343
 30
0.0
 10
13.1640801214
 20
6.7212057153
 30
0.0
 10
13.1641547875
 20
6.7162943782
 30
0.0
 10
13.1641547875
 20
6.7138656072
 30
0.0
  0
SPLINE
  5
25C
100
AcDbEntity
  8
0
100
AcDbSpline
 62
9
  6
CONTINUOUS
 70
0
 71
3
 72
18
 73
14
 74
0
 42
0.0000001
 43
0.0000001
 44
0.0000000001
 40
0.0
 40
0.0
 40
0.0
 40
0.0
 40
0.0962692208
 40
0.1477053626
 40
0.2016885011
 40
0.2585801258
 40
0.3183796326
 40
0.4458656937
 40
0.5133229056
 40
0.5826422589
 40
0.7240534407
 40
0.864707323
 40
1.0
 40
1.0
 40
1.0
 40
1.0
 10
13.1175174551
 20
7.53342658
 30
0.0
 10
13.1175174467
 20
7.5316948442
 30
0.0
 10
13.1171598663
 20
7.5290238034
 30
0.0
 10
13.1160116273
 20
7.525575474
 30
0.0
 10
13.1147386896
 20
7.5229380426
 30
0.0
 10
13.1130586238
 20
7.5203590783
 30
0.0
 10
13.1102475983
 20
7.51697425
 30
0.0
 10
13.1067498915
 20
7.5139517791
 30
0.0
 10
13.1027277462
 20
7.5114087858
 30
0.0
 10
13.0982694521
 20
7.509123386
 30
0.0
 10
13.0923045
 20
7.5069440228
 30
0.0
 10
13.0849195213
 20
7.505466161
 30
0.0
 10
13.0799502069
 20
7.5051420765
 30
0.0
 10
13.0775164989
 20
7.5051420765
 30
0.0
  0
SPLINE
  5
25D
100
AcDbEntity
  8
0
100
AcDbSpline
 62
9
  6
CONTINUOUS
 70
0
 71
3
 72
18
 73
14
 74
0
 42
0.0000001
 43
0.0000001
 44
0.0000000001
 40
0.0
 40
0.0
 40
0.0
 40
0.0
 40
0.1352925126
 40
0.2759462181
 40
0.4173572572
 40
0.4866765645
 40
0.5541337557
 40
0.6816198649
 40
0.7414194301
 40
0.7983111297
 40
0.8522943579
 40
0.903730597
 40
1.0
 40
1.0
 40
1.0
 40
1.0
 10
13.3935164989
 20
7.5051423491
 30
0.0
 10
13.3910828037
 20
7.5051423492
 30
0.0
 10
13.3861135155
 20
7.5054664317
 30
0.0
 10
13.378728575
 20
7.5069442848
 30
0.0
 10
13.3727636522
 20
7.5091236342
 30
0.0
 10
13.3683053777
 20
7.5114090196
 30
0.0
 10
13.3642832464
 20
7.5139519985
 30
0.0
 10
13.360785548
 20
7.5169744522
 30
0.0
 10
13.3579745232
 20
7.5203592623
 30
0.0
 10
13.356294454
 20
7.5229382142
 30
0.0
 10
13.3550215094
 20
7.5255756344
 30
0.0
 10
13.353873257
 20
7.5290239508
 30
0.0
 10
13.3535156623
 20
7.5316949835
 30
0.0
 10
13.3535156433
 20
7.5334267156
 30
0.0
  0
SPLINE
  5
25E
100
AcDbEntity
  8
0
100
AcDbSpline
 62
9
  6
CONTINUOUS
 70
0
 71
3
 72
11
 73
7
 74
0
 42
0.0000001
 43
0.0000001
 44
0.0000000001
 40
0.0
 40
0.0
 40
0.0
 40
0.0
 40
0.2574179603
 40
0.5116280542
 40
0.7603876238
 40
1.0
 40
1.0
 40
1.0
 40
1.0
 10
13.3675471078
 20
6.7491251959
 30
0.0
 10
13.369691308
 20
6.7510087039
 30
0.0
 10
13.3737734842
 20
6.7549646061
 30
0.0
 10
13.3791425446
 20
6.7614900591
 30
0.0
 10
13.3835500261
 20
6.7684693851
 30
0.0
 10
13.3857948039
 20
6.7734239016
 30
0.0
 10
13.3866829698
 20
6.7759276035
 30
0.0
  0
SPLINE
  5
25F
100
AcDbEntity
  8
0
100
AcDbSpline
 62
9
  6
CONTINUOUS
 70
0
 71
3
 72
9
 73
5
 74
0
 42
0.0000001
 43
0.0000001
 44
0.0000000001
 40
0.0
 40
0.0
 40
0.0
 40
0.0
 40
0.5127136107
 40
1.0
 40
1.0
 40
1.0
 40
1.0
 10
13.3866827208
 20
6.7759276338
 30
0.0
 10
13.3876980944
 20
6.7787393039
 30
0.0
 10
13.3898244903
 20
6.7841717438
 30
0.0
 10
13.3922534077
 20
6.7894764631
 30
0.0
 10
13.3935167387
 20
6.7920212747
 30
0.0
  0
SPLINE
  5
260
100
AcDbEntity
  8
0
100
AcDbSpline
 62
9
  6
CONTINUOUS
 70
0
 71
3
 72
16
 73
12
 74
0
 42
0.0000001
 43
0.0000001
 44
0.0000000001
 40
0.0
 40
0.0
 40
0.0
 40
0.0
 40
0.3561797712
 40
0.5109808161
 40
0.6481431381
 40
0.7662356274
 40
0.8641456451
 40
0.9054306757
 40
0.9416650766
 40
0.9730489528
 40
1.0
 40
1.0
 40
1.0
 40
1.0
 10
13.3935168678
 20
7.5051417333
 30
0.0
 10
13.3922252972
 20
7.5077434104
 30
0.0
 10
13.3903198731
 20
7.5114512884
 30
0.0
 10
13.3877124988
 20
7.5160497904
 30
0.0
 10
13.3859584113
 20
7.5188981528
 30
0.0
 10
13.3843251596
 20
7.5212718092
 30
0.0
 10
13.3830078881
 20
7.522910125
 30
0.0
 10
13.3820082369
 20
7.523935095
 30
0.0
 10
13.3813374717
 20
7.5245192546
 30
0.0
 10
13.3807031563
 20
7.5249608629
 30
0.0
 10
13.3802736175
 20
7.5251725639
 30
0.0
 10
13.3800668257
 20
7.5252470114
 30
0.0
  0
SPLINE
  5
261
100
AcDbEntity
  8
0
100
AcDbSpline
 62
9
  6
CONTINUOUS
 70
0
 71
3
 72
22
 73
18
 74
0
 42
0.0000001
 43
0.0000001
 44
0.0000000001
 40
0.0
 40
0.0
 40
0.0
 40
0.0
 40
0.1964911436
 40
0.3800738582
 40
0.5451873572
 40
0.619666775
 40
0.6883045969
 40
0.7508284717
 40
0.8069286269
 40
0.8562521357
 40
0.8984274112
 40
0.9332004302
 40
0.960880229
 40
0.9723373658
 40
0.9824492786
 40
0.9915254027
 40
1.0
 40
1.0
 40
1.0
 40
1.0
 10
13.103491012
 20
6.749128421
 30
0.0
 10
13.1051445522
 20
6.7503591041
 30
0.0
 10
13.108302537
 20
6.7527947177
 30
0.0
 10
13.112712892
 20
6.7564368133
 30
0.0
 10
13.1160405458
 20
6.7593780516
 30
0.0
 10
13.1183596122
 20
6.7616322324
 30
0.0
 10
13.1198434951
 20
6.7631992505
 30
0.0
 10
13.1211146915
 20
6.7646983243
 30
0.0
 10
13.1221764917
 20
6.7661055125
 30
0.0
 10
13.1230328003
 20
6.7673967358
 30
0.0
 10
13.1236883495
 20
6.768549366
 30
0.0
 10
13.1241508036
 20
6.7695459925
 30
0.0
 10
13.1243859416
 20
6.7702898821
 30
0.0
 10
13.1244527236
 20
6.7708036397
 30
0.0
 10
13.1244457116
 20
6.7711266337
 30
0.0
 10
13.124383054
 20
6.7714121951
 30
0.0
 10
13.1243007957
 20
6.7715795132
 30
0.0
 10
13.1242513495
 20
6.7716533949
 30
0.0
  0
SPLINE
  5
262
100
AcDbEntity
  8
0
100
AcDbSpline
 62
9
  6
CONTINUOUS
 70
0
 71
3
 72
19
 73
15
 74
0
 42
0.0000001
 43
0.0000001
 44
0.0000000001
 40
0.0
 40
0.0
 40
0.0
 40
0.0
 40
0.0368675246
 40
0.0756816048
 40
0.1622610514
 40
0.2118724932
 40
0.2661450207
 40
0.3251232182
 40
0.3887520931
 40
0.4568439486
 40
0.5288379583
 40
0.6815224006
 40
0.8406613461
 40
1.0
 40
1.0
 40
1.0
 40
1.0
 10
13.3535165078
 20
6.7938656611
 30
0.0
 10
13.3535165067
 20
6.7933684583
 30
0.0
 10
13.3536114403
 20
6.7923455712
 30
0.0
 10
13.3541977953
 20
6.7902273279
 30
0.0
 10
13.3554181932
 20
6.7881542307
 30
0.0
 10
13.3571389513
 20
6.7862432239
 30
0.0
 10
13.3587904168
 20
6.7847875234
 30
0.0
 10
13.3607312077
 20
6.7833950625
 30
0.0
 10
13.362947258
 20
6.7820838957
 30
0.0
 10
13.3654176186
 20
6.7808760203
 30
0.0
 10
13.3690752318
 20
6.7793829275
 30
0.0
 10
13.3740337684
 20
6.7778576609
 30
0.0
 10
13.3802699972
 20
6.7765989589
 30
0.0
 10
13.3845407892
 20
6.7760967037
 30
0.0
 10
13.3866830023
 20
6.7759276513
 30
0.0
  0
SPLINE
  5
263
100
AcDbEntity
  8
0
100
AcDbSpline
 62
9
  6
CONTINUOUS
 70
0
 71
3
 72
19
 73
15
 74
0
 42
0.0000001
 43
0.0000001
 44
0.0000000001
 40
0.0
 40
0.0
 40
0.0
 40
0.0
 40
0.0218065951
 40
0.0462993768
 40
0.0755077586
 40
0.1105913702
 40
0.1521619804
 40
0.2004543531
 40
0.2554659745
 40
0.3170677018
 40
0.4589322879
 40
0.622913495
 40
0.8050860833
 40
1.0
 40
1.0
 40
1.0
 40
1.0
 10
13.3468626392
 20
6.771774784
 30
0.0
 10
13.3467356268
 20
6.7715825065
 30
0.0
 10
13.3465512102
 20
6.7711136726
 30
0.0
 10
13.3465401929
 20
6.7703040881
 30
0.0
 10
13.3467629164
 20
6.7693858279
 30
0.0
 10
13.3472139564
 20
6.7683577322
 30
0.0
 10
13.3478928077
 20
6.7672224983
 30
0.0
 10
13.3487898516
 20
6.7659802818
 30
0.0
 10
13.3498963476
 20
6.7646329463
 30
0.0
 10
13.3517257321
 20
6.7626036964
 30
0.0
 10
13.3544786694
 20
6.7598615226
 30
0.0
 10
13.3583142779
 20
6.7564117148
 30
0.0
 10
13.3627283848
 20
6.7527750989
 30
0.0
 10
13.3658925008
 20
6.7503514319
 30
0.0
 10
13.3675474617
 20
6.7491251957
 30
0.0
  0
SPLINE
  5
264
100
AcDbEntity
  8
0
100
AcDbSpline
 62
9
  6
CONTINUOUS
 70
0
 71
3
 72
22
 73
18
 74
0
 42
0.0000001
 43
0.0000001
 44
0.0000000001
 40
0.0
 40
0.0
 40
0.0
 40
0.0
 40
0.1756589073
 40
0.3551856449
 40
0.5284971276
 40
0.6092644608
 40
0.6841470622
 40
0.7518540713
 40
0.8117197683
 40
0.8632553512
 40
0.9060285197
 40
0.9399120762
 40
0.965718942
 40
0.9760402721
 40
0.9849520286
 40
0.9927942128
 40
1.0
 40
1.0
 40
1.0
 40
1.0
 10
13.3068782017
 20
6.7138656072
 30
0.0
 10
13.3068782016
 20
6.7162943784
 30
0.0
 10
13.3069528676
 20
6.7212057161
 30
0.0
 10
13.3072925369
 20
6.7285064363
 30
0.0
 10
13.3077979043
 20
6.7344824278
 30
0.0
 10
13.3083388186
 20
6.738998987
 30
0.0
 10
13.3087896058
 20
6.7420546915
 30
0.0
 10
13.3092930442
 20
6.7448089597
 30
0.0
 10
13.3098371485
 20
6.7472258252
 30
0.0
 10
13.3104103449
 20
6.7492800393
 30
0.0
 10
13.3110011716
 20
6.7509536372
 30
0.0
 10
13.311605773
 20
6.7522373995
 30
0.0
 10
13.3121486192
 20
6.7530483052
 30
0.0
 10
13.3125924692
 20
6.7534882054
 30
0.0
 10
13.3129002955
 20
6.7537051616
 30
0.0
 10
13.3132079157
 20
6.7538358056
 30
0.0
 10
13.3134168679
 20
6.7538656094
 30
0.0
 10
13.3135164996
 20
6.7538656094
 30
0.0
  0
SPLINE
  5
265
100
AcDbEntity
  8
0
100
AcDbSpline
 62
9
  6
CONTINUOUS
 70
0
 71
3
 72
12
 73
8
 74
0
 42
0.0000001
 43
0.0000001
 44
0.0000000001
 40
0.0
 40
0.0
 40
0.0
 40
0.0
 40
0.2224741111
 40
0.4609705969
 40
0.5875666458
 40
0.7196972356
 40
1.0
 40
1.0
 40
1.0
 40
1.0
 10
13.3535160162
 20
6.8203046511
 30
0.0
 10
13.353516006
 20
6.8189116941
 30
0.0
 10
13.3538261422
 20
6.8160180929
 30
0.0
 10
13.3549734143
 20
6.8124939842
 30
0.0
 10
13.3563799274
 20
6.8097110426
 30
0.0
 10
13.3582062007
 20
6.8068674172
 30
0.0
 10
13.3599125381
 20
6.8049044451
 30
0.0
 10
13.3611686746
 20
6.8036787752
 30
0.0
  0
SPLINE
  5
266
100
AcDbEntity
  8
0
100
AcDbSpline
 62
9
  6
CONTINUOUS
 70
0
 71
3
 72
15
 73
11
 74
0
 42
0.0000001
 43
0.0000001
 44
0.0000000001
 40
0.0
 40
0.0
 40
0.0
 40
0.0
 40
0.1168117601
 40
0.2388948797
 40
0.3651901722
 40
0.4940222315
 40
0.6234873175
 40
0.7519223199
 40
0.8779507385
 40
1.0
 40
1.0
 40
1.0
 40
1.0
 10
13.3611686746
 20
6.8036787752
 30
0.0
 10
13.3621496193
 20
6.8027216226
 30
0.0
 10
13.3642837701
 20
6.80089112
 30
0.0
 10
13.3678613211
 20
6.798516265
 30
0.0
 10
13.3718004487
 20
6.7964814884
 30
0.0
 10
13.3759979925
 20
6.7948073452
 30
0.0
 10
13.3803570229
 20
6.7935242522
 30
0.0
 10
13.3847802779
 20
6.7926431344
 30
0.0
 10
13.3891726747
 20
6.7921332792
 30
0.0
 10
13.3920845027
 20
6.7920205633
 30
0.0
 10
13.3935164989
 20
6.7920205633
 30
0.0
  0
ENDSEC
  0
SECTION
  2
OBJECTS
  0
DICTIONARY
  5
C
100
AcDbDictionary
280
0
281
1
  3
ACAD_GROUP
350
D
  3
ACAD_MLINESTYLE
350
17
  3
ACAD_LAYOUT
350
1A
  3
ACAD_PLOTSETTINGS
350
19
  3
ACAD_PLOTSTYLENAME
350
E
  0
DICTIONARY
  5
D
102
{ACAD_REACTORS
330
C
102
}
100
AcDbDictionary
280
0
281
1
  0
ACDBDICTIONARYWDFLT
  5
E
102
{ACAD_REACTORS
330
C
102
}
100
AcDbDictionary
281
1
  3
Normal
350
F
100
AcDbDictionaryWithDefault
340
F
  0
DICTIONARY
  5
17
102
{ACAD_REACTORS
330
C
102
}
100
AcDbDictionary
280
0
281
1
  3
Standard
350
18
  0
DICTIONARY
  5
19
102
{ACAD_REACTORS
330
C
102
}
100
AcDbDictionary
281
1
  0
DICTIONARY
  5
1A
102
{ACAD_REACTORS
330
C
102
}
100
AcDbDictionary
281
1
  3
Model
350
267
  3
Layout1
350
268
  0
ACDBPLACEHOLDER
  5
F
102
{ACAD_REACTORS
330
E
102
}
  0
MLINESTYLE
  5
18
102
{ACAD_REACTORS
330
17
102
}
100
AcDbMlineStyle
  2
STANDARD
 70
0
  3

 62
256
 51
90.0
 52
90.0
 71
2
 49
0.5
 62
256
  6
BYLAYER
 49
-0.5
 62
256
  6
BYLAYER
  0
LAYOUT
  5
267
102
{ACAD_REACTORS
330
1A
102
}
100
AcDbPlotSettings
  1

  2
none_device
  4
ANSI_C_(22.00_x_17.00_Inches)
  6

 40
0.0
 41
0.0
 42
0.0
 43
0.0
 44
558.8
 45
431.8
 46
0.0
 47
0.0
 48
0.0
 49
0.0
140
0.0
141
0.0
142
1.0
143
1.0
 70
1024
 72
0
 73
0
 74
0
  7

 75
0
147
1.0
148
0.0
149
0.0
100
AcDbLayout
  1
Model
 70
0
 71
0
 10
0.0
 20
0.0
 11
22.0
 21
17.0
 12
0.0
 22
0.0
 32
0.0
 14
0.0
 24
0.0
 34
0.0
 15
0.0
 25
0.0
 35
0.0
146
0.0
 13
0.0
 23
0.0
 33
0.0
 16
1.0
 26
0.0
 36
0.0
 17
0.0
 27
1.0
 37
0.0
 76
0
330
202
345
0
346
0
  0
LAYOUT
  5
268
102
{ACAD_REACTORS
330
1A
102
}
100
AcDbPlotSettings
  1

  2
none_device
  4
ANSI_C_(22.00_x_17.00_Inches)
  6

 40
0.0
 41
0.0
 42
0.0
 43
0.0
 44
558.8
 45
431.8
 46
0.0
 47
0.0
 48
0.0
 49
0.0
140
0.0
141
0.0
142
1.0
143
1.0
 70
0
 72
0
 73
0
 74
0
  7

 75
0
147
1.0
148
0.0
149
0.0
100
AcDbLayout
  1
Layout1
 70
0
 71
1
 10
0.0
 20
0.0
 11
22.0
 21
17.0
 12
0.0
 22
0.0
 32
0.0
 14
0.0
 24
0.0
 34
0.0
 15
0.0
 25
0.0
 35
0.0
146
0.0
 13
0.0
 23
0.0
 33
0.0
 16
1.0
 26
0.0
 36
0.0
 17
0.0
 27
1.0
 37
0.0
 76
0
330
203
345
0
346
0
  0
ENDSEC
  0
EOF
