999
DXF file: E:\BT Custom\CADOUTPUT\_RIGHT.dxf
999
Pro/ENGINEER 2018400 by Parametric Technology Corporation
  0
SECTION
  2
HEADER
  9
$ACADVER
  1
AC1018
  9
$DWGCODEPAGE
  3
ANSI_1252
  9
$EXTMAX
 10
22.0
 20
17.0
 30
0.0
  9
$EXTMIN
 10
0.0
 20
0.0
 30
0.0
  9
$LIMMIN
 10
0.0
 20
0.0
  9
$LIMMAX
 10
22.0
 20
17.0
  9
$VIEWCTR
 10
11.0
 20
8.5
  9
$VIEWSIZE
 40
17.0
  9
$CLAYER
  8
0
  9
$LTSCALE
 40
1.21
  9
$CELTYPE
  6
BYLAYER
  9
$DIMSCALE
 40
1.0
  9
$DIMASZ
 40
0.1
  9
$DIMEXO
 40
0.0625
  9
$DIMDLI
 40
0.836
  9
$DIMEXE
 40
0.125
  9
$DIMCEN
 40
0.198
  9
$DIMLFAC
 40
1.0
  9
$DIMBLK
  1
_FILLED
  9
$DIMALT
 70
1
  9
$DIMALTD
 70
2
  9
$DIMALTTD
 70
2
  9
$DIMALTF
 40
25.4
  9
$DIMTXT
 40
0.08
  9
$DIMTOL
 70
1
  9
$DIMLIM
 70
0
  9
$DIMTFAC
 40
1.0
  9
$DIMTP
 40
0.001
  9
$DIMTM
 40
0.001
  9
$DIMGAP
 40
0.09
  9
$DIMDSEP
 70
46
  9
$AUNITS
 70
0
  9
$PDMODE
 70
3
  9
$PDSIZE
 40
0.06
  9
$HANDSEED
  5
267
  9
$TILEMODE
 70
1
  9
$MEASUREMENT
 70
0
  9
$INSUNITS
 70
1
  0
ENDSEC
  0
SECTION
  2
CLASSES
  0
CLASS
  1
ACDBDICTIONARYWDFLT
  2
AcDbDictionaryWithDefault
  3
AutoCAD 2000
 90
0
 91
1
280
0
281
0
  0
CLASS
  1
ACDBPLACEHOLDER
  2
AcDbPlaceHolder
  3
AutoCAD 2000
 90
0
 91
1
280
0
281
0
  0
CLASS
  1
LAYOUT
  2
AcDbLayout
  3
AutoCAD 2000
 90
0
 91
0
280
0
281
0
  0
ENDSEC
  0
SECTION
  2
TABLES
  0
TABLE
  2
VPORT
  5
8
100
AcDbSymbolTable
 70
2
  0
VPORT
  5
1F4
100
AcDbSymbolTableRecord
100
AcDbViewportTableRecord
  2
*ACTIVE
 70
0
 10
0.0
 20
0.0
 11
1.0
 21
1.0
 12
11.0
 22
8.5
 13
0.0
 23
0.0
 14
1.0
 24
1.0
 15
0.0
 25
0.0
 16
0.0
 26
0.0
 36
1.0
 17
0.0
 27
0.0
 37
0.0
 40
17.0
 41
1.2941176471
 42
50.0
 43
0.0
 44
0.0
 50
0.0
 51
0.0
 71
0
 72
100
 73
1
 74
1
 75
0
 76
0
 77
0
 78
0
  0
ENDTAB
  0
TABLE
  2
LTYPE
  5
5
100
AcDbSymbolTable
 70
6
  0
LTYPE
  5
14
100
AcDbSymbolTableRecord
100
AcDbLinetypeTableRecord
  2
BYBLOCK
 70
0
  3

 72
65
 73
0
 40
0.0
  0
LTYPE
  5
15
100
AcDbSymbolTableRecord
100
AcDbLinetypeTableRecord
  2
BYLAYER
 70
0
  3

 72
65
 73
0
 40
0.0
  0
LTYPE
  5
16
100
AcDbSymbolTableRecord
100
AcDbLinetypeTableRecord
  2
CONTINUOUS
 70
64
  3
Solid line
 72
65
 73
0
 40
0.0
  0
LTYPE
  5
1F5
100
AcDbSymbolTableRecord
100
AcDbLinetypeTableRecord
  2
CENTER
 70
64
  3
____ _ ____ _ ____ _ ____ _ ____ _ ____ _ ____
 72
65
 73
4
 40
0.6
 49
0.375
 74
0
 49
-0.075
 74
0
 49
0.075
 74
0
 49
-0.075
 74
0
  0
LTYPE
  5
1F6
100
AcDbSymbolTableRecord
100
AcDbLinetypeTableRecord
  2
HIDDEN
 70
64
  3
- - - - - - - - - - - - - - - - - - - -
 72
65
 73
2
 40
0.2
 49
0.1
 74
0
 49
-0.1
 74
0
  0
LTYPE
  5
1F7
100
AcDbSymbolTableRecord
100
AcDbLinetypeTableRecord
  2
PHANTOM
 70
64
  3
_____ _ _ _____ _ _ _____ _ _ _____
 72
65
 73
6
 40
0.8
 49
0.45
 74
0
 49
-0.05
 74
0
 49
0.1
 74
0
 49
-0.05
 74
0
 49
0.1
 74
0
 49
-0.05
 74
0
  0
LTYPE
  5
1F8
100
AcDbSymbolTableRecord
100
AcDbLinetypeTableRecord
  2
DOT
 70
64
  3
. . . . . . . . . . . . . . . . . . . .
 72
65
 73
2
 40
0.2
 49
0.1
 74
0
 49
-0.1
 74
0
  0
LTYPE
  5
1F9
100
AcDbSymbolTableRecord
100
AcDbLinetypeTableRecord
  2
DASHED
 70
64
  3
- - - - - - - - - - - - - - - - - - - -
 72
65
 73
2
 40
0.2
 49
0.1
 74
0
 49
-0.1
 74
0
  0
ENDTAB
  0
TABLE
  2
LAYER
  5
2
100
AcDbSymbolTable
 70
36
  0
LAYER
  5
10
100
AcDbSymbolTableRecord
100
AcDbLayerTableRecord
  2
0
 70
0
 62
7
  6
CONTINUOUS
370
-3
390
F
  0
LAYER
  5
1FA
100
AcDbSymbolTableRecord
100
AcDbLayerTableRecord
  2
DEFAULT_1
 70
0
 62
7
  6
CENTER
370
-3
390
F
  0
LAYER
  5
1FB
100
AcDbSymbolTableRecord
100
AcDbLayerTableRecord
  2
DEFAULT_2
 70
0
 62
8
  6
HIDDEN
370
-3
390
F
  0
LAYER
  5
1FC
100
AcDbSymbolTableRecord
100
AcDbLayerTableRecord
  2
DEFAULT_3
 70
0
 62
7
  6
PHANTOM
370
-3
390
F
  0
LAYER
  5
1FD
100
AcDbSymbolTableRecord
100
AcDbLayerTableRecord
  2
ALL_FEATURES
 70
0
 62
7
  6
CONTINUOUS
370
-3
390
F
  0
LAYER
  5
1FE
100
AcDbSymbolTableRecord
100
AcDbLayerTableRecord
  2
AXES_FEATURES
 70
0
 62
7
  6
CONTINUOUS
370
-3
390
F
  0
LAYER
  5
1FF
100
AcDbSymbolTableRecord
100
AcDbLayerTableRecord
  2
DIMENSIONS
 70
0
 62
7
  6
CONTINUOUS
370
-3
390
F
  0
ENDTAB
  0
TABLE
  2
STYLE
  5
3
100
AcDbSymbolTable
 70
1
  0
STYLE
  5
11
100
AcDbSymbolTableRecord
100
AcDbTextStyleTableRecord
  2
STANDARD
 70
0
 40
0.0
 41
0.8
 50
0.0
 71
0
 42
0.2
  3
txt
  4

  0
STYLE
  5
200
100
AcDbSymbolTableRecord
100
AcDbTextStyleTableRecord
  2
TEXTSTYLE_1
 70
0
 40
0.0
 41
0.8
 50
0.0
 71
0
 42
0.2
  3
gdt
  4

  0
ENDTAB
  0
TABLE
  2
VIEW
  5
6
100
AcDbSymbolTable
 70
0
  0
ENDTAB
  0
TABLE
  2
UCS
  5
7
100
AcDbSymbolTable
 70
0
  0
ENDTAB
  0
TABLE
  2
APPID
  5
9
100
AcDbSymbolTable
 70
1
  0
APPID
  5
201
100
AcDbSymbolTableRecord
100
AcDbRegAppTableRecord
  2
ACAD
 70
0
  0
ENDTAB
  0
TABLE
  2
BLOCK_RECORD
  5
1
100
AcDbSymbolTable
 70
0
  0
BLOCK_RECORD
  5
202
100
AcDbSymbolTableRecord
100
AcDbBlockTableRecord
  2
*Model_Space
  0
BLOCK_RECORD
  5
203
100
AcDbSymbolTableRecord
100
AcDbBlockTableRecord
  2
*Paper_Space
  0
BLOCK_RECORD
  5
204
100
AcDbSymbolTableRecord
100
AcDbBlockTableRecord
  2
_FILLED
  0
ENDTAB
  0
TABLE
  2
DIMSTYLE
  5
A
100
AcDbSymbolTable
 70
1
100
AcDbDimStyleTable
 71
0
  0
DIMSTYLE
105
205
100
AcDbSymbolTableRecord
100
AcDbDimStyleTableRecord
  2
STANDARD
 70
0
  3

  4

 40
1.0
 41
0.1
 42
0.0625
 43
0.38
 44
0.125
 45
0.0
 46
0.0
 47
0.001
 48
0.001
140
0.08
141
0.09
142
0.0
143
25.4
144
1.0
145
0.0
146
1.0
147
0.09
 71
1.0
 72
0.0
 73
1
 74
1
 75
0
 76
0
 77
0
 78
4
 79
1
170
1
171
2
172
0
173
0
174
0
175
0
176
0
177
0
178
0
270
2
179
3
271
3
272
3
273
2
274
2
275
0
280
0
281
0
282
0
283
1
284
4
285
0
286
0
287
3
288
0
340
11
278
46
341
204
342
204
343
204
344
204
  0
ENDTAB
  0
ENDSEC
  0
SECTION
  2
BLOCKS
  0
BLOCK
  5
20
100
AcDbEntity
  8
0
100
AcDbBlockBegin
  2
*Model_Space
 70
0
 10
0.0
 20
0.0
 30
0.0
  3
*Model_Space
  1

  0
ENDBLK
  5
21
100
AcDbEntity
  8
0
100
AcDbBlockEnd
  0
BLOCK
  5
1C
100
AcDbEntity
  8
0
100
AcDbBlockBegin
  2
*Paper_Space
 70
0
 10
0.0
 20
0.0
 30
0.0
  3
*Paper_Space
  1

  0
ENDBLK
  5
1D
100
AcDbEntity
  8
0
100
AcDbBlockEnd
  0
BLOCK
  5
206
100
AcDbEntity
  8
0
100
AcDbBlockBegin
  2
_FILLED
 70
64
 10
0.0
 20
0.0
  3
_FILLED
  1

  0
SOLID
  5
207
100
AcDbEntity
  8
0
  6
BYBLOCK
 62
0
100
AcDbTrace
 10
0.0
 20
0.0
 11
-1.0
 21
0.2
 12
-1.0
 22
-0.2
 13
-1.0
 23
-0.2
  0
ENDBLK
  5
208
100
AcDbEntity
  8
0
  6
BYBLOCK
 62
0
100
AcDbBlockEnd
  0
ENDSEC
  0
SECTION
  2
ENTITIES
  0
LINE
  5
209
100
AcDbEntity
  8
0
100
AcDbLine
 62
7
  6
CONTINUOUS
 10
12.1662411641
 20
5.4654346978
 11
14.0162258129
 21
5.4654346978
  0
LINE
  5
20A
100
AcDbEntity
  8
0
100
AcDbLine
 62
7
  6
CONTINUOUS
 10
7.4037334885
 20
11.465434698
 11
7.4037334885
 21
12.552934698
  0
LINE
  5
20B
100
AcDbEntity
  8
0
100
AcDbLine
 62
9
  6
CONTINUOUS
 10
14.0162334885
 20
5.6954346978
 11
12.1662334885
 21
5.6954346978
  0
LINE
  5
20C
100
AcDbEntity
  8
0
100
AcDbLine
 62
7
  6
CONTINUOUS
 10
13.9962259279
 20
5.7154346978
 11
12.1862410491
 21
5.7154346978
  0
LINE
  5
20D
100
AcDbEntity
  8
0
100
AcDbLine
 62
7
  6
CONTINUOUS
 10
13.5212334885
 20
6.0914346978
 11
12.6612334885
 21
6.0914346978
  0
LINE
  5
20E
100
AcDbEntity
  8
0
100
AcDbLine
 62
7
  6
CONTINUOUS
 10
12.6612446826
 20
6.1414346978
 11
13.5212222944
 21
6.1414346978
  0
LINE
  5
20F
100
AcDbEntity
  8
0
100
AcDbLine
 62
7
  6
CONTINUOUS
 10
8.2787334885
 20
11.465434698
 11
8.2787334885
 21
11.677934698
  0
LINE
  5
210
100
AcDbEntity
  8
0
100
AcDbLine
 62
9
  6
CONTINUOUS
 10
13.9662334885
 20
6.6954346978
 11
13.5488512901
 21
6.6954346978
  0
LINE
  5
211
100
AcDbEntity
  8
0
100
AcDbLine
 62
7
  6
CONTINUOUS
 10
13.5688512901
 20
6.7154346978
 11
13.9462325344
 21
6.7154346978
  0
LINE
  5
212
100
AcDbEntity
  8
0
100
AcDbLine
 62
9
  6
CONTINUOUS
 10
13.1625951906
 20
7.8914346978
 11
13.0198717864
 21
7.8914346978
  0
LINE
  5
213
100
AcDbEntity
  8
0
100
AcDbLine
 62
7
  6
CONTINUOUS
 10
13.1692334885
 20
7.9314346978
 11
13.0132334885
 21
7.9314346978
  0
LINE
  5
214
100
AcDbEntity
  8
0
100
AcDbLine
 62
9
  6
CONTINUOUS
 10
12.9732334885
 20
7.9714346978
 11
13.2092334885
 21
7.9714346978
  0
LINE
  5
215
100
AcDbEntity
  8
0
100
AcDbLine
 62
7
  6
CONTINUOUS
 10
12.6537334883
 20
11.6793489113
 11
13.5287334887
 21
12.5543489117
  0
LINE
  5
216
100
AcDbEntity
  8
0
100
AcDbLine
 62
7
  6
CONTINUOUS
 10
12.6537334885
 20
11.677934698
 11
13.5287334885
 21
12.552934698
  0
LINE
  5
217
100
AcDbEntity
  8
0
100
AcDbLine
 62
9
  6
CONTINUOUS
 10
13.2092334885
 20
8.8754346978
 11
12.9732334885
 21
8.8754346978
  0
LINE
  5
218
100
AcDbEntity
  8
0
100
AcDbLine
 62
7
  6
CONTINUOUS
 10
13.0132334885
 20
8.9154346978
 11
13.1692334885
 21
8.9154346978
  0
LINE
  5
219
100
AcDbEntity
  8
0
100
AcDbLine
 62
7
  6
CONTINUOUS
 10
8.2787338738
 20
11.6779343127
 11
7.4037331032
 21
12.5529350833
  0
LINE
  5
21A
100
AcDbEntity
  8
0
100
AcDbLine
 62
7
  6
CONTINUOUS
 10
7.4037334883
 20
12.5543489117
 11
8.2787334887
 21
11.6793489113
  0
LINE
  5
21B
100
AcDbEntity
  8
0
100
AcDbLine
 62
7
  6
CONTINUOUS
 10
13.2357118725
 20
8.7028657311
 11
13.2357082281
 21
8.7028670309
  0
LWPOLYLINE
  5
21C
100
AcDbEntity
  8
0
100
AcDbPolyline
 62
7
  6
CONTINUOUS
 90
6
 70
0
 10
13.2849650138
 20
8.6817523187
 10
13.2309830102
 20
8.7049170767
 10
13.2220285037
 20
8.7111869538
 10
13.2151010945
 20
8.7196545554
 10
13.2107271969
 20
8.7296816908
 10
13.2092334721
 20
8.7405105967
  0
LWPOLYLINE
  5
21D
100
AcDbEntity
  8
0
100
AcDbPolyline
 62
7
  6
CONTINUOUS
 90
9
 70
0
 10
12.9514843201
 20
8.7049176521
 10
12.8980180071
 20
8.6820123245
 10
12.8385483164
 20
8.6457898044
 10
12.7853595716
 20
8.6000937338
 10
12.7401789682
 20
8.5461819448
 10
12.7042681927
 20
8.4853728744
 10
12.6785594061
 20
8.4187056266
 10
12.6636276716
 20
8.3432027292
 10
12.6612334721
 20
8.297925785
  0
LINE
  5
21E
100
AcDbEntity
  8
0
100
AcDbLine
 62
7
  6
CONTINUOUS
 10
12.9467376533
 20
8.7028597254
 11
12.9467344648
 21
8.7028585883
  0
LINE
  5
21F
100
AcDbEntity
  8
0
100
AcDbLine
 62
7
  6
CONTINUOUS
 10
12.1662334885
 20
5.4654346978
 11
12.1662334885
 21
5.6954346978
  0
LINE
  5
220
100
AcDbEntity
  8
0
100
AcDbLine
 62
7
  6
CONTINUOUS
 10
12.6537334885
 20
11.677934698
 11
12.6537334885
 21
5.715434698
  0
LINE
  5
221
100
AcDbEntity
  8
0
100
AcDbLine
 62
7
  6
CONTINUOUS
 10
12.6612334885
 20
6.0914346978
 11
12.6612334885
 21
5.7154346978
  0
LINE
  5
222
100
AcDbEntity
  8
0
100
AcDbLine
 62
7
  6
CONTINUOUS
 10
12.6612334885
 20
6.1414346978
 11
12.6612334934
 21
8.2979168691
  0
LINE
  5
223
100
AcDbEntity
  8
0
100
AcDbLine
 62
7
  6
CONTINUOUS
 10
12.7512334885
 20
6.0914346978
 11
12.7512334885
 21
6.0974346978
  0
LINE
  5
224
100
AcDbEntity
  8
0
100
AcDbLine
 62
9
  6
CONTINUOUS
 10
12.9332334885
 20
7.9695893894
 11
12.9332334885
 21
8.6827112011
  0
LINE
  5
225
100
AcDbEntity
  8
0
100
AcDbLine
 62
7
  6
CONTINUOUS
 10
12.9732334885
 20
7.9714346978
 11
12.9732334885
 21
8.8754346978
  0
LINE
  5
226
100
AcDbEntity
  8
0
100
AcDbLine
 62
9
  6
CONTINUOUS
 10
13.0132334885
 20
8.9154346978
 11
13.0132334885
 21
7.9314346978
  0
LWPOLYLINE
  5
227
100
AcDbEntity
  8
0
100
AcDbPolyline
 62
7
  6
CONTINUOUS
 90
5
 70
0
 10
12.9732334913
 20
8.7405112647
 10
12.9717406559
 20
8.7296854555
 10
12.9673673298
 20
8.7196574755
 10
12.9604395597
 20
8.71118843
 10
12.9514843201
 20
8.7049176521
  0
LINE
  5
228
100
AcDbEntity
  8
0
100
AcDbLine
 62
9
  6
CONTINUOUS
 10
13.1692334885
 20
7.9314346978
 11
13.1692334885
 21
8.9154346978
  0
LINE
  5
229
100
AcDbEntity
  8
0
100
AcDbLine
 62
7
  6
CONTINUOUS
 10
13.2092334885
 20
8.8754346978
 11
13.2092334885
 21
7.9714346978
  0
LINE
  5
22A
100
AcDbEntity
  8
0
100
AcDbLine
 62
9
  6
CONTINUOUS
 10
13.2492334885
 20
8.6827114691
 11
13.2492334885
 21
7.969589651
  0
LINE
  5
22B
100
AcDbEntity
  8
0
100
AcDbLine
 62
7
  6
CONTINUOUS
 10
7.4037337302
 20
11.465434698
 11
8.2787332468
 21
11.465434698
  0
LWPOLYLINE
  5
22C
100
AcDbEntity
  8
0
100
AcDbPolyline
 62
7
  6
CONTINUOUS
 90
8
 70
0
 10
13.5212335075
 20
8.2978391479
 10
13.518898063
 20
8.3426451029
 10
13.5040514082
 20
8.4182123052
 10
13.4784198337
 20
8.4849150359
 10
13.4425870569
 20
8.5457586871
 10
13.3974840157
 20
8.5997125937
 10
13.3443686964
 20
8.6454627845
 10
13.2849650138
 20
8.6817523187
  0
LINE
  5
22D
100
AcDbEntity
  8
0
100
AcDbLine
 62
7
  6
CONTINUOUS
 10
13.4312334885
 20
6.0914346978
 11
13.4312334885
 21
6.0974346978
  0
LINE
  5
22E
100
AcDbEntity
  8
0
100
AcDbLine
 62
7
  6
CONTINUOUS
 10
13.5212334885
 20
6.0914346978
 11
13.5212334885
 21
5.7154346978
  0
LINE
  5
22F
100
AcDbEntity
  8
0
100
AcDbLine
 62
7
  6
CONTINUOUS
 10
13.5212334885
 20
6.1414346978
 11
13.5212334885
 21
8.2978654138
  0
LINE
  5
230
100
AcDbEntity
  8
0
100
AcDbLine
 62
7
  6
CONTINUOUS
 10
13.5287334885
 20
12.552934698
 11
13.5287334885
 21
5.715434698
  0
LINE
  5
231
100
AcDbEntity
  8
0
100
AcDbLine
 62
7
  6
CONTINUOUS
 10
13.5488512901
 20
6.6954346978
 11
13.5488512901
 21
5.7154346978
  0
LINE
  5
232
100
AcDbEntity
  8
0
100
AcDbLine
 62
9
  6
CONTINUOUS
 10
13.5688512901
 20
6.7154346978
 11
13.5688512901
 21
5.7154346978
  0
LINE
  5
233
100
AcDbEntity
  8
0
100
AcDbLine
 62
7
  6
CONTINUOUS
 10
12.6537334885
 20
11.6793489115
 11
8.2787334885
 21
11.6793489115
  0
LINE
  5
234
100
AcDbEntity
  8
0
100
AcDbLine
 62
9
  6
CONTINUOUS
 10
13.9397692441
 20
5.7154346978
 11
13.9397692441
 21
6.7154346978
  0
LINE
  5
235
100
AcDbEntity
  8
0
100
AcDbLine
 62
9
  6
CONTINUOUS
 10
13.9596182103
 20
5.7154346978
 11
13.9596182103
 21
6.6954346978
  0
LINE
  5
236
100
AcDbEntity
  8
0
100
AcDbLine
 62
7
  6
CONTINUOUS
 10
13.9662334885
 20
5.7154346978
 11
13.9662334885
 21
6.6954346978
  0
LINE
  5
237
100
AcDbEntity
  8
0
100
AcDbLine
 62
7
  6
CONTINUOUS
 10
14.0162334885
 20
5.4654346978
 11
14.0162334885
 21
5.6954346978
  0
LINE
  5
238
100
AcDbEntity
  8
0
100
AcDbLine
 62
7
  6
CONTINUOUS
 10
13.5287334885
 20
12.5543489115
 11
7.4037334885
 21
12.5543489115
  0
ARC
  5
239
100
AcDbEntity
  8
0
100
AcDbCircle
 62
7
  6
CONTINUOUS
 10
12.4056591726
 20
6.1228112788
 40
0.3465050223
100
AcDbArc
 50
356.0047929786
 51
356.463063948
  0
ARC
  5
23A
100
AcDbEntity
  8
0
100
AcDbCircle
 62
7
  6
CONTINUOUS
 10
12.412423699
 20
6.1224330367
 40
0.3397300485
100
AcDbArc
 50
356.4563524149
 51
3.2387520851
  0
ARC
  5
23B
100
AcDbEntity
  8
0
100
AcDbCircle
 62
7
  6
CONTINUOUS
 10
12.1862334885
 20
5.6954346978
 40
0.02
100
AcDbArc
 50
90.0
 51
180.0
  0
ARC
  5
23C
100
AcDbEntity
  8
0
100
AcDbCircle
 62
9
  6
CONTINUOUS
 10
13.0912239397
 20
8.3261504089
 40
0.3899963124
100
AcDbArc
 50
113.8979124814
 51
246.1021011011
  0
ARC
  5
23D
100
AcDbEntity
  8
0
100
AcDbCircle
 62
7
  6
CONTINUOUS
 10
13.0132334885
 20
7.9714346978
 40
0.04
100
AcDbArc
 50
179.9999999899
 51
270.0
  0
ARC
  5
23E
100
AcDbEntity
  8
0
100
AcDbCircle
 62
7
  6
CONTINUOUS
 10
13.0132334885
 20
8.8754346978
 40
0.04
100
AcDbArc
 50
90.0
 51
180.0
  0
ARC
  5
23F
100
AcDbEntity
  8
0
100
AcDbCircle
 62
7
  6
CONTINUOUS
 10
13.7733663196
 20
6.122598249
 40
0.343056856
100
AcDbArc
 50
183.3909481128
 51
183.9880593692
  0
ARC
  5
240
100
AcDbEntity
  8
0
100
AcDbCircle
 62
7
  6
CONTINUOUS
 10
13.769747678
 20
6.1224317519
 40
0.339434676
100
AcDbArc
 50
176.7645694585
 51
183.3990220729
  0
ARC
  5
241
100
AcDbEntity
  8
0
100
AcDbCircle
 62
7
  6
CONTINUOUS
 10
13.0912334885
 20
6.1224346978
 40
0.025
100
AcDbArc
 50
129.8604536291
 51
49.9828257449
  0
ARC
  5
242
100
AcDbEntity
  8
0
100
AcDbCircle
 62
7
  6
CONTINUOUS
 10
13.9462334885
 20
6.6954346978
 40
0.02
100
AcDbArc
 50
0.0
 51
90.0
  0
ARC
  5
243
100
AcDbEntity
  8
0
100
AcDbCircle
 62
7
  6
CONTINUOUS
 10
13.9962334885
 20
5.6954346978
 40
0.02
100
AcDbArc
 50
0.0
 51
90.0
  0
ARC
  5
244
100
AcDbEntity
  8
0
100
AcDbCircle
 62
7
  6
CONTINUOUS
 10
13.5688512269
 20
6.695434661
 40
0.0199999415
100
AcDbArc
 50
89.9998190917
 51
179.9998944463
  0
ARC
  5
245
100
AcDbEntity
  8
0
100
AcDbCircle
 62
9
  6
CONTINUOUS
 10
13.9397603406
 20
6.6956633193
 40
0.0197713805
100
AcDbArc
 50
74.9127718089
 51
89.9741981716
  0
ARC
  5
246
100
AcDbEntity
  8
0
100
AcDbCircle
 62
9
  6
CONTINUOUS
 10
13.9397879043
 20
6.6957817014
 40
0.0196499049
100
AcDbArc
 50
72.1079674979
 51
74.9005254261
  0
ARC
  5
247
100
AcDbEntity
  8
0
100
AcDbCircle
 62
9
  6
CONTINUOUS
 10
13.0912430373
 20
8.3261504443
 40
0.389996312
100
AcDbArc
 50
293.8979123811
 51
66.1021016343
  0
ARC
  5
248
100
AcDbEntity
  8
0
100
AcDbCircle
 62
7
  6
CONTINUOUS
 10
13.1692334885
 20
8.8754346978
 40
0.04
100
AcDbArc
 50
0.0
 51
90.0
  0
ARC
  5
249
100
AcDbEntity
  8
0
100
AcDbCircle
 62
7
  6
CONTINUOUS
 10
13.1692334885
 20
7.9714346978
 40
0.04
100
AcDbArc
 50
270.0
 51
360.0
  0
SPLINE
  5
24A
100
AcDbEntity
  8
0
100
AcDbSpline
 62
9
  6
CONTINUOUS
 70
0
 71
3
 72
15
 73
11
 74
0
 42
0.0000001
 43
0.0000001
 44
0.0000000001
 40
0.0
 40
0.0
 40
0.0
 40
0.0
 40
0.1245487356
 40
0.2492057946
 40
0.374029004
 40
0.4990011283
 40
0.6240902922
 40
0.7493078871
 40
0.8747184066
 40
1.0
 40
1.0
 40
1.0
 40
1.0
 10
13.9458248323
 20
6.7144812806
 30
0.0
 10
13.9468171383
 20
6.7141609461
 30
0.0
 10
13.9487552781
 20
6.7133609982
 30
0.0
 10
13.9514352384
 20
6.7117174196
 30
0.0
 10
13.9538276921
 20
6.7096712133
 30
0.0
 10
13.9558702033
 20
6.7072711386
 30
0.0
 10
13.9575146586
 20
6.7045789552
 30
0.0
 10
13.9587194402
 20
6.7016590504
 30
0.0
 10
13.9594527038
 20
6.6985859535
 30
0.0
 10
13.9596182103
 20
6.6964835632
 30
0.0
 10
13.9596182103
 20
6.6954346978
 30
0.0
  0
LINE
  5
24B
100
AcDbEntity
  8
0
100
AcDbLine
 62
7
  6
CONTINUOUS
 10
12.7512334885
 20
6.0974346978
 11
12.751293095
 21
6.0982571992
  0
LINE
  5
24C
100
AcDbEntity
  8
0
100
AcDbLine
 62
7
  6
CONTINUOUS
 10
12.751293095
 20
6.0982571992
 11
12.7513221468
 21
6.098669226
  0
LINE
  5
24D
100
AcDbEntity
  8
0
100
AcDbLine
 62
7
  6
CONTINUOUS
 10
13.4311401531
 20
6.098739133
 11
13.4311837252
 21
6.0981200398
  0
LINE
  5
24E
100
AcDbEntity
  8
0
100
AcDbLine
 62
7
  6
CONTINUOUS
 10
13.4311837252
 20
6.0981200398
 11
13.4312334885
 21
6.0974346978
  0
SPLINE
  5
24F
100
AcDbEntity
  8
0
100
AcDbSpline
 62
9
  6
CONTINUOUS
 70
0
 71
3
 72
14
 73
10
 74
0
 42
0.0000001
 43
0.0000001
 44
0.0000000001
 40
0.0
 40
0.0
 40
0.0
 40
0.0
 40
0.1254728974
 40
0.2507487833
 40
0.3756496338
 40
0.5003122669
 40
0.6249015024
 40
0.7497373453
 40
1.0
 40
1.0
 40
1.0
 40
1.0
 10
13.1625951906
 20
7.8914346978
 30
0.0
 10
13.1656582919
 20
7.8914345837
 30
0.0
 10
13.1717876102
 20
7.891861481
 30
0.0
 10
13.1807917761
 20
7.8937354899
 30
0.0
 10
13.1894448563
 20
7.8967954527
 30
0.0
 10
13.1976077399
 20
7.9009497043
 30
0.0
 10
13.2051680429
 20
7.9061190193
 30
0.0
 10
13.2143245627
 20
7.9142119194
 30
0.0
 10
13.2200555452
 20
7.9214951814
 30
0.0
 10
13.223264222
 20
7.9266942865
 30
0.0
  0
SPLINE
  5
250
100
AcDbEntity
  8
0
100
AcDbSpline
 62
9
  6
CONTINUOUS
 70
0
 71
3
 72
14
 73
10
 74
0
 42
0.0000001
 43
0.0000001
 44
0.0000000001
 40
0.0
 40
0.0
 40
0.0
 40
0.0
 40
0.2502918511
 40
0.3751240051
 40
0.4997071552
 40
0.6243651057
 40
0.7492569972
 40
0.8745265038
 40
1.0
 40
1.0
 40
1.0
 40
1.0
 10
12.9592082109
 20
7.9266975117
 30
0.0
 10
12.9624178075
 20
7.9214982129
 30
0.0
 10
12.968141738
 20
7.9142089931
 30
0.0
 10
12.9772996732
 20
7.9061162825
 30
0.0
 10
12.984862113
 20
7.9009510881
 30
0.0
 10
12.9930239149
 20
7.8967964743
 30
0.0
 10
13.0016756502
 20
7.8937342718
 30
0.0
 10
13.0106795885
 20
7.8918607928
 30
0.0
 10
13.0168087029
 20
7.8914346824
 30
0.0
 10
13.0198717864
 20
7.8914346978
 30
0.0
  0
SPLINE
  5
251
100
AcDbEntity
  8
0
100
AcDbSpline
 62
9
  6
CONTINUOUS
 70
0
 71
3
 72
24
 73
20
 74
0
 42
0.0000001
 43
0.0000001
 44
0.0000000001
 40
0.0
 40
0.0
 40
0.0
 40
0.0
 40
0.0544783673
 40
0.109141386
 40
0.1641755559
 40
0.2197691146
 40
0.2761127884
 40
0.3334018617
 40
0.3918359399
 40
0.4516168016
 40
0.5129490547
 40
0.5760360103
 40
0.6410720427
 40
0.7082349975
 40
0.7776664234
 40
0.8494554636
 40
0.8862441411
 40
0.9236151203
 40
1.0
 40
1.0
 40
1.0
 40
1.0
 10
13.521233548
 20
8.2978435495
 30
0.0
 10
13.5212328632
 20
8.2885741933
 30
0.0
 10
13.5205010573
 20
8.2699958444
 30
0.0
 10
13.517207327
 20
8.2422290469
 30
0.0
 10
13.5117046644
 20
8.21461887
 30
0.0
 10
13.5039705205
 20
8.1872517378
 30
0.0
 10
13.4939737791
 20
8.1602176034
 30
0.0
 10
13.4816759228
 20
8.1336155771
 30
0.0
 10
13.46703116
 20
8.1075559842
 30
0.0
 10
13.4499868295
 20
8.0821646283
 30
0.0
 10
13.4304880487
 20
8.0575853357
 30
0.0
 10
13.4084810844
 20
8.0339837571
 30
0.0
 10
13.3839162079
 20
8.0115557815
 30
0.0
 10
13.3567649709
 20
7.9905227558
 30
0.0
 10
13.3270218824
 20
7.9711518679
 30
0.0
 10
13.3003353209
 20
7.9567483575
 30
0.0
 10
13.2777837577
 20
7.9463356951
 30
0.0
 10
13.2540923737
 20
7.9365837212
 30
0.0
 10
13.2357376325
 20
7.9303450507
 30
0.0
 10
13.223264222
 20
7.9266942865
 30
0.0
  0
SPLINE
  5
252
100
AcDbEntity
  8
0
100
AcDbSpline
 62
9
  6
CONTINUOUS
 70
0
 71
3
 72
15
 73
11
 74
0
 42
0.0000001
 43
0.0000001
 44
0.0000000001
 40
0.0
 40
0.0
 40
0.0
 40
0.0
 40
0.121843533
 40
0.2476228843
 40
0.375812896
 40
0.5050811862
 40
0.6338482185
 40
0.7602665555
 40
0.8826868162
 40
1.0
 40
1.0
 40
1.0
 40
1.0
 10
12.9332334885
 20
7.9695894287
 30
0.0
 10
12.9346421243
 20
7.9695894287
 30
0.0
 10
12.9375059916
 20
7.9696984961
 30
0.0
 10
12.9418267831
 20
7.9701917844
 30
0.0
 10
12.9461800578
 20
7.971043766
 30
0.0
 10
12.9504758667
 20
7.9722840192
 30
0.0
 10
12.9546212723
 20
7.9739049636
 30
0.0
 10
12.9585239041
 20
7.9758774991
 30
0.0
 10
12.962086232
 20
7.9781802099
 30
0.0
 10
12.9642228148
 20
7.9799585542
 30
0.0
 10
12.9652087165
 20
7.9808899189
 30
0.0
  0
SPLINE
  5
253
100
AcDbEntity
  8
0
100
AcDbSpline
 62
9
  6
CONTINUOUS
 70
0
 71
3
 72
12
 73
8
 74
0
 42
0.0000001
 43
0.0000001
 44
0.0000000001
 40
0.0
 40
0.0
 40
0.0
 40
0.0
 40
0.2809579471
 40
0.4133103487
 40
0.5399942528
 40
0.7782047354
 40
1.0
 40
1.0
 40
1.0
 40
1.0
 10
12.9652087165
 20
7.9808899189
 30
0.0
 10
12.9665225261
 20
7.9821310527
 30
0.0
 10
12.9683093836
 20
7.9841263845
 30
0.0
 10
12.9702265434
 20
7.9870289094
 30
0.0
 10
12.9717036776
 20
7.98987209
 30
0.0
 10
12.9729082055
 20
7.9934797408
 30
0.0
 10
12.9732339895
 20
7.9964467432
 30
0.0
 10
12.9732339794
 20
7.9978735096
 30
0.0
  0
SPLINE
  5
254
100
AcDbEntity
  8
0
100
AcDbSpline
 62
9
  6
CONTINUOUS
 70
0
 71
3
 72
19
 73
15
 74
0
 42
0.0000001
 43
0.0000001
 44
0.0000000001
 40
0.0
 40
0.0
 40
0.0
 40
0.0
 40
0.0379893065
 40
0.0779102595
 40
0.1667456293
 40
0.217490115
 40
0.2728316708
 40
0.3327340221
 40
0.3970440592
 40
0.4654807669
 40
0.5374465654
 40
0.6888546422
 40
0.845002781
 40
1.0
 40
1.0
 40
1.0
 40
1.0
 10
12.9732332792
 20
7.9714347739
 30
0.0
 10
12.9732332869
 20
7.9709224518
 30
0.0
 10
12.9731321545
 20
7.9698693409
 30
0.0
 10
12.9725120787
 20
7.9676970558
 30
0.0
 10
12.9712344707
 20
7.9655849892
 30
0.0
 10
12.9694483276
 20
7.9636523764
 30
0.0
 10
12.9677467981
 20
7.9621899577
 30
0.0
 10
12.9657608047
 20
7.9607990722
 30
0.0
 10
12.963509063
 20
7.9594970581
 30
0.0
 10
12.9610162627
 20
7.9583049557
 30
0.0
 10
12.9573596137
 20
7.9568444666
 30
0.0
 10
12.9524488125
 20
7.9553638832
 30
0.0
 10
12.946323256
 20
7.9541469711
 30
0.0
 10
12.9421505622
 20
7.9536612324
 30
0.0
 10
12.9400667544
 20
7.953496795
 30
0.0
  0
SPLINE
  5
255
100
AcDbEntity
  8
0
100
AcDbSpline
 62
9
  6
CONTINUOUS
 70
0
 71
3
 72
12
 73
8
 74
0
 42
0.0000001
 43
0.0000001
 44
0.0000000001
 40
0.0
 40
0.0
 40
0.0
 40
0.0
 40
0.2396085213
 40
0.3631804935
 40
0.4884404073
 40
0.7426550366
 40
1.0
 40
1.0
 40
1.0
 40
1.0
 10
12.940066725
 20
7.9534967749
 30
0.0
 10
12.9409731421
 20
7.9509991247
 30
0.0
 10
12.9426303652
 20
7.9473089434
 30
0.0
 10
12.9453519247
 20
7.9426226945
 30
0.0
 10
12.9484787761
 20
7.9379982499
 30
0.0
 10
12.9529784425
 20
7.9325331523
 30
0.0
 10
12.9570595725
 20
7.9285753299
 30
0.0
 10
12.9592084112
 20
7.9266975118
 30
0.0
  0
SPLINE
  5
256
100
AcDbEntity
  8
0
100
AcDbSpline
 62
9
  6
CONTINUOUS
 70
0
 71
3
 72
23
 73
19
 74
0
 42
0.0000001
 43
0.0000001
 44
0.0000000001
 40
0.0
 40
0.0
 40
0.0
 40
0.0
 40
0.0763862587
 40
0.1505313089
 40
0.2223216673
 40
0.2917543616
 40
0.3589186107
 40
0.4239554908
 40
0.4870437131
 40
0.5483766191
 40
0.6081582287
 40
0.6665933604
 40
0.7238827752
 40
0.7802272213
 40
0.8358217273
 40
0.8908565183
 40
0.9455204915
 40
1.0
 40
1.0
 40
1.0
 40
1.0
 10
12.9592082109
 20
7.9266975117
 30
0.0
 10
12.9467341267
 20
7.9303485079
 30
0.0
 10
12.9224455109
 20
7.9385935296
 30
0.0
 10
12.88772962
 20
7.9537267568
 30
0.0
 10
12.8554436569
 20
7.9711527711
 30
0.0
 10
12.8256982717
 20
7.9905250277
 30
0.0
 10
12.7985464217
 20
8.0115599621
 30
0.0
 10
12.7739799128
 20
8.0339889021
 30
0.0
 10
12.7519729764
 20
8.057592781
 30
0.0
 10
12.732473481
 20
8.082173528
 30
0.0
 10
12.715428995
 20
8.1075666721
 30
0.0
 10
12.7007848184
 20
8.1336282636
 30
0.0
 10
12.6884870746
 20
8.1602319295
 30
0.0
 10
12.6784911221
 20
8.1872678759
 30
0.0
 10
12.6707580427
 20
8.2146368045
 30
0.0
 10
12.6652564589
 20
8.2422486905
 30
0.0
 10
12.6619641865
 20
8.2700171672
 30
0.0
 10
12.6612335187
 20
8.2885966029
 30
0.0
 10
12.6612334367
 20
8.2978664935
 30
0.0
  0
SPLINE
  5
257
100
AcDbEntity
  8
0
100
AcDbSpline
 62
9
  6
CONTINUOUS
 70
0
 71
3
 72
9
 73
5
 74
0
 42
0.0000001
 43
0.0000001
 44
0.0000000001
 40
0.0
 40
0.0
 40
0.0
 40
0.0
 40
0.4872887089
 40
1.0
 40
1.0
 40
1.0
 40
1.0
 10
12.933233232
 20
7.9695901029
 30
0.0
 10
12.934496542
 20
7.9670453425
 30
0.0
 10
12.9369253696
 20
7.9617407355
 30
0.0
 10
12.9390516499
 20
7.9563084021
 30
0.0
 10
12.9400669677
 20
7.9534968031
 30
0.0
  0
SPLINE
  5
258
100
AcDbEntity
  8
0
100
AcDbSpline
 62
9
  6
CONTINUOUS
 70
0
 71
3
 72
16
 73
12
 74
0
 42
0.0000001
 43
0.0000001
 44
0.0000000001
 40
0.0
 40
0.0
 40
0.0
 40
0.0
 40
0.0269585881
 40
0.0583506799
 40
0.094592773
 40
0.135884257
 40
0.2338019174
 40
0.3518937688
 40
0.4890487903
 40
0.6438389199
 40
1.0
 40
1.0
 40
1.0
 40
1.0
 10
12.9466814602
 20
8.7028157181
 30
0.0
 10
12.946474677
 20
8.7027410994
 30
0.0
 10
12.946045181
 20
8.7025290942
 30
0.0
 10
12.9454109283
 20
8.7020871394
 30
0.0
 10
12.9447402276
 20
8.701502704
 30
0.0
 10
12.9437406967
 20
8.7004774772
 30
0.0
 10
12.9424235549
 20
8.6988390699
 30
0.0
 10
12.9407903838
 20
8.696465547
 30
0.0
 10
12.9390363943
 20
8.6936175123
 30
0.0
 10
12.9364292054
 20
8.6890195705
 30
0.0
 10
12.9345240491
 20
8.6853120671
 30
0.0
 10
12.9332327704
 20
8.6827105861
 30
0.0
  0
SPLINE
  5
259
100
AcDbEntity
  8
0
100
AcDbSpline
 62
9
  6
CONTINUOUS
 70
0
 71
3
 72
22
 73
18
 74
0
 42
0.0000001
 43
0.0000001
 44
0.0000000001
 40
0.0
 40
0.0
 40
0.0
 40
0.0
 40
0.0072057822
 40
0.0150479604
 40
0.0239597107
 40
0.0342810348
 40
0.0600878897
 40
0.093971437
 40
0.1367445976
 40
0.1882801742
 40
0.2481458661
 40
0.3158528717
 40
0.3907354709
 40
0.4715028039
 40
0.6448142946
 40
0.8243410544
 40
1.0
 40
1.0
 40
1.0
 40
1.0
 10
13.0132334852
 20
7.9314346896
 30
0.0
 10
13.0133331169
 20
7.9314346897
 30
0.0
 10
13.0135420689
 20
7.9314048859
 30
0.0
 10
13.0138496888
 20
7.9312742422
 30
0.0
 10
13.0141575148
 20
7.9310572862
 30
0.0
 10
13.0146013644
 20
7.9306173863
 30
0.0
 10
13.0151442101
 20
7.929806481
 30
0.0
 10
13.0157488109
 20
7.9285227193
 30
0.0
 10
13.0163396369
 20
7.9268491221
 30
0.0
 10
13.0169128327
 20
7.9247949087
 30
0.0
 10
13.0174569365
 20
7.9223780441
 30
0.0
 10
13.0179603743
 20
7.9196237768
 30
0.0
 10
13.0184111611
 20
7.9165680732
 30
0.0
 10
13.0189520748
 20
7.9120515152
 30
0.0
 10
13.0194574418
 20
7.906075525
 30
0.0
 10
13.019797111
 20
7.898774806
 30
0.0
 10
13.019871777
 20
7.8938634689
 30
0.0
 10
13.0198717771
 20
7.8914346978
 30
0.0
  0
SPLINE
  5
25A
100
AcDbEntity
  8
0
100
AcDbSpline
 62
9
  6
CONTINUOUS
 70
0
 71
3
 72
18
 73
14
 74
0
 42
0.0000001
 43
0.0000001
 44
0.0000000001
 40
0.0
 40
0.0
 40
0.0
 40
0.0
 40
0.0962692208
 40
0.1477053626
 40
0.2016885011
 40
0.2585801258
 40
0.3183796326
 40
0.4458656937
 40
0.5133229056
 40
0.5826422589
 40
0.7240534407
 40
0.864707323
 40
1.0
 40
1.0
 40
1.0
 40
1.0
 10
12.9732344447
 20
8.7109956707
 30
0.0
 10
12.9732344363
 20
8.7092639349
 30
0.0
 10
12.9728768559
 20
8.7065928941
 30
0.0
 10
12.9717286169
 20
8.7031445647
 30
0.0
 10
12.9704556792
 20
8.7005071332
 30
0.0
 10
12.9687756133
 20
8.697928169
 30
0.0
 10
12.9659645878
 20
8.6945433407
 30
0.0
 10
12.9624668811
 20
8.6915208698
 30
0.0
 10
12.9584447358
 20
8.6889778765
 30
0.0
 10
12.9539864417
 20
8.6866924767
 30
0.0
 10
12.9480214895
 20
8.6845131135
 30
0.0
 10
12.9406365109
 20
8.6830352517
 30
0.0
 10
12.9356671965
 20
8.6827111672
 30
0.0
 10
12.9332334885
 20
8.6827111671
 30
0.0
  0
SPLINE
  5
25B
100
AcDbEntity
  8
0
100
AcDbSpline
 62
9
  6
CONTINUOUS
 70
0
 71
3
 72
18
 73
14
 74
0
 42
0.0000001
 43
0.0000001
 44
0.0000000001
 40
0.0
 40
0.0
 40
0.0
 40
0.0
 40
0.1352925126
 40
0.2759462181
 40
0.4173572572
 40
0.4866765645
 40
0.5541337557
 40
0.6816198649
 40
0.7414194301
 40
0.7983111297
 40
0.8522943579
 40
0.903730597
 40
1.0
 40
1.0
 40
1.0
 40
1.0
 10
13.2492334885
 20
8.6827114398
 30
0.0
 10
13.2467997932
 20
8.6827114399
 30
0.0
 10
13.2418305051
 20
8.6830355224
 30
0.0
 10
13.2344455646
 20
8.6845133755
 30
0.0
 10
13.2284806418
 20
8.6866927248
 30
0.0
 10
13.2240223673
 20
8.6889781102
 30
0.0
 10
13.220000236
 20
8.6915210891
 30
0.0
 10
13.2165025375
 20
8.6945435429
 30
0.0
 10
13.2136915127
 20
8.6979283529
 30
0.0
 10
13.2120114436
 20
8.7005073049
 30
0.0
 10
13.210738499
 20
8.7031447251
 30
0.0
 10
13.2095902466
 20
8.7065930414
 30
0.0
 10
13.2092326518
 20
8.7092640742
 30
0.0
 10
13.2092326329
 20
8.7109958063
 30
0.0
  0
SPLINE
  5
25C
100
AcDbEntity
  8
0
100
AcDbSpline
 62
9
  6
CONTINUOUS
 70
0
 71
3
 72
11
 73
7
 74
0
 42
0.0000001
 43
0.0000001
 44
0.0000000001
 40
0.0
 40
0.0
 40
0.0
 40
0.0
 40
0.2574179603
 40
0.5116280542
 40
0.7603876238
 40
1.0
 40
1.0
 40
1.0
 40
1.0
 10
13.2232640974
 20
7.9266942866
 30
0.0
 10
13.2254082976
 20
7.9285777945
 30
0.0
 10
13.2294904738
 20
7.9325336968
 30
0.0
 10
13.2348595341
 20
7.9390591497
 30
0.0
 10
13.2392670157
 20
7.9460384757
 30
0.0
 10
13.2415117934
 20
7.9509929923
 30
0.0
 10
13.2423999594
 20
7.9534966941
 30
0.0
  0
SPLINE
  5
25D
100
AcDbEntity
  8
0
100
AcDbSpline
 62
9
  6
CONTINUOUS
 70
0
 71
3
 72
9
 73
5
 74
0
 42
0.0000001
 43
0.0000001
 44
0.0000000001
 40
0.0
 40
0.0
 40
0.0
 40
0.0
 40
0.5127136107
 40
1.0
 40
1.0
 40
1.0
 40
1.0
 10
13.2423997104
 20
7.9534967245
 30
0.0
 10
13.243415084
 20
7.9563083945
 30
0.0
 10
13.2455414799
 20
7.9617408344
 30
0.0
 10
13.2479703973
 20
7.9670455538
 30
0.0
 10
13.2492337283
 20
7.9695903654
 30
0.0
  0
SPLINE
  5
25E
100
AcDbEntity
  8
0
100
AcDbSpline
 62
9
  6
CONTINUOUS
 70
0
 71
3
 72
16
 73
12
 74
0
 42
0.0000001
 43
0.0000001
 44
0.0000000001
 40
0.0
 40
0.0
 40
0.0
 40
0.0
 40
0.3561797712
 40
0.5109808161
 40
0.6481431381
 40
0.7662356274
 40
0.8641456451
 40
0.9054306757
 40
0.9416650766
 40
0.9730489528
 40
1.0
 40
1.0
 40
1.0
 40
1.0
 10
13.2492338574
 20
8.682710824
 30
0.0
 10
13.2479422868
 20
8.6853125011
 30
0.0
 10
13.2460368627
 20
8.6890203791
 30
0.0
 10
13.2434294884
 20
8.693618881
 30
0.0
 10
13.2416754009
 20
8.6964672435
 30
0.0
 10
13.2400421492
 20
8.6988408999
 30
0.0
 10
13.2387248777
 20
8.7004792156
 30
0.0
 10
13.2377252264
 20
8.7015041856
 30
0.0
 10
13.2370544613
 20
8.7020883453
 30
0.0
 10
13.2364201458
 20
8.7025299536
 30
0.0
 10
13.235990607
 20
8.7027416546
 30
0.0
 10
13.2357838152
 20
8.7028161021
 30
0.0
  0
SPLINE
  5
25F
100
AcDbEntity
  8
0
100
AcDbSpline
 62
9
  6
CONTINUOUS
 70
0
 71
3
 72
22
 73
18
 74
0
 42
0.0000001
 43
0.0000001
 44
0.0000000001
 40
0.0
 40
0.0
 40
0.0
 40
0.0
 40
0.1964911436
 40
0.3800738582
 40
0.5451873572
 40
0.619666775
 40
0.6883045969
 40
0.7508284717
 40
0.8069286269
 40
0.8562521357
 40
0.8984274112
 40
0.9332004302
 40
0.960880229
 40
0.9723373658
 40
0.9824492786
 40
0.9915254027
 40
1.0
 40
1.0
 40
1.0
 40
1.0
 10
12.9592080015
 20
7.9266975116
 30
0.0
 10
12.9608615418
 20
7.9279281948
 30
0.0
 10
12.9640195266
 20
7.9303638083
 30
0.0
 10
12.9684298816
 20
7.9340059039
 30
0.0
 10
12.9717575354
 20
7.9369471423
 30
0.0
 10
12.9740766018
 20
7.9392013231
 30
0.0
 10
12.9755604847
 20
7.9407683411
 30
0.0
 10
12.9768316811
 20
7.942267415
 30
0.0
 10
12.9778934813
 20
7.9436746032
 30
0.0
 10
12.9787497899
 20
7.9449658265
 30
0.0
 10
12.979405339
 20
7.9461184566
 30
0.0
 10
12.9798677932
 20
7.9471150832
 30
0.0
 10
12.9801029312
 20
7.9478589727
 30
0.0
 10
12.9801697132
 20
7.9483727303
 30
0.0
 10
12.9801627011
 20
7.9486957244
 30
0.0
 10
12.9801000436
 20
7.9489812858
 30
0.0
 10
12.9800177853
 20
7.9491486038
 30
0.0
 10
12.9799683391
 20
7.9492224856
 30
0.0
  0
SPLINE
  5
260
100
AcDbEntity
  8
0
100
AcDbSpline
 62
9
  6
CONTINUOUS
 70
0
 71
3
 72
19
 73
15
 74
0
 42
0.0000001
 43
0.0000001
 44
0.0000000001
 40
0.0
 40
0.0
 40
0.0
 40
0.0
 40
0.0368675246
 40
0.0756816048
 40
0.1622610514
 40
0.2118724932
 40
0.2661450207
 40
0.3251232182
 40
0.3887520931
 40
0.4568439486
 40
0.5288379583
 40
0.6815224006
 40
0.8406613461
 40
1.0
 40
1.0
 40
1.0
 40
1.0
 10
13.2092334974
 20
7.9714347518
 30
0.0
 10
13.2092334962
 20
7.9709375489
 30
0.0
 10
13.2093284298
 20
7.9699146618
 30
0.0
 10
13.2099147849
 20
7.9677964186
 30
0.0
 10
13.2111351827
 20
7.9657233213
 30
0.0
 10
13.2128559408
 20
7.9638123146
 30
0.0
 10
13.2145074064
 20
7.962356614
 30
0.0
 10
13.2164481973
 20
7.9609641531
 30
0.0
 10
13.2186642475
 20
7.9596529863
 30
0.0
 10
13.2211346082
 20
7.9584451109
 30
0.0
 10
13.2247922214
 20
7.9569520182
 30
0.0
 10
13.229750758
 20
7.9554267516
 30
0.0
 10
13.2359869868
 20
7.9541680495
 30
0.0
 10
13.2402577788
 20
7.9536657944
 30
0.0
 10
13.2423999919
 20
7.9534967419
 30
0.0
  0
SPLINE
  5
261
100
AcDbEntity
  8
0
100
AcDbSpline
 62
9
  6
CONTINUOUS
 70
0
 71
3
 72
19
 73
15
 74
0
 42
0.0000001
 43
0.0000001
 44
0.0000000001
 40
0.0
 40
0.0
 40
0.0
 40
0.0
 40
0.0218065951
 40
0.0462993768
 40
0.0755077586
 40
0.1105913702
 40
0.1521619804
 40
0.2004543531
 40
0.2554659745
 40
0.3170677018
 40
0.4589322879
 40
0.622913495
 40
0.8050860833
 40
1.0
 40
1.0
 40
1.0
 40
1.0
 10
13.2025796287
 20
7.9493438746
 30
0.0
 10
13.2024526164
 20
7.9491515971
 30
0.0
 10
13.2022681998
 20
7.9486827633
 30
0.0
 10
13.2022571825
 20
7.9478731787
 30
0.0
 10
13.202479906
 20
7.9469549186
 30
0.0
 10
13.2029309459
 20
7.9459268229
 30
0.0
 10
13.2036097972
 20
7.9447915889
 30
0.0
 10
13.2045068412
 20
7.9435493724
 30
0.0
 10
13.2056133372
 20
7.9422020369
 30
0.0
 10
13.2074427217
 20
7.940172787
 30
0.0
 10
13.210195659
 20
7.9374306133
 30
0.0
 10
13.2140312675
 20
7.9339808055
 30
0.0
 10
13.2184453744
 20
7.9303441896
 30
0.0
 10
13.2216094904
 20
7.9279205226
 30
0.0
 10
13.2232644512
 20
7.9266942863
 30
0.0
  0
SPLINE
  5
262
100
AcDbEntity
  8
0
100
AcDbSpline
 62
9
  6
CONTINUOUS
 70
0
 71
3
 72
22
 73
18
 74
0
 42
0.0000001
 43
0.0000001
 44
0.0000000001
 40
0.0
 40
0.0
 40
0.0
 40
0.0
 40
0.1756589073
 40
0.3551856449
 40
0.5284971276
 40
0.6092644608
 40
0.6841470622
 40
0.7518540713
 40
0.8117197683
 40
0.8632553512
 40
0.9060285197
 40
0.9399120762
 40
0.965718942
 40
0.9760402721
 40
0.9849520286
 40
0.9927942128
 40
1.0
 40
1.0
 40
1.0
 40
1.0
 10
13.1625951913
 20
7.8914346978
 30
0.0
 10
13.1625951912
 20
7.8938634691
 30
0.0
 10
13.1626698571
 20
7.8987748068
 30
0.0
 10
13.1630095264
 20
7.906075527
 30
0.0
 10
13.1635148939
 20
7.9120515184
 30
0.0
 10
13.1640558081
 20
7.9165680777
 30
0.0
 10
13.1645065953
 20
7.9196237822
 30
0.0
 10
13.1650100337
 20
7.9223780504
 30
0.0
 10
13.1655541381
 20
7.9247949158
 30
0.0
 10
13.1661273345
 20
7.92684913
 30
0.0
 10
13.1667181612
 20
7.9285227279
 30
0.0
 10
13.1673227626
 20
7.9298064901
 30
0.0
 10
13.1678656088
 20
7.9306173959
 30
0.0
 10
13.1683094587
 20
7.931057296
 30
0.0
 10
13.1686172851
 20
7.9312742522
 30
0.0
 10
13.1689249052
 20
7.9314048962
 30
0.0
 10
13.1691338574
 20
7.9314347001
 30
0.0
 10
13.1692334892
 20
7.9314347001
 30
0.0
  0
SPLINE
  5
263
100
AcDbEntity
  8
0
100
AcDbSpline
 62
9
  6
CONTINUOUS
 70
0
 71
3
 72
12
 73
8
 74
0
 42
0.0000001
 43
0.0000001
 44
0.0000000001
 40
0.0
 40
0.0
 40
0.0
 40
0.0
 40
0.2224741111
 40
0.4609705969
 40
0.5875666458
 40
0.7196972356
 40
1.0
 40
1.0
 40
1.0
 40
1.0
 10
13.2092330058
 20
7.9978737418
 30
0.0
 10
13.2092329956
 20
7.9964807847
 30
0.0
 10
13.2095431317
 20
7.9935871836
 30
0.0
 10
13.2106904039
 20
7.9900630749
 30
0.0
 10
13.2120969169
 20
7.9872801332
 30
0.0
 10
13.2139231903
 20
7.9844365079
 30
0.0
 10
13.2156295277
 20
7.9824735357
 30
0.0
 10
13.2168856642
 20
7.9812478659
 30
0.0
  0
SPLINE
  5
264
100
AcDbEntity
  8
0
100
AcDbSpline
 62
9
  6
CONTINUOUS
 70
0
 71
3
 72
15
 73
11
 74
0
 42
0.0000001
 43
0.0000001
 44
0.0000000001
 40
0.0
 40
0.0
 40
0.0
 40
0.0
 40
0.1168117601
 40
0.2388948797
 40
0.3651901722
 40
0.4940222315
 40
0.6234873175
 40
0.7519223199
 40
0.8779507385
 40
1.0
 40
1.0
 40
1.0
 40
1.0
 10
13.2168856642
 20
7.9812478659
 30
0.0
 10
13.2178666089
 20
7.9802907133
 30
0.0
 10
13.2200007597
 20
7.9784602107
 30
0.0
 10
13.2235783107
 20
7.9760853557
 30
0.0
 10
13.2275174383
 20
7.974050579
 30
0.0
 10
13.2317149821
 20
7.9723764358
 30
0.0
 10
13.2360740125
 20
7.9710933428
 30
0.0
 10
13.2404972675
 20
7.970212225
 30
0.0
 10
13.2448896643
 20
7.9697023699
 30
0.0
 10
13.2478014922
 20
7.969589654
 30
0.0
 10
13.2492334885
 20
7.9695896539
 30
0.0
  0
ENDSEC
  0
SECTION
  2
OBJECTS
  0
DICTIONARY
  5
C
100
AcDbDictionary
280
0
281
1
  3
ACAD_GROUP
350
D
  3
ACAD_MLINESTYLE
350
17
  3
ACAD_LAYOUT
350
1A
  3
ACAD_PLOTSETTINGS
350
19
  3
ACAD_PLOTSTYLENAME
350
E
  0
DICTIONARY
  5
D
102
{ACAD_REACTORS
330
C
102
}
100
AcDbDictionary
280
0
281
1
  0
ACDBDICTIONARYWDFLT
  5
E
102
{ACAD_REACTORS
330
C
102
}
100
AcDbDictionary
281
1
  3
Normal
350
F
100
AcDbDictionaryWithDefault
340
F
  0
DICTIONARY
  5
17
102
{ACAD_REACTORS
330
C
102
}
100
AcDbDictionary
280
0
281
1
  3
Standard
350
18
  0
DICTIONARY
  5
19
102
{ACAD_REACTORS
330
C
102
}
100
AcDbDictionary
281
1
  0
DICTIONARY
  5
1A
102
{ACAD_REACTORS
330
C
102
}
100
AcDbDictionary
281
1
  3
Model
350
265
  3
Layout1
350
266
  0
ACDBPLACEHOLDER
  5
F
102
{ACAD_REACTORS
330
E
102
}
  0
MLINESTYLE
  5
18
102
{ACAD_REACTORS
330
17
102
}
100
AcDbMlineStyle
  2
STANDARD
 70
0
  3

 62
256
 51
90.0
 52
90.0
 71
2
 49
0.5
 62
256
  6
BYLAYER
 49
-0.5
 62
256
  6
BYLAYER
  0
LAYOUT
  5
265
102
{ACAD_REACTORS
330
1A
102
}
100
AcDbPlotSettings
  1

  2
none_device
  4
ANSI_C_(22.00_x_17.00_Inches)
  6

 40
0.0
 41
0.0
 42
0.0
 43
0.0
 44
558.8
 45
431.8
 46
0.0
 47
0.0
 48
0.0
 49
0.0
140
0.0
141
0.0
142
1.0
143
1.0
 70
1024
 72
0
 73
0
 74
0
  7

 75
0
147
1.0
148
0.0
149
0.0
100
AcDbLayout
  1
Model
 70
0
 71
0
 10
0.0
 20
0.0
 11
22.0
 21
17.0
 12
0.0
 22
0.0
 32
0.0
 14
0.0
 24
0.0
 34
0.0
 15
0.0
 25
0.0
 35
0.0
146
0.0
 13
0.0
 23
0.0
 33
0.0
 16
1.0
 26
0.0
 36
0.0
 17
0.0
 27
1.0
 37
0.0
 76
0
330
202
345
0
346
0
  0
LAYOUT
  5
266
102
{ACAD_REACTORS
330
1A
102
}
100
AcDbPlotSettings
  1

  2
none_device
  4
ANSI_C_(22.00_x_17.00_Inches)
  6

 40
0.0
 41
0.0
 42
0.0
 43
0.0
 44
558.8
 45
431.8
 46
0.0
 47
0.0
 48
0.0
 49
0.0
140
0.0
141
0.0
142
1.0
143
1.0
 70
0
 72
0
 73
0
 74
0
  7

 75
0
147
1.0
148
0.0
149
0.0
100
AcDbLayout
  1
Layout1
 70
0
 71
1
 10
0.0
 20
0.0
 11
22.0
 21
17.0
 12
0.0
 22
0.0
 32
0.0
 14
0.0
 24
0.0
 34
0.0
 15
0.0
 25
0.0
 35
0.0
146
0.0
 13
0.0
 23
0.0
 33
0.0
 16
1.0
 26
0.0
 36
0.0
 17
0.0
 27
1.0
 37
0.0
 76
0
330
203
345
0
346
0
  0
ENDSEC
  0
EOF
