999
DXF file: E:\BT Custom\CADOUTPUT\_TOP.dxf
999
Pro/ENGINEER 2018400 by Parametric Technology Corporation
  0
SECTION
  2
HEADER
  9
$ACADVER
  1
AC1018
  9
$DWGCODEPAGE
  3
ANSI_1252
  9
$EXTMAX
 10
22.0
 20
17.0
 30
0.0
  9
$EXTMIN
 10
0.0
 20
0.0
 30
0.0
  9
$LIMMIN
 10
0.0
 20
0.0
  9
$LIMMAX
 10
22.0
 20
17.0
  9
$VIEWCTR
 10
11.0
 20
8.5
  9
$VIEWSIZE
 40
17.0
  9
$CLAYER
  8
0
  9
$LTSCALE
 40
1.21
  9
$CELTYPE
  6
BYLAYER
  9
$DIMSCALE
 40
1.0
  9
$DIMASZ
 40
0.1
  9
$DIMEXO
 40
0.0625
  9
$DIMDLI
 40
0.836
  9
$DIMEXE
 40
0.125
  9
$DIMCEN
 40
0.198
  9
$DIMLFAC
 40
1.0
  9
$DIMBLK
  1
_FILLED
  9
$DIMALT
 70
1
  9
$DIMALTD
 70
2
  9
$DIMALTTD
 70
2
  9
$DIMALTF
 40
25.4
  9
$DIMTXT
 40
0.08
  9
$DIMTOL
 70
1
  9
$DIMLIM
 70
0
  9
$DIMTFAC
 40
1.0
  9
$DIMTP
 40
0.001
  9
$DIMTM
 40
0.001
  9
$DIMGAP
 40
0.09
  9
$DIMDSEP
 70
46
  9
$AUNITS
 70
0
  9
$PDMODE
 70
3
  9
$PDSIZE
 40
0.06
  9
$HANDSEED
  5
28B
  9
$TILEMODE
 70
1
  9
$MEASUREMENT
 70
0
  9
$INSUNITS
 70
1
  0
ENDSEC
  0
SECTION
  2
CLASSES
  0
CLASS
  1
ACDBDICTIONARYWDFLT
  2
AcDbDictionaryWithDefault
  3
AutoCAD 2000
 90
0
 91
1
280
0
281
0
  0
CLASS
  1
ACDBPLACEHOLDER
  2
AcDbPlaceHolder
  3
AutoCAD 2000
 90
0
 91
1
280
0
281
0
  0
CLASS
  1
LAYOUT
  2
AcDbLayout
  3
AutoCAD 2000
 90
0
 91
0
280
0
281
0
  0
ENDSEC
  0
SECTION
  2
TABLES
  0
TABLE
  2
VPORT
  5
8
100
AcDbSymbolTable
 70
2
  0
VPORT
  5
1F4
100
AcDbSymbolTableRecord
100
AcDbViewportTableRecord
  2
*ACTIVE
 70
0
 10
0.0
 20
0.0
 11
1.0
 21
1.0
 12
11.0
 22
8.5
 13
0.0
 23
0.0
 14
1.0
 24
1.0
 15
0.0
 25
0.0
 16
0.0
 26
0.0
 36
1.0
 17
0.0
 27
0.0
 37
0.0
 40
17.0
 41
1.2941176471
 42
50.0
 43
0.0
 44
0.0
 50
0.0
 51
0.0
 71
0
 72
100
 73
1
 74
1
 75
0
 76
0
 77
0
 78
0
  0
ENDTAB
  0
TABLE
  2
LTYPE
  5
5
100
AcDbSymbolTable
 70
6
  0
LTYPE
  5
14
100
AcDbSymbolTableRecord
100
AcDbLinetypeTableRecord
  2
BYBLOCK
 70
0
  3

 72
65
 73
0
 40
0.0
  0
LTYPE
  5
15
100
AcDbSymbolTableRecord
100
AcDbLinetypeTableRecord
  2
BYLAYER
 70
0
  3

 72
65
 73
0
 40
0.0
  0
LTYPE
  5
16
100
AcDbSymbolTableRecord
100
AcDbLinetypeTableRecord
  2
CONTINUOUS
 70
64
  3
Solid line
 72
65
 73
0
 40
0.0
  0
LTYPE
  5
1F5
100
AcDbSymbolTableRecord
100
AcDbLinetypeTableRecord
  2
CENTER
 70
64
  3
____ _ ____ _ ____ _ ____ _ ____ _ ____ _ ____
 72
65
 73
4
 40
0.6
 49
0.375
 74
0
 49
-0.075
 74
0
 49
0.075
 74
0
 49
-0.075
 74
0
  0
LTYPE
  5
1F6
100
AcDbSymbolTableRecord
100
AcDbLinetypeTableRecord
  2
HIDDEN
 70
64
  3
- - - - - - - - - - - - - - - - - - - -
 72
65
 73
2
 40
0.2
 49
0.1
 74
0
 49
-0.1
 74
0
  0
LTYPE
  5
1F7
100
AcDbSymbolTableRecord
100
AcDbLinetypeTableRecord
  2
PHANTOM
 70
64
  3
_____ _ _ _____ _ _ _____ _ _ _____
 72
65
 73
6
 40
0.8
 49
0.45
 74
0
 49
-0.05
 74
0
 49
0.1
 74
0
 49
-0.05
 74
0
 49
0.1
 74
0
 49
-0.05
 74
0
  0
LTYPE
  5
1F8
100
AcDbSymbolTableRecord
100
AcDbLinetypeTableRecord
  2
DOT
 70
64
  3
. . . . . . . . . . . . . . . . . . . .
 72
65
 73
2
 40
0.2
 49
0.1
 74
0
 49
-0.1
 74
0
  0
LTYPE
  5
1F9
100
AcDbSymbolTableRecord
100
AcDbLinetypeTableRecord
  2
DASHED
 70
64
  3
- - - - - - - - - - - - - - - - - - - -
 72
65
 73
2
 40
0.2
 49
0.1
 74
0
 49
-0.1
 74
0
  0
ENDTAB
  0
TABLE
  2
LAYER
  5
2
100
AcDbSymbolTable
 70
36
  0
LAYER
  5
10
100
AcDbSymbolTableRecord
100
AcDbLayerTableRecord
  2
0
 70
0
 62
7
  6
CONTINUOUS
370
-3
390
F
  0
LAYER
  5
1FA
100
AcDbSymbolTableRecord
100
AcDbLayerTableRecord
  2
DEFAULT_1
 70
0
 62
7
  6
CENTER
370
-3
390
F
  0
LAYER
  5
1FB
100
AcDbSymbolTableRecord
100
AcDbLayerTableRecord
  2
DEFAULT_2
 70
0
 62
8
  6
HIDDEN
370
-3
390
F
  0
LAYER
  5
1FC
100
AcDbSymbolTableRecord
100
AcDbLayerTableRecord
  2
DEFAULT_3
 70
0
 62
7
  6
PHANTOM
370
-3
390
F
  0
LAYER
  5
1FD
100
AcDbSymbolTableRecord
100
AcDbLayerTableRecord
  2
ALL_FEATURES
 70
0
 62
7
  6
CONTINUOUS
370
-3
390
F
  0
LAYER
  5
1FE
100
AcDbSymbolTableRecord
100
AcDbLayerTableRecord
  2
AXES_FEATURES
 70
0
 62
7
  6
CONTINUOUS
370
-3
390
F
  0
LAYER
  5
1FF
100
AcDbSymbolTableRecord
100
AcDbLayerTableRecord
  2
DIMENSIONS
 70
0
 62
7
  6
CONTINUOUS
370
-3
390
F
  0
ENDTAB
  0
TABLE
  2
STYLE
  5
3
100
AcDbSymbolTable
 70
1
  0
STYLE
  5
11
100
AcDbSymbolTableRecord
100
AcDbTextStyleTableRecord
  2
STANDARD
 70
0
 40
0.0
 41
0.8
 50
0.0
 71
0
 42
0.2
  3
txt
  4

  0
STYLE
  5
200
100
AcDbSymbolTableRecord
100
AcDbTextStyleTableRecord
  2
TEXTSTYLE_1
 70
0
 40
0.0
 41
0.8
 50
0.0
 71
0
 42
0.2
  3
gdt
  4

  0
ENDTAB
  0
TABLE
  2
VIEW
  5
6
100
AcDbSymbolTable
 70
0
  0
ENDTAB
  0
TABLE
  2
UCS
  5
7
100
AcDbSymbolTable
 70
0
  0
ENDTAB
  0
TABLE
  2
APPID
  5
9
100
AcDbSymbolTable
 70
1
  0
APPID
  5
201
100
AcDbSymbolTableRecord
100
AcDbRegAppTableRecord
  2
ACAD
 70
0
  0
ENDTAB
  0
TABLE
  2
BLOCK_RECORD
  5
1
100
AcDbSymbolTable
 70
0
  0
BLOCK_RECORD
  5
202
100
AcDbSymbolTableRecord
100
AcDbBlockTableRecord
  2
*Model_Space
  0
BLOCK_RECORD
  5
203
100
AcDbSymbolTableRecord
100
AcDbBlockTableRecord
  2
*Paper_Space
  0
BLOCK_RECORD
  5
204
100
AcDbSymbolTableRecord
100
AcDbBlockTableRecord
  2
_FILLED
  0
ENDTAB
  0
TABLE
  2
DIMSTYLE
  5
A
100
AcDbSymbolTable
 70
1
100
AcDbDimStyleTable
 71
0
  0
DIMSTYLE
105
205
100
AcDbSymbolTableRecord
100
AcDbDimStyleTableRecord
  2
STANDARD
 70
0
  3

  4

 40
1.0
 41
0.1
 42
0.0625
 43
0.38
 44
0.125
 45
0.0
 46
0.0
 47
0.001
 48
0.001
140
0.08
141
0.09
142
0.0
143
25.4
144
1.0
145
0.0
146
1.0
147
0.09
 71
1.0
 72
0.0
 73
1
 74
1
 75
0
 76
0
 77
0
 78
4
 79
1
170
1
171
2
172
0
173
0
174
0
175
0
176
0
177
0
178
0
270
2
179
3
271
3
272
3
273
2
274
2
275
0
280
0
281
0
282
0
283
1
284
4
285
0
286
0
287
3
288
0
340
11
278
46
341
204
342
204
343
204
344
204
  0
ENDTAB
  0
ENDSEC
  0
SECTION
  2
BLOCKS
  0
BLOCK
  5
20
100
AcDbEntity
  8
0
100
AcDbBlockBegin
  2
*Model_Space
 70
0
 10
0.0
 20
0.0
 30
0.0
  3
*Model_Space
  1

  0
ENDBLK
  5
21
100
AcDbEntity
  8
0
100
AcDbBlockEnd
  0
BLOCK
  5
1C
100
AcDbEntity
  8
0
100
AcDbBlockBegin
  2
*Paper_Space
 70
0
 10
0.0
 20
0.0
 30
0.0
  3
*Paper_Space
  1

  0
ENDBLK
  5
1D
100
AcDbEntity
  8
0
100
AcDbBlockEnd
  0
BLOCK
  5
206
100
AcDbEntity
  8
0
100
AcDbBlockBegin
  2
_FILLED
 70
64
 10
0.0
 20
0.0
  3
_FILLED
  1

  0
SOLID
  5
207
100
AcDbEntity
  8
0
  6
BYBLOCK
 62
0
100
AcDbTrace
 10
0.0
 20
0.0
 11
-1.0
 21
0.2
 12
-1.0
 22
-0.2
 13
-1.0
 23
-0.2
  0
ENDBLK
  5
208
100
AcDbEntity
  8
0
  6
BYBLOCK
 62
0
100
AcDbBlockEnd
  0
ENDSEC
  0
SECTION
  2
ENTITIES
  0
LINE
  5
209
100
AcDbEntity
  8
0
100
AcDbLine
 62
7
  6
CONTINUOUS
 10
4.4873183383
 20
9.7855818598
 11
4.4873183383
 21
9.9415818598
  0
LINE
  5
20A
100
AcDbEntity
  8
0
100
AcDbLine
 62
9
  6
CONTINUOUS
 10
4.5273183383
 20
9.9815818598
 11
4.5273183383
 21
9.7455818598
  0
LINE
  5
20B
100
AcDbEntity
  8
0
100
AcDbLine
 62
7
  6
CONTINUOUS
 10
6.6380875272
 20
9.9956073467
 11
6.638078875
 21
9.9955806094
  0
LWPOLYLINE
  5
20C
100
AcDbEntity
  8
0
100
AcDbPolyline
 62
7
  6
CONTINUOUS
 90
3
 70
0
 10
6.6382184737
 20
9.9959900702
 10
6.6377057767
 20
9.9949426411
 10
6.6359815317
 20
9.9923129296
  0
LINE
  5
20D
100
AcDbEntity
  8
0
100
AcDbLine
 62
7
  6
CONTINUOUS
 10
6.6359815317
 20
9.9923129296
 11
6.6333400928
 21
9.9893686894
  0
LWPOLYLINE
  5
20E
100
AcDbEntity
  8
0
100
AcDbPolyline
 62
7
  6
CONTINUOUS
 90
3
 70
0
 10
6.6333400928
 20
9.9893686894
 10
6.6301218759
 20
9.9867162086
 10
6.6266284161
 20
9.984600097
  0
LWPOLYLINE
  5
20F
100
AcDbEntity
  8
0
100
AcDbPolyline
 62
7
  6
CONTINUOUS
 90
6
 70
0
 10
6.6266284161
 20
9.984600097
 10
6.6231084971
 20
9.9830829347
 10
6.6198531239
 20
9.9821530339
 10
6.6171535215
 20
9.9817108409
 10
6.6150739939
 20
9.9815834517
 10
6.6148312225
 20
9.9815818826
  0
LINE
  5
210
100
AcDbEntity
  8
0
100
AcDbLine
 62
9
  6
CONTINUOUS
 10
7.6343183383
 20
9.7455818598
 11
7.6343183383
 21
9.9815818598
  0
LINE
  5
211
100
AcDbEntity
  8
0
100
AcDbLine
 62
7
  6
CONTINUOUS
 10
7.6743183383
 20
9.9415818598
 11
7.6743183383
 21
9.7855818598
  0
LINE
  5
212
100
AcDbEntity
  8
0
100
AcDbLine
 62
7
  6
CONTINUOUS
 10
6.638088108
 20
9.7315543573
 11
6.6380892252
 21
9.731550897
  0
LWPOLYLINE
  5
213
100
AcDbEntity
  8
0
100
AcDbPolyline
 62
7
  6
CONTINUOUS
 90
6
 70
0
 10
6.6346056199
 20
9.7364970508
 10
6.6359394348
 20
9.7349054669
 10
6.6370088958
 20
9.7333910662
 10
6.637754759
 20
9.7321294566
 10
6.6381537105
 20
9.7313207215
 10
6.6381799975
 20
9.7312606455
  0
LINE
  5
214
100
AcDbEntity
  8
0
100
AcDbLine
 62
7
  6
CONTINUOUS
 10
10.6098183383
 20
4.6135818598
 11
10.6098183383
 21
9.8635818598
  0
LINE
  5
215
100
AcDbEntity
  8
0
100
AcDbLine
 62
9
  6
CONTINUOUS
 10
11.148032624
 20
10.3216642409
 11
11.1523183383
 21
10.3411996614
  0
LINE
  5
216
100
AcDbEntity
  8
0
100
AcDbLine
 62
7
  6
CONTINUOUS
 10
10.9223183383
 20
10.3411996614
 11
10.9223183383
 21
10.7121176153
  0
LINE
  5
217
100
AcDbEntity
  8
0
100
AcDbLine
 62
9
  6
CONTINUOUS
 10
10.9423183383
 20
10.7121176153
 11
10.9423183383
 21
10.3411996614
  0
LINE
  5
218
100
AcDbEntity
  8
0
100
AcDbLine
 62
9
  6
CONTINUOUS
 10
11.1523183383
 20
10.7121176154
 11
11.1547716093
 21
10.7319665816
  0
LWPOLYLINE
  5
219
100
AcDbEntity
  8
0
100
AcDbPolyline
 62
7
  6
CONTINUOUS
 90
6
 70
0
 10
15.4680082605
 20
9.7425636225
 10
15.4715281795
 20
9.7440807848
 10
15.4747835527
 20
9.7450106857
 10
15.4774831551
 20
9.7454528786
 10
15.4795626827
 20
9.7455802679
 10
15.4798054541
 20
9.7455818369
  0
LINE
  5
21A
100
AcDbEntity
  8
0
100
AcDbLine
 62
9
  6
CONTINUOUS
 10
11.1523183383
 20
10.3411996614
 11
11.1523183383
 21
10.7121176153
  0
LINE
  5
21B
100
AcDbEntity
  8
0
100
AcDbLine
 62
7
  6
CONTINUOUS
 10
11.1723183383
 20
10.7121176153
 11
11.1723183383
 21
10.3411996614
  0
LINE
  5
21C
100
AcDbEntity
  8
0
100
AcDbLine
 62
7
  6
CONTINUOUS
 10
11.4848183383
 20
4.6135818598
 11
11.4848183383
 21
9.8635818598
  0
LWPOLYLINE
  5
21D
100
AcDbEntity
  8
0
100
AcDbPolyline
 62
7
  6
CONTINUOUS
 90
7
 70
0
 10
6.6245105141
 20
9.7435432707
 10
6.6262490876
 20
9.7427546133
 10
6.6279989136
 20
9.7418133708
 10
6.6297406787
 20
9.7407125724
 10
6.6314495971
 20
9.7394493259
 10
6.6330879082
 20
9.7380338265
 10
6.6346056199
 20
9.7364970508
  0
LINE
  5
21E
100
AcDbEntity
  8
0
100
AcDbLine
 62
9
  6
CONTINUOUS
 10
10.9423183383
 20
10.3411996614
 11
10.9466040526
 21
10.3216642409
  0
LINE
  5
21F
100
AcDbEntity
  8
0
100
AcDbLine
 62
9
  6
CONTINUOUS
 10
10.9398650673
 20
10.7319665816
 11
10.9423183383
 21
10.7121176153
  0
LWPOLYLINE
  5
220
100
AcDbEntity
  8
0
100
AcDbPolyline
 62
7
  6
CONTINUOUS
 90
3
 70
0
 10
15.4612965838
 20
9.7377950301
 10
15.4645148007
 20
9.740447511
 10
15.4680082605
 20
9.7425636225
  0
LINE
  5
221
100
AcDbEntity
  8
0
100
AcDbLine
 62
7
  6
CONTINUOUS
 10
15.4586551449
 20
9.7348507899
 11
15.4612965838
 21
9.7377950301
  0
LINE
  5
222
100
AcDbEntity
  8
0
100
AcDbLine
 62
9
  6
CONTINUOUS
 10
15.4321636467
 20
9.7055818598
 11
14.719041835
 21
9.7055818598
  0
LINE
  5
223
100
AcDbEntity
  8
0
100
AcDbLine
 62
9
  6
CONTINUOUS
 10
7.3755951095
 20
9.7055818598
 11
6.6624732915
 21
9.7055818598
  0
LINE
  5
224
100
AcDbEntity
  8
0
100
AcDbLine
 62
7
  6
CONTINUOUS
 10
17.5673183383
 20
9.7455818598
 11
14.4603183383
 21
9.7455818598
  0
LINE
  5
225
100
AcDbEntity
  8
0
100
AcDbLine
 62
7
  6
CONTINUOUS
 10
7.6343183383
 20
9.7455818598
 11
4.5273183383
 21
9.7455818598
  0
LINE
  5
226
100
AcDbEntity
  8
0
100
AcDbLine
 62
9
  6
CONTINUOUS
 10
4.4873183383
 20
9.7855818598
 11
7.6743183383
 21
9.7855818598
  0
LINE
  5
227
100
AcDbEntity
  8
0
100
AcDbLine
 62
9
  6
CONTINUOUS
 10
14.4203183383
 20
9.7855818598
 11
17.6073183383
 21
9.7855818598
  0
LINE
  5
228
100
AcDbEntity
  8
0
100
AcDbLine
 62
9
  6
CONTINUOUS
 10
17.6073183383
 20
9.9415818598
 11
14.4203183383
 21
9.9415818598
  0
LINE
  5
229
100
AcDbEntity
  8
0
100
AcDbLine
 62
9
  6
CONTINUOUS
 10
7.6743183383
 20
9.9415818598
 11
4.4873183383
 21
9.9415818598
  0
LINE
  5
22A
100
AcDbEntity
  8
0
100
AcDbLine
 62
7
  6
CONTINUOUS
 10
4.5273183383
 20
9.9815818598
 11
7.6343183383
 21
9.9815818598
  0
LINE
  5
22B
100
AcDbEntity
  8
0
100
AcDbLine
 62
7
  6
CONTINUOUS
 10
14.4603183383
 20
9.9815818598
 11
17.5673183383
 21
9.9815818598
  0
LWPOLYLINE
  5
22C
100
AcDbEntity
  8
0
100
AcDbPolyline
 62
7
  6
CONTINUOUS
 90
8
 70
0
 10
6.6148194308
 20
9.7455818527
 10
6.6154836827
 20
9.7455710419
 10
6.6166551828
 20
9.7455011837
 10
6.6180092513
 20
9.7453454037
 10
6.6195143905
 20
9.7450825948
 10
6.6211270634
 20
9.7446985823
 10
6.6227989105
 20
9.7441880804
 10
6.6245105141
 20
9.7435432707
  0
LWPOLYLINE
  5
22D
100
AcDbEntity
  8
0
100
AcDbPolyline
 62
7
  6
CONTINUOUS
 90
3
 70
0
 10
15.4564182029
 20
9.7311736493
 10
15.4569308999
 20
9.7322210784
 10
15.4586551449
 20
9.7348507899
  0
LINE
  5
22E
100
AcDbEntity
  8
0
100
AcDbLine
 62
9
  6
CONTINUOUS
 10
6.6624730298
 20
10.0215818598
 11
7.3755948415
 21
10.0215818598
  0
LINE
  5
22F
100
AcDbEntity
  8
0
100
AcDbLine
 62
9
  6
CONTINUOUS
 10
14.719041567
 20
10.0215818598
 11
15.4321633851
 21
10.0215818598
  0
LINE
  5
230
100
AcDbEntity
  8
0
100
AcDbLine
 62
9
  6
CONTINUOUS
 10
10.9223183383
 20
10.3411996614
 11
10.9423183383
 21
10.3411996614
  0
LINE
  5
231
100
AcDbEntity
  8
0
100
AcDbLine
 62
9
  6
CONTINUOUS
 10
11.1523183383
 20
10.3411996614
 11
11.1723183383
 21
10.3411996614
  0
LWPOLYLINE
  5
232
100
AcDbEntity
  8
0
100
AcDbPolyline
 62
7
  6
CONTINUOUS
 90
8
 70
0
 10
15.4798172458
 20
9.9815818668
 10
15.4791529938
 20
9.9815926776
 10
15.4779814938
 20
9.9816625359
 10
15.4766274252
 20
9.9818183158
 10
15.475122286
 20
9.9820811248
 10
15.4735096132
 20
9.9824651372
 10
15.471837766
 20
9.9829756392
 10
15.4701261625
 20
9.9836204488
  0
LINE
  5
233
100
AcDbEntity
  8
0
100
AcDbLine
 62
7
  6
CONTINUOUS
 10
14.4203183383
 20
9.7855818598
 11
14.4203183383
 21
9.9415818598
  0
LINE
  5
234
100
AcDbEntity
  8
0
100
AcDbLine
 62
9
  6
CONTINUOUS
 10
14.4603183383
 20
9.9815818598
 11
14.4603183383
 21
9.7455818598
  0
LINE
  5
235
100
AcDbEntity
  8
0
100
AcDbLine
 62
9
  6
CONTINUOUS
 10
11.1723183383
 20
10.7121176153
 11
11.1523183383
 21
10.7121176153
  0
LINE
  5
236
100
AcDbEntity
  8
0
100
AcDbLine
 62
9
  6
CONTINUOUS
 10
10.9423183383
 20
10.7121176153
 11
10.9223183383
 21
10.7121176153
  0
LINE
  5
237
100
AcDbEntity
  8
0
100
AcDbLine
 62
7
  6
CONTINUOUS
 10
15.4565491494
 20
9.7315563728
 11
15.4565578015
 21
9.7315831102
  0
LWPOLYLINE
  5
238
100
AcDbEntity
  8
0
100
AcDbPolyline
 62
7
  6
CONTINUOUS
 90
7
 70
0
 10
15.4701261625
 20
9.9836204488
 10
15.4683875889
 20
9.9844091062
 10
15.466637763
 20
9.9853503487
 10
15.4648959979
 20
9.9864511472
 10
15.4631870795
 20
9.9877143937
 10
15.4615487683
 20
9.9891298931
 10
15.4600310567
 20
9.9906666687
  0
LWPOLYLINE
  5
239
100
AcDbEntity
  8
0
100
AcDbPolyline
 62
7
  6
CONTINUOUS
 90
6
 70
0
 10
15.4600310567
 20
9.9906666687
 10
15.4586972418
 20
9.9922582526
 10
15.4576277808
 20
9.9937726534
 10
15.4568819176
 20
9.9950342629
 10
15.4564829661
 20
9.995842998
 10
15.4564566791
 20
9.9959030741
  0
LINE
  5
23A
100
AcDbEntity
  8
0
100
AcDbLine
 62
7
  6
CONTINUOUS
 10
15.4565485686
 20
9.9956093622
 11
15.4565474513
 21
9.9956128225
  0
LINE
  5
23B
100
AcDbEntity
  8
0
100
AcDbLine
 62
9
  6
CONTINUOUS
 10
17.5673183383
 20
9.7455818598
 11
17.5673183383
 21
9.9815818598
  0
LINE
  5
23C
100
AcDbEntity
  8
0
100
AcDbLine
 62
7
  6
CONTINUOUS
 10
17.6073183383
 20
9.9415818598
 11
17.6073183383
 21
9.7855818598
  0
ARC
  5
23D
100
AcDbEntity
  8
0
100
AcDbCircle
 62
7
  6
CONTINUOUS
 10
4.5273183383
 20
9.7855818598
 40
0.04
100
AcDbArc
 50
180.0
 51
270.0
  0
ARC
  5
23E
100
AcDbEntity
  8
0
100
AcDbCircle
 62
7
  6
CONTINUOUS
 10
4.5273183383
 20
9.9415818598
 40
0.04
100
AcDbArc
 50
90.0
 51
180.0
  0
ARC
  5
23F
100
AcDbEntity
  8
0
100
AcDbCircle
 62
9
  6
CONTINUOUS
 10
7.0190340847
 20
9.8635723109
 40
0.3899963124
100
AcDbArc
 50
203.8979123736
 51
336.1021016423
  0
ARC
  5
240
100
AcDbEntity
  8
0
100
AcDbCircle
 62
9
  6
CONTINUOUS
 10
6.606806349
 20
9.7057983361
 40
0.0436162702
100
AcDbArc
 50
8.7260311784
 51
23.2938096037
  0
ARC
  5
241
100
AcDbEntity
  8
0
100
AcDbCircle
 62
7
  6
CONTINUOUS
 10
7.6343183383
 20
9.7855818598
 40
0.04
100
AcDbArc
 50
270.0
 51
360.0
  0
ARC
  5
242
100
AcDbEntity
  8
0
100
AcDbCircle
 62
7
  6
CONTINUOUS
 10
7.4899649242
 20
9.7055818598
 40
0.04
100
AcDbArc
 50
90.0
 51
160.354918535
  0
ARC
  5
243
100
AcDbEntity
  8
0
100
AcDbCircle
 62
9
  6
CONTINUOUS
 10
6.6133224187
 20
9.7104162617
 40
0.0355086557
100
AcDbArc
 50
54.9104973183
 51
58.7073276189
  0
ARC
  5
244
100
AcDbEntity
  8
0
100
AcDbCircle
 62
7
  6
CONTINUOUS
 10
7.0473183383
 20
9.8635818598
 40
0.925
100
AcDbArc
 50
187.3315126969
 51
172.6663974256
  0
ARC
  5
245
100
AcDbEntity
  8
0
100
AcDbCircle
 62
9
  6
CONTINUOUS
 10
7.0473183383
 20
9.8635818598
 40
0.905
100
AcDbArc
 50
187.4945333226
 51
172.5047209357
  0
ARC
  5
246
100
AcDbEntity
  8
0
100
AcDbCircle
 62
7
  6
CONTINUOUS
 10
7.0473183383
 20
9.8635818598
 40
0.43
100
AcDbArc
 50
19.6435843226
 51
162.1193317834
  0
ARC
  5
247
100
AcDbEntity
  8
0
100
AcDbCircle
 62
7
  6
CONTINUOUS
 10
7.0473183383
 20
9.8635818598
 40
0.43
100
AcDbArc
 50
197.8814320925
 51
340.3564135409
  0
ARC
  5
248
100
AcDbEntity
  8
0
100
AcDbCircle
 62
9
  6
CONTINUOUS
 10
7.0190340494
 20
9.8635914086
 40
0.389996312
100
AcDbArc
 50
23.8979124864
 51
156.102101097
  0
ARC
  5
249
100
AcDbEntity
  8
0
100
AcDbCircle
 62
9
  6
CONTINUOUS
 10
6.6068810526
 20
10.0213427691
 40
0.043539061
100
AcDbArc
 50
336.6927289625
 51
351.2887889385
  0
ARC
  5
24A
100
AcDbEntity
  8
0
100
AcDbCircle
 62
7
  6
CONTINUOUS
 10
7.4899649242
 20
10.0215818598
 40
0.04
100
AcDbArc
 50
199.6451044273
 51
270.0
  0
ARC
  5
24B
100
AcDbEntity
  8
0
100
AcDbCircle
 62
7
  6
CONTINUOUS
 10
7.6343183383
 20
9.9415818598
 40
0.04
100
AcDbArc
 50
0.0
 51
90.0
  0
ARC
  5
24C
100
AcDbEntity
  8
0
100
AcDbCircle
 62
9
  6
CONTINUOUS
 10
6.6132863462
 20
10.0167848016
 40
0.0355589334
100
AcDbArc
 50
301.3113814292
 51
305.0993588052
  0
ARC
  5
24D
100
AcDbEntity
  8
0
100
AcDbCircle
 62
7
  6
CONTINUOUS
 10
10.9423183383
 20
10.3411996614
 40
0.02
100
AcDbArc
 50
179.9999999321
 51
282.3736251162
  0
ARC
  5
24E
100
AcDbEntity
  8
0
100
AcDbCircle
 62
7
  6
CONTINUOUS
 10
10.9423183383
 20
10.7121176153
 40
0.02
100
AcDbArc
 50
97.0458487076
 51
180.0
  0
ARC
  5
24F
100
AcDbEntity
  8
0
100
AcDbCircle
 62
7
  6
CONTINUOUS
 10
11.0473183383
 20
9.8625818598
 40
0.876
100
AcDbArc
 50
82.9541512444
 51
97.0458487553
  0
ARC
  5
250
100
AcDbEntity
  8
0
100
AcDbCircle
 62
9
  6
CONTINUOUS
 10
11.0473183383
 20
9.8625818598
 40
0.856
100
AcDbArc
 50
82.9541512436
 51
97.0458487564
  0
ARC
  5
251
100
AcDbEntity
  8
0
100
AcDbCircle
 62
9
  6
CONTINUOUS
 10
11.0473183383
 20
9.8625818598
 40
0.49
100
AcDbArc
 50
77.6263748838
 51
102.3736251162
  0
ARC
  5
252
100
AcDbEntity
  8
0
100
AcDbCircle
 62
7
  6
CONTINUOUS
 10
11.0473183383
 20
9.8625818598
 40
0.47
100
AcDbArc
 50
77.6263748866
 51
102.3736251142
  0
ARC
  5
253
100
AcDbEntity
  8
0
100
AcDbCircle
 62
7
  6
CONTINUOUS
 10
11.0473183383
 20
9.8635818598
 40
0.925
100
AcDbArc
 50
298.2936024
 51
241.7041540322
  0
ARC
  5
254
100
AcDbEntity
  8
0
100
AcDbCircle
 62
9
  6
CONTINUOUS
 10
11.0473183383
 20
9.8635818598
 40
0.9049999969
100
AcDbArc
 50
298.9721235382
 51
241.029883604
  0
ARC
  5
255
100
AcDbEntity
  8
0
100
AcDbCircle
 62
7
  6
CONTINUOUS
 10
11.0473183383
 20
9.8635818598
 40
0.4375
100
AcDbArc
 50
0.0
 51
180.0
  0
ARC
  5
256
100
AcDbEntity
  8
0
100
AcDbCircle
 62
9
  6
CONTINUOUS
 10
15.0756026272
 20
9.8635723109
 40
0.3899963124
100
AcDbArc
 50
203.8979124789
 51
336.1021011027
  0
ARC
  5
257
100
AcDbEntity
  8
0
100
AcDbCircle
 62
9
  6
CONTINUOUS
 10
15.487755624
 20
9.7058209505
 40
0.043539061
100
AcDbArc
 50
156.6927289624
 51
171.2887889386
  0
ARC
  5
258
100
AcDbEntity
  8
0
100
AcDbCircle
 62
7
  6
CONTINUOUS
 10
14.6046717524
 20
9.7055818598
 40
0.04
100
AcDbArc
 50
19.6451044273
 51
90.0
  0
ARC
  5
259
100
AcDbEntity
  8
0
100
AcDbCircle
 62
7
  6
CONTINUOUS
 10
14.4603183383
 20
9.7855818598
 40
0.04
100
AcDbArc
 50
180.0
 51
270.0
  0
ARC
  5
25A
100
AcDbEntity
  8
0
100
AcDbCircle
 62
7
  6
CONTINUOUS
 10
17.5673183383
 20
9.7855818598
 40
0.04
100
AcDbArc
 50
270.0
 51
360.0
  0
ARC
  5
25B
100
AcDbEntity
  8
0
100
AcDbCircle
 62
9
  6
CONTINUOUS
 10
15.4813503304
 20
9.7103789179
 40
0.0355589334
100
AcDbArc
 50
121.3113814292
 51
125.0993588052
  0
ARC
  5
25C
100
AcDbEntity
  8
0
100
AcDbCircle
 62
7
  6
CONTINUOUS
 10
15.0473183383
 20
9.8635818598
 40
0.925
100
AcDbArc
 50
7.3315126969
 51
352.6663974256
  0
ARC
  5
25D
100
AcDbEntity
  8
0
100
AcDbCircle
 62
9
  6
CONTINUOUS
 10
15.0473183383
 20
9.8635818598
 40
0.905
100
AcDbArc
 50
7.4945333226
 51
352.5047209357
  0
ARC
  5
25E
100
AcDbEntity
  8
0
100
AcDbCircle
 62
7
  6
CONTINUOUS
 10
15.0473183383
 20
9.8635818598
 40
0.43
100
AcDbArc
 50
199.6435843226
 51
342.1193317834
  0
ARC
  5
25F
100
AcDbEntity
  8
0
100
AcDbCircle
 62
7
  6
CONTINUOUS
 10
15.0473183383
 20
9.8635818598
 40
0.43
100
AcDbArc
 50
17.8814320925
 51
160.3564135409
  0
ARC
  5
260
100
AcDbEntity
  8
0
100
AcDbCircle
 62
9
  6
CONTINUOUS
 10
15.0756025919
 20
9.8635914086
 40
0.389996312
100
AcDbArc
 50
23.8979123791
 51
156.102101636
  0
ARC
  5
261
100
AcDbEntity
  8
0
100
AcDbCircle
 62
9
  6
CONTINUOUS
 10
15.4878303275
 20
10.0213653835
 40
0.0436162702
100
AcDbArc
 50
188.7260311783
 51
203.2938096037
  0
ARC
  5
262
100
AcDbEntity
  8
0
100
AcDbCircle
 62
7
  6
CONTINUOUS
 10
17.5673183383
 20
9.9415818598
 40
0.04
100
AcDbArc
 50
0.0
 51
90.0
  0
ARC
  5
263
100
AcDbEntity
  8
0
100
AcDbCircle
 62
7
  6
CONTINUOUS
 10
14.4603183383
 20
9.9415818598
 40
0.04
100
AcDbArc
 50
90.0
 51
180.0
  0
ARC
  5
264
100
AcDbEntity
  8
0
100
AcDbCircle
 62
7
  6
CONTINUOUS
 10
14.6046717524
 20
10.0215818598
 40
0.04
100
AcDbArc
 50
270.0
 51
340.354918535
  0
ARC
  5
265
100
AcDbEntity
  8
0
100
AcDbCircle
 62
9
  6
CONTINUOUS
 10
15.4813142578
 20
10.0167474578
 40
0.0355086557
100
AcDbArc
 50
234.9104973182
 51
238.7073276191
  0
ARC
  5
266
100
AcDbEntity
  8
0
100
AcDbCircle
 62
7
  6
CONTINUOUS
 10
11.1523183383
 20
10.3411996614
 40
0.02
100
AcDbArc
 50
257.6263748193
 51
360.0
  0
ARC
  5
267
100
AcDbEntity
  8
0
100
AcDbCircle
 62
7
  6
CONTINUOUS
 10
11.1523183383
 20
10.7121176153
 40
0.02
100
AcDbArc
 50
0.0
 51
82.9541512436
  0
SPLINE
  5
268
100
AcDbEntity
  8
0
100
AcDbSpline
 62
9
  6
CONTINUOUS
 70
0
 71
3
 72
18
 73
14
 74
0
 42
0.0000001
 43
0.0000001
 44
0.0000000001
 40
0.0
 40
0.0
 40
0.0
 40
0.0
 40
0.1352918156
 40
0.2759450528
 40
0.4173558776
 40
0.4866751567
 40
0.5541323625
 40
0.6816186163
 40
0.7414183074
 40
0.7983101623
 40
0.8522935768
 40
0.9037300399
 40
1.0
 40
1.0
 40
1.0
 40
1.0
 10
15.4321634661
 20
9.7055818598
 30
0.0
 10
15.4321634662
 20
9.7080155408
 30
0.0
 10
15.4324875495
 20
9.7129848045
 30
0.0
 10
15.4339654094
 20
9.7203697133
 30
0.0
 10
15.436144773
 20
9.7263346131
 30
0.0
 10
15.4384301762
 20
9.7307928701
 30
0.0
 10
15.4409731785
 20
9.7348149855
 30
0.0
 10
15.4439956627
 20
9.7383126616
 30
0.0
 10
15.4473805054
 20
9.7411236544
 30
0.0
 10
15.4499594829
 20
9.7428036964
 30
0.0
 10
15.4525969281
 20
9.7440766083
 30
0.0
 10
15.4560452763
 20
9.7452248126
 30
0.0
 10
15.4587163281
 20
9.7455823629
 30
0.0
 10
15.460448069
 20
9.7455823506
 30
0.0
  0
SPLINE
  5
269
100
AcDbEntity
  8
0
100
AcDbSpline
 62
9
  6
CONTINUOUS
 70
0
 71
3
 72
27
 73
23
 74
0
 42
0.0000001
 43
0.0000001
 44
0.0000000001
 40
0.0
 40
0.0
 40
0.0
 40
0.0
 40
0.0087139772
 40
0.0127072181
 40
0.0166604772
 40
0.0250692233
 40
0.0350823882
 40
0.0473587045
 40
0.0622460005
 40
0.079927447
 40
0.1005022132
 40
0.1239906393
 40
0.1502496505
 40
0.2102842214
 40
0.2788963561
 40
0.354046608
 40
0.4337154215
 40
0.5162993395
 40
0.6002956332
 40
0.6842070657
 40
0.8471544529
 40
1.0
 40
1.0
 40
1.0
 40
1.0
 10
14.6423449433
 20
9.7190304243
 30
0.0
 10
14.6422656414
 20
9.7192528434
 30
0.0
 10
14.6421925541
 20
9.7195992249
 30
0.0
 10
14.6422398223
 20
9.72005119
 30
0.0
 10
14.6423789711
 20
9.7204755742
 30
0.0
 10
14.6427508539
 20
9.7209741571
 30
0.0
 10
14.6434389286
 20
9.7214563463
 30
0.0
 10
14.6443675755
 20
9.7218582078
 30
0.0
 10
14.6455411709
 20
9.7221834661
 30
0.0
 10
14.6469611501
 20
9.7224326694
 30
0.0
 10
14.6486266449
 20
9.7226035717
 30
0.0
 10
14.6505308176
 20
9.7226943552
 30
0.0
 10
14.6535063577
 20
9.7227096504
 30
0.0
 10
14.6577020179
 20
9.7225084298
 30
0.0
 10
14.6631999087
 20
9.7219706839
 30
0.0
 10
14.669197864
 20
9.7211325452
 30
0.0
 10
14.675532241
 20
9.7200012375
 30
0.0
 10
14.6820574958
 20
9.7185990479
 30
0.0
 10
14.6886428319
 20
9.7169475072
 30
0.0
 10
14.6972589774
 20
9.71446267
 30
0.0
 10
14.707490877
 20
9.7108771448
 30
0.0
 10
14.7153326333
 20
9.7074227278
 30
0.0
 10
14.7190425481
 20
9.7055811416
 30
0.0
  0
SPLINE
  5
26A
100
AcDbEntity
  8
0
100
AcDbSpline
 62
9
  6
CONTINUOUS
 70
0
 71
3
 72
10
 73
6
 74
0
 42
0.0000001
 43
0.0000001
 44
0.0000000001
 40
0.0
 40
0.0
 40
0.0
 40
0.0
 40
0.541572651
 40
0.78203082
 40
1.0
 40
1.0
 40
1.0
 40
1.0
 10
15.4321627919
 20
9.7055816032
 30
0.0
 10
15.4344750149
 20
9.7067294004
 30
0.0
 10
15.4377927384
 20
9.7084313183
 30
0.0
 10
15.4419575782
 20
9.7107503154
 30
0.0
 10
15.4438363164
 20
9.7118670982
 30
0.0
 10
15.4447188552
 20
9.712415339
 30
0.0
  0
SPLINE
  5
26B
100
AcDbEntity
  8
0
100
AcDbSpline
 62
9
  6
CONTINUOUS
 70
0
 71
3
 72
9
 73
5
 74
0
 42
0.0000001
 43
0.0000001
 44
0.0000000001
 40
0.0
 40
0.0
 40
0.0
 40
0.0
 40
0.4916275949
 40
1.0
 40
1.0
 40
1.0
 40
1.0
 10
15.4729589263
 20
9.7448315365
 30
0.0
 10
15.4712115629
 20
9.744447636
 30
0.0
 10
15.4677153466
 20
9.7433711598
 30
0.0
 10
15.46445134
 20
9.7417202117
 30
0.0
 10
15.4628707497
 20
9.7407588924
 30
0.0
  0
SPLINE
  5
26C
100
AcDbEntity
  8
0
100
AcDbSpline
 62
9
  6
CONTINUOUS
 70
0
 71
3
 72
11
 73
7
 74
0
 42
0.0000001
 43
0.0000001
 44
0.0000000001
 40
0.0
 40
0.0
 40
0.0
 40
0.0
 40
0.2488017903
 40
0.5000981617
 40
0.7515680884
 40
1.0
 40
1.0
 40
1.0
 40
1.0
 10
15.4609040825
 20
9.7394716781
 30
0.0
 10
15.459460034
 20
9.738457126
 30
0.0
 10
15.4567025145
 20
9.7362011422
 30
0.0
 10
15.4531092393
 20
9.7322394096
 30
0.0
 10
15.4500858962
 20
9.7278337803
 30
0.0
 10
15.4484683604
 20
9.7246654056
 30
0.0
 10
15.4477695168
 20
9.7230477048
 30
0.0
  0
SPLINE
  5
26D
100
AcDbEntity
  8
0
100
AcDbSpline
 62
9
  6
CONTINUOUS
 70
0
 71
3
 72
18
 73
14
 74
0
 42
0.0000001
 43
0.0000001
 44
0.0000000001
 40
0.0
 40
0.0
 40
0.0
 40
0.0
 40
0.0962680509
 40
0.147703652
 40
0.2016863185
 40
0.2585775669
 40
0.3183768103
 40
0.4458627194
 40
0.513320045
 40
0.5826396232
 40
0.724051518
 40
0.8647063318
 40
1.0
 40
1.0
 40
1.0
 40
1.0
 10
14.7473259079
 20
9.745582816
 30
0.0
 10
14.745594206
 20
9.7455828076
 30
0.0
 10
14.7429232155
 20
9.7452252263
 30
0.0
 10
14.7394749558
 20
9.7440769872
 30
0.0
 10
14.7368375763
 20
9.7428040489
 30
0.0
 10
14.7342586634
 20
9.7411239825
 30
0.0
 10
14.7308738989
 20
9.7383129534
 30
0.0
 10
14.7278514901
 20
9.7348152458
 30
0.0
 10
14.7253085504
 20
9.7307931046
 30
0.0
 10
14.7230231952
 20
9.7263348082
 30
0.0
 10
14.7208438761
 20
9.720369855
 30
0.0
 10
14.719366045
 20
9.7129848795
 30
0.0
 10
14.7190419671
 20
9.7080155676
 30
0.0
 10
14.7190419671
 20
9.7055818598
 30
0.0
  0
SPLINE
  5
26E
100
AcDbEntity
  8
0
100
AcDbSpline
 62
9
  6
CONTINUOUS
 70
0
 71
3
 72
18
 73
14
 74
0
 42
0.0000001
 43
0.0000001
 44
0.0000000001
 40
0.0
 40
0.0
 40
0.0
 40
0.0
 40
0.1352932352
 40
0.2759476197
 40
0.4173591785
 40
0.4866786497
 40
0.5541359237
 40
0.6816219221
 40
0.7414212953
 40
0.7983127207
 40
0.8522956048
 40
0.9037314498
 40
1.0
 40
1.0
 40
1.0
 40
1.0
 10
14.719041816
 20
10.0215818598
 30
0.0
 10
14.7190418161
 20
10.0191481647
 30
0.0
 10
14.7193658937
 20
10.0141788782
 30
0.0
 10
14.7208437244
 20
10.0067939401
 30
0.0
 10
14.7230230417
 20
10.0008290166
 30
0.0
 10
14.7253083945
 20
9.9963707403
 30
0.0
 10
14.7278513343
 20
9.9923486121
 30
0.0
 10
14.7308737429
 20
9.988850913
 30
0.0
 10
14.7342585064
 20
9.9860398855
 30
0.0
 10
14.7368374209
 20
9.984359816
 30
0.0
 10
14.7394748032
 20
9.9830868709
 30
0.0
 10
14.7429230688
 20
9.9819386185
 30
0.0
 10
14.7455940649
 20
9.9815810231
 30
0.0
 10
14.7473257723
 20
9.9815810041
 30
0.0
  0
SPLINE
  5
26F
100
AcDbEntity
  8
0
100
AcDbSpline
 62
9
  6
CONTINUOUS
 70
0
 71
3
 72
14
 73
10
 74
0
 42
0.0000001
 43
0.0000001
 44
0.0000000001
 40
0.0
 40
0.0
 40
0.0
 40
0.0
 40
0.2844681738
 40
0.4176159837
 40
0.5443426384
 40
0.6649456925
 40
0.7802038045
 40
0.8913137139
 40
1.0
 40
1.0
 40
1.0
 40
1.0
 10
15.4565463549
 20
9.9956124687
 30
0.0
 10
15.455878453
 20
9.9976830959
 30
0.0
 10
15.4548077701
 20
10.0006976297
 30
0.0
 10
15.4531123883
 20
10.0045023115
 30
0.0
 10
15.4517574426
 20
10.0070805402
 30
0.0
 10
15.4502681425
 20
10.0094243822
 30
0.0
 10
15.4486205474
 20
10.0115119594
 30
0.0
 10
15.4467915616
 20
10.0133172243
 30
0.0
 10
15.4454282256
 20
10.0143147321
 30
0.0
 10
15.444719012
 20
10.0147483307
 30
0.0
  0
SPLINE
  5
270
100
AcDbEntity
  8
0
100
AcDbSpline
 62
9
  6
CONTINUOUS
 70
0
 71
3
 72
10
 73
6
 74
0
 42
0.0000001
 43
0.0000001
 44
0.0000000001
 40
0.0
 40
0.0
 40
0.0
 40
0.0
 40
0.2179718545
 40
0.4584316017
 40
1.0
 40
1.0
 40
1.0
 40
1.0
 10
15.4447189094
 20
10.0147480816
 30
0.0
 10
15.4438363378
 20
10.0152963515
 30
0.0
 10
15.4419575377
 20
10.0164131951
 30
0.0
 10
15.4377925989
 20
10.0187323017
 30
0.0
 10
15.4344747986
 20
10.0204342827
 30
0.0
 10
15.4321625234
 20
10.0215820995
 30
0.0
  0
SPLINE
  5
271
100
AcDbEntity
  8
0
100
AcDbSpline
 62
9
  6
CONTINUOUS
 70
0
 71
3
 72
27
 73
23
 74
0
 42
0.0000001
 43
0.0000001
 44
0.0000000001
 40
0.0
 40
0.0
 40
0.0
 40
0.0
 40
0.1528367456
 40
0.3157800971
 40
0.3996934104
 40
0.4836932052
 40
0.5662806525
 40
0.6459514525
 40
0.7211012901
 40
0.7897123693
 40
0.8497470057
 40
0.8760063169
 40
0.8994950325
 40
0.9200699518
 40
0.9377514552
 40
0.9526388308
 40
0.9649153694
 40
0.9749290005
 40
0.9833384619
 40
0.9872921036
 40
0.991285681
 40
1.0
 40
1.0
 40
1.0
 40
1.0
 10
14.7190424318
 20
10.0215822286
 30
0.0
 10
14.715332797
 20
10.0197406464
 30
0.0
 10
14.7074913681
 20
10.0162863903
 30
0.0
 10
14.6972597018
 20
10.0127012162
 30
0.0
 10
14.6886435328
 20
10.0102164433
 30
0.0
 10
14.6820579897
 20
10.0085648319
 30
0.0
 10
14.6755325346
 20
10.007162521
 30
0.0
 10
14.6691980631
 20
10.0060310816
 30
0.0
 10
14.663200129
 20
10.0051928359
 30
0.0
 10
14.6577023017
 20
10.0046550202
 30
0.0
 10
14.6535066758
 20
10.0044537611
 30
0.0
 10
14.6505311278
 20
10.0044690436
 30
0.0
 10
14.6486269413
 20
10.0045598304
 30
0.0
 10
14.6469614402
 20
10.0047307524
 30
0.0
 10
14.6455414634
 20
10.00497999
 30
0.0
 10
14.6443678742
 20
10.0053052941
 30
0.0
 10
14.6434392308
 20
10.0057072094
 30
0.0
 10
14.6427511549
 20
10.0061894591
 30
0.0
 10
14.6423792651
 20
10.0066880823
 30
0.0
 10
14.6422400902
 20
10.007112496
 30
0.0
 10
14.6421927838
 20
10.0075644834
 30
0.0
 10
14.6422658275
 20
10.0079108895
 30
0.0
 10
14.642345102
 20
10.0081333274
 30
0.0
  0
SPLINE
  5
272
100
AcDbEntity
  8
0
100
AcDbSpline
 62
9
  6
CONTINUOUS
 70
0
 71
3
 72
9
 73
5
 74
0
 42
0.0000001
 43
0.0000001
 44
0.0000000001
 40
0.0
 40
0.0
 40
0.0
 40
0.0
 40
0.4902071651
 40
1.0
 40
1.0
 40
1.0
 40
1.0
 10
15.4726736001
 20
9.9823951227
 30
0.0
 10
15.4709812019
 20
9.9827829715
 30
0.0
 10
15.4675868767
 20
9.983854604
 30
0.0
 10
15.4644137252
 20
9.9854666208
 30
0.0
 10
15.462870713
 20
9.9864044144
 30
0.0
  0
SPLINE
  5
273
100
AcDbEntity
  8
0
100
AcDbSpline
 62
9
  6
CONTINUOUS
 70
0
 71
3
 72
11
 73
7
 74
0
 42
0.0000001
 43
0.0000001
 44
0.0000000001
 40
0.0
 40
0.0
 40
0.0
 40
0.0
 40
0.246480109
 40
0.4970638537
 40
0.7493183344
 40
1.0
 40
1.0
 40
1.0
 40
1.0
 10
15.4609019173
 20
9.9876923209
 30
0.0
 10
15.4594712304
 20
9.9886971739
 30
0.0
 10
15.4567298947
 20
9.9909384216
 30
0.0
 10
15.4531432804
 20
9.9948840819
 30
0.0
 10
15.4501024744
 20
9.9992976801
 30
0.0
 10
15.4484739925
 20
10.0024849975
 30
0.0
 10
15.4477692582
 20
10.0041174921
 30
0.0
  0
SPLINE
  5
274
100
AcDbEntity
  8
0
100
AcDbSpline
 62
9
  6
CONTINUOUS
 70
0
 71
3
 72
18
 73
14
 74
0
 42
0.0000001
 43
0.0000001
 44
0.0000000001
 40
0.0
 40
0.0
 40
0.0
 40
0.0
 40
0.0962699735
 40
0.1477064406
 40
0.2016898607
 40
0.2585817216
 40
0.3183814164
 40
0.445867674
 40
0.5133248822
 40
0.582644162
 40
0.7240549806
 40
0.8647082047
 40
1.0
 40
1.0
 40
1.0
 40
1.0
 10
15.4604478369
 20
9.9815813771
 30
0.0
 10
15.4587160959
 20
9.9815813643
 30
0.0
 10
15.456045044
 20
9.9819389138
 30
0.0
 10
15.4525966955
 20
9.9830871174
 30
0.0
 10
15.4499592502
 20
9.9843600291
 30
0.0
 10
15.4473802727
 20
9.9860400708
 30
0.0
 10
15.4439954298
 20
9.9888510631
 30
0.0
 10
15.4409729457
 20
9.992348739
 30
0.0
 10
15.4384299438
 20
9.9963708542
 30
0.0
 10
15.4361445408
 20
10.0008291106
 30
0.0
 10
15.4339651776
 20
10.0067940095
 30
0.0
 10
15.4324873182
 20
10.0141789168
 30
0.0
 10
15.4321632349
 20
10.0191481794
 30
0.0
 10
15.4321632349
 20
10.0215818598
 30
0.0
  0
SPLINE
  5
275
100
AcDbEntity
  8
0
100
AcDbSpline
 62
9
  6
CONTINUOUS
 70
0
 71
3
 72
13
 73
9
 74
0
 42
0.0000001
 43
0.0000001
 44
0.0000000001
 40
0.0
 40
0.0
 40
0.0
 40
0.0
 40
0.1089906038
 40
0.2199111189
 40
0.4553150024
 40
0.5821535245
 40
0.7153210717
 40
1.0
 40
1.0
 40
1.0
 40
1.0
 10
15.4447189575
 20
9.7124150963
 30
0.0
 10
15.4454261522
 20
9.7128562108
 30
0.0
 10
15.4467872637
 20
9.7138563227
 30
0.0
 10
15.4492798417
 20
9.7163012421
 30
0.0
 10
15.4513517566
 20
9.7193068671
 30
0.0
 10
15.4531120614
 20
9.7226618353
 30
0.0
 10
15.4548082551
 20
9.7264694422
 30
0.0
 10
15.4558794474
 20
9.7294848965
 30
0.0
 10
15.4565478805
 20
9.7315567825
 30
0.0
  0
SPLINE
  5
276
100
AcDbEntity
  8
0
100
AcDbSpline
 62
9
  6
CONTINUOUS
 70
0
 71
3
 72
18
 73
14
 74
0
 42
0.0000001
 43
0.0000001
 44
0.0000000001
 40
0.0
 40
0.0
 40
0.0
 40
0.0
 40
0.1352918156
 40
0.2759450528
 40
0.4173558776
 40
0.4866751567
 40
0.5541323625
 40
0.6816186163
 40
0.7414183074
 40
0.7983101623
 40
0.8522935768
 40
0.9037300399
 40
1.0
 40
1.0
 40
1.0
 40
1.0
 10
6.6624732105
 20
10.0215818598
 30
0.0
 10
6.6624732104
 20
10.0191481788
 30
0.0
 10
6.6621491271
 20
10.014178915
 30
0.0
 10
6.6606712672
 20
10.0067940062
 30
0.0
 10
6.6584919036
 20
10.0008291064
 30
0.0
 10
6.6562065004
 20
9.9963708495
 30
0.0
 10
6.6536634981
 20
9.992348734
 30
0.0
 10
6.6506410138
 20
9.9888510579
 30
0.0
 10
6.6472561711
 20
9.9860400651
 30
0.0
 10
6.6446771937
 20
9.9843600231
 30
0.0
 10
6.6420397485
 20
9.9830871112
 30
0.0
 10
6.6385914002
 20
9.9819389069
 30
0.0
 10
6.6359203485
 20
9.9815813567
 30
0.0
 10
6.6341886075
 20
9.9815813689
 30
0.0
  0
SPLINE
  5
277
100
AcDbEntity
  8
0
100
AcDbSpline
 62
9
  6
CONTINUOUS
 70
0
 71
3
 72
27
 73
23
 74
0
 42
0.0000001
 43
0.0000001
 44
0.0000000001
 40
0.0
 40
0.0
 40
0.0
 40
0.0
 40
0.0087139772
 40
0.0127072181
 40
0.0166604772
 40
0.0250692233
 40
0.0350823882
 40
0.0473587045
 40
0.0622460005
 40
0.079927447
 40
0.1005022132
 40
0.1239906393
 40
0.1502496505
 40
0.2102842214
 40
0.2788963561
 40
0.354046608
 40
0.4337154215
 40
0.5162993395
 40
0.6002956332
 40
0.6842070657
 40
0.8471544529
 40
1.0
 40
1.0
 40
1.0
 40
1.0
 10
7.4522917333
 20
10.0081332953
 30
0.0
 10
7.4523710351
 20
10.0079108761
 30
0.0
 10
7.4524441225
 20
10.0075644946
 30
0.0
 10
7.4523968543
 20
10.0071125296
 30
0.0
 10
7.4522577055
 20
10.0066881453
 30
0.0
 10
7.4518858227
 20
10.0061895625
 30
0.0
 10
7.4511977479
 20
10.0057073732
 30
0.0
 10
7.4502691011
 20
10.0053055118
 30
0.0
 10
7.4490955057
 20
10.0049802534
 30
0.0
 10
7.4476755264
 20
10.0047310501
 30
0.0
 10
7.4460100317
 20
10.0045601478
 30
0.0
 10
7.444105859
 20
10.0044693643
 30
0.0
 10
7.4411303188
 20
10.0044540692
 30
0.0
 10
7.4369346587
 20
10.0046552897
 30
0.0
 10
7.4314367679
 20
10.0051930357
 30
0.0
 10
7.4254388125
 20
10.0060311744
 30
0.0
 10
7.4191044356
 20
10.007162482
 30
0.0
 10
7.4125791808
 20
10.0085646716
 30
0.0
 10
7.4059938446
 20
10.0102162123
 30
0.0
 10
7.3973776991
 20
10.0127010496
 30
0.0
 10
7.3871457996
 20
10.0162865747
 30
0.0
 10
7.3793040432
 20
10.0197409917
 30
0.0
 10
7.3755941285
 20
10.0215825779
 30
0.0
  0
SPLINE
  5
278
100
AcDbEntity
  8
0
100
AcDbSpline
 62
9
  6
CONTINUOUS
 70
0
 71
3
 72
10
 73
6
 74
0
 42
0.0000001
 43
0.0000001
 44
0.0000000001
 40
0.0
 40
0.0
 40
0.0
 40
0.0
 40
0.541572651
 40
0.78203082
 40
1.0
 40
1.0
 40
1.0
 40
1.0
 10
6.6624738847
 20
10.0215821163
 30
0.0
 10
6.6601616616
 20
10.0204343192
 30
0.0
 10
6.6568439382
 20
10.0187324012
 30
0.0
 10
6.6526790984
 20
10.0164134041
 30
0.0
 10
6.6508003601
 20
10.0152966214
 30
0.0
 10
6.6499178214
 20
10.0147483805
 30
0.0
  0
SPLINE
  5
279
100
AcDbEntity
  8
0
100
AcDbSpline
 62
9
  6
CONTINUOUS
 70
0
 71
3
 72
9
 73
5
 74
0
 42
0.0000001
 43
0.0000001
 44
0.0000000001
 40
0.0
 40
0.0
 40
0.0
 40
0.0
 40
0.4916275949
 40
1.0
 40
1.0
 40
1.0
 40
1.0
 10
6.6216777502
 20
9.9823321831
 30
0.0
 10
6.6234251137
 20
9.9827160836
 30
0.0
 10
6.62692133
 20
9.9837925597
 30
0.0
 10
6.6301853366
 20
9.9854435078
 30
0.0
 10
6.6317659268
 20
9.9864048272
 30
0.0
  0
SPLINE
  5
27A
100
AcDbEntity
  8
0
100
AcDbSpline
 62
9
  6
CONTINUOUS
 70
0
 71
3
 72
11
 73
7
 74
0
 42
0.0000001
 43
0.0000001
 44
0.0000000001
 40
0.0
 40
0.0
 40
0.0
 40
0.0
 40
0.2488017903
 40
0.5000981617
 40
0.7515680884
 40
1.0
 40
1.0
 40
1.0
 40
1.0
 10
6.6337325941
 20
9.9876920414
 30
0.0
 10
6.6351766426
 20
9.9887065936
 30
0.0
 10
6.6379341621
 20
9.9909625774
 30
0.0
 10
6.6415274373
 20
9.9949243099
 30
0.0
 10
6.6445507804
 20
9.9993299393
 30
0.0
 10
6.6461683162
 20
10.0024983139
 30
0.0
 10
6.6468671598
 20
10.0041160148
 30
0.0
  0
SPLINE
  5
27B
100
AcDbEntity
  8
0
100
AcDbSpline
 62
9
  6
CONTINUOUS
 70
0
 71
3
 72
18
 73
14
 74
0
 42
0.0000001
 43
0.0000001
 44
0.0000000001
 40
0.0
 40
0.0
 40
0.0
 40
0.0
 40
0.0962680509
 40
0.147703652
 40
0.2016863185
 40
0.2585775669
 40
0.3183768103
 40
0.4458627194
 40
0.513320045
 40
0.5826396232
 40
0.724051518
 40
0.8647063318
 40
1.0
 40
1.0
 40
1.0
 40
1.0
 10
7.3473107686
 20
9.9815809036
 30
0.0
 10
7.3490424706
 20
9.981580912
 30
0.0
 10
7.3517134611
 20
9.9819384932
 30
0.0
 10
7.3551617208
 20
9.9830867323
 30
0.0
 10
7.3577991003
 20
9.9843596707
 30
0.0
 10
7.3603780132
 20
9.986039737
 30
0.0
 10
7.3637627777
 20
9.9888507662
 30
0.0
 10
7.3667851865
 20
9.9923484738
 30
0.0
 10
7.3693281262
 20
9.9963706149
 30
0.0
 10
7.3716134814
 20
10.0008289114
 30
0.0
 10
7.3737928004
 20
10.0067938646
 30
0.0
 10
7.3752706316
 20
10.01417884
 30
0.0
 10
7.3755947094
 20
10.019148152
 30
0.0
 10
7.3755947095
 20
10.0215818598
 30
0.0
  0
SPLINE
  5
27C
100
AcDbEntity
  8
0
100
AcDbSpline
 62
9
  6
CONTINUOUS
 70
0
 71
3
 72
18
 73
14
 74
0
 42
0.0000001
 43
0.0000001
 44
0.0000000001
 40
0.0
 40
0.0
 40
0.0
 40
0.0
 40
0.1352932352
 40
0.2759476197
 40
0.4173591785
 40
0.4866786497
 40
0.5541359237
 40
0.6816219221
 40
0.7414212953
 40
0.7983127207
 40
0.8522956048
 40
0.9037314498
 40
1.0
 40
1.0
 40
1.0
 40
1.0
 10
7.3755948606
 20
9.7055818598
 30
0.0
 10
7.3755948605
 20
9.7080155549
 30
0.0
 10
7.3752707829
 20
9.7129848413
 30
0.0
 10
7.3737929521
 20
9.7203697794
 30
0.0
 10
7.3716136349
 20
9.726334703
 30
0.0
 10
7.369328282
 20
9.7307929792
 30
0.0
 10
7.3667853422
 20
9.7348151075
 30
0.0
 10
7.3637629337
 20
9.7383128066
 30
0.0
 10
7.3603781702
 20
9.741123834
 30
0.0
 10
7.3577992556
 20
9.7428039035
 30
0.0
 10
7.3551618733
 20
9.7440768486
 30
0.0
 10
7.3517136078
 20
9.7452251011
 30
0.0
 10
7.3490426117
 20
9.7455826964
 30
0.0
 10
7.3473109043
 20
9.7455827154
 30
0.0
  0
SPLINE
  5
27D
100
AcDbEntity
  8
0
100
AcDbSpline
 62
9
  6
CONTINUOUS
 70
0
 71
3
 72
14
 73
10
 74
0
 42
0.0000001
 43
0.0000001
 44
0.0000000001
 40
0.0
 40
0.0
 40
0.0
 40
0.0
 40
0.2844681738
 40
0.4176159837
 40
0.5443426384
 40
0.6649456925
 40
0.7802038045
 40
0.8913137139
 40
1.0
 40
1.0
 40
1.0
 40
1.0
 10
6.6380903217
 20
9.7315512509
 30
0.0
 10
6.6387582236
 20
9.7294806236
 30
0.0
 10
6.6398289065
 20
9.7264660898
 30
0.0
 10
6.6415242882
 20
9.7226614081
 30
0.0
 10
6.642879234
 20
9.7200831793
 30
0.0
 10
6.6443685341
 20
9.7177393374
 30
0.0
 10
6.6460161292
 20
9.7156517601
 30
0.0
 10
6.647845115
 20
9.7138464953
 30
0.0
 10
6.649208451
 20
9.7128489875
 30
0.0
 10
6.6499176646
 20
9.7124153889
 30
0.0
  0
SPLINE
  5
27E
100
AcDbEntity
  8
0
100
AcDbSpline
 62
9
  6
CONTINUOUS
 70
0
 71
3
 72
10
 73
6
 74
0
 42
0.0000001
 43
0.0000001
 44
0.0000000001
 40
0.0
 40
0.0
 40
0.0
 40
0.0
 40
0.2179718545
 40
0.4584316017
 40
1.0
 40
1.0
 40
1.0
 40
1.0
 10
6.6499177671
 20
9.7124156379
 30
0.0
 10
6.6508003387
 20
9.7118673681
 30
0.0
 10
6.6526791389
 20
9.7107505245
 30
0.0
 10
6.6568440777
 20
9.7084314179
 30
0.0
 10
6.660161878
 20
9.7067294368
 30
0.0
 10
6.6624741532
 20
9.70558162
 30
0.0
  0
SPLINE
  5
27F
100
AcDbEntity
  8
0
100
AcDbSpline
 62
9
  6
CONTINUOUS
 70
0
 71
3
 72
27
 73
23
 74
0
 42
0.0000001
 43
0.0000001
 44
0.0000000001
 40
0.0
 40
0.0
 40
0.0
 40
0.0
 40
0.1528367456
 40
0.3157800971
 40
0.3996934104
 40
0.4836932052
 40
0.5662806525
 40
0.6459514525
 40
0.7211012901
 40
0.7897123693
 40
0.8497470057
 40
0.8760063169
 40
0.8994950325
 40
0.9200699518
 40
0.9377514552
 40
0.9526388308
 40
0.9649153694
 40
0.9749290005
 40
0.9833384619
 40
0.9872921036
 40
0.991285681
 40
1.0
 40
1.0
 40
1.0
 40
1.0
 10
7.3755942447
 20
9.7055814909
 30
0.0
 10
7.3793038796
 20
9.7074230731
 30
0.0
 10
7.3871453085
 20
9.7108773293
 30
0.0
 10
7.3973769748
 20
9.7144625034
 30
0.0
 10
7.4059931438
 20
9.7169472763
 30
0.0
 10
7.4125786869
 20
9.7185988876
 30
0.0
 10
7.4191041419
 20
9.7200011985
 30
0.0
 10
7.4254386135
 20
9.7211326379
 30
0.0
 10
7.4314365476
 20
9.7219708837
 30
0.0
 10
7.4369343748
 20
9.7225086993
 30
0.0
 10
7.4411300007
 20
9.7227099584
 30
0.0
 10
7.4441055488
 20
9.7226946759
 30
0.0
 10
7.4460097353
 20
9.7226038892
 30
0.0
 10
7.4476752364
 20
9.7224329671
 30
0.0
 10
7.4490952131
 20
9.7221837295
 30
0.0
 10
7.4502688024
 20
9.7218584255
 30
0.0
 10
7.4511974457
 20
9.7214565101
 30
0.0
 10
7.4518855217
 20
9.7209742605
 30
0.0
 10
7.4522574115
 20
9.7204756372
 30
0.0
 10
7.4523965864
 20
9.7200512235
 30
0.0
 10
7.4524438928
 20
9.7195992362
 30
0.0
 10
7.4523708491
 20
9.71925283
 30
0.0
 10
7.4522915745
 20
9.7190303921
 30
0.0
  0
SPLINE
  5
280
100
AcDbEntity
  8
0
100
AcDbSpline
 62
9
  6
CONTINUOUS
 70
0
 71
3
 72
9
 73
5
 74
0
 42
0.0000001
 43
0.0000001
 44
0.0000000001
 40
0.0
 40
0.0
 40
0.0
 40
0.0
 40
0.4902071651
 40
1.0
 40
1.0
 40
1.0
 40
1.0
 10
6.6219630765
 20
9.7447685968
 30
0.0
 10
6.6236554747
 20
9.7443807481
 30
0.0
 10
6.6270497999
 20
9.7433091156
 30
0.0
 10
6.6302229513
 20
9.7416970988
 30
0.0
 10
6.6317659635
 20
9.7407593051
 30
0.0
  0
SPLINE
  5
281
100
AcDbEntity
  8
0
100
AcDbSpline
 62
9
  6
CONTINUOUS
 70
0
 71
3
 72
11
 73
7
 74
0
 42
0.0000001
 43
0.0000001
 44
0.0000000001
 40
0.0
 40
0.0
 40
0.0
 40
0.0
 40
0.246480109
 40
0.4970638537
 40
0.7493183344
 40
1.0
 40
1.0
 40
1.0
 40
1.0
 10
6.6337347593
 20
9.7394713986
 30
0.0
 10
6.6351654462
 20
9.7384665457
 30
0.0
 10
6.6379067819
 20
9.736225298
 30
0.0
 10
6.6414933961
 20
9.7322796377
 30
0.0
 10
6.6445342021
 20
9.7278660395
 30
0.0
 10
6.646162684
 20
9.7246787221
 30
0.0
 10
6.6468674184
 20
9.7230462274
 30
0.0
  0
SPLINE
  5
282
100
AcDbEntity
  8
0
100
AcDbSpline
 62
9
  6
CONTINUOUS
 70
0
 71
3
 72
18
 73
14
 74
0
 42
0.0000001
 43
0.0000001
 44
0.0000000001
 40
0.0
 40
0.0
 40
0.0
 40
0.0
 40
0.0962699735
 40
0.1477064406
 40
0.2016898607
 40
0.2585817216
 40
0.3183814164
 40
0.445867674
 40
0.5133248822
 40
0.582644162
 40
0.7240549806
 40
0.8647082047
 40
1.0
 40
1.0
 40
1.0
 40
1.0
 10
6.6341888397
 20
9.7455823425
 30
0.0
 10
6.6359205807
 20
9.7455823552
 30
0.0
 10
6.6385916326
 20
9.7452248057
 30
0.0
 10
6.6420399811
 20
9.7440766021
 30
0.0
 10
6.6446774264
 20
9.7428036904
 30
0.0
 10
6.6472564039
 20
9.7411236487
 30
0.0
 10
6.6506412467
 20
9.7383126564
 30
0.0
 10
6.6536637309
 20
9.7348149805
 30
0.0
 10
6.6562067328
 20
9.7307928654
 30
0.0
 10
6.6584921357
 20
9.7263346089
 30
0.0
 10
6.6606714989
 20
9.7203697101
 30
0.0
 10
6.6621493583
 20
9.7129848028
 30
0.0
 10
6.6624734416
 20
9.7080155401
 30
0.0
 10
6.6624734417
 20
9.7055818598
 30
0.0
  0
SPLINE
  5
283
100
AcDbEntity
  8
0
100
AcDbSpline
 62
9
  6
CONTINUOUS
 70
0
 71
3
 72
13
 73
9
 74
0
 42
0.0000001
 43
0.0000001
 44
0.0000000001
 40
0.0
 40
0.0
 40
0.0
 40
0.0
 40
0.1089906038
 40
0.2199111189
 40
0.4553150024
 40
0.5821535245
 40
0.7153210717
 40
1.0
 40
1.0
 40
1.0
 40
1.0
 10
6.6499177191
 20
10.0147486233
 30
0.0
 10
6.6492105243
 20
10.0143075088
 30
0.0
 10
6.6478494129
 20
10.0133073969
 30
0.0
 10
6.6453568349
 20
10.0108624775
 30
0.0
 10
6.64328492
 20
10.0078568524
 30
0.0
 10
6.6415246151
 20
10.0045018843
 30
0.0
 10
6.6398284215
 20
10.0006942773
 30
0.0
 10
6.6387572291
 20
9.9976788231
 30
0.0
 10
6.6380887961
 20
9.9956069371
 30
0.0
  0
ELLIPSE
  5
284
100
AcDbEntity
  8
0
100
AcDbEllipse
 62
7
  6
CONTINUOUS
 10
11.0473183383
 20
9.8635818598
 30
0.0
 11
0.4375
 21
0.0
 31
0.0
 40
1.0
 41
0.0
 42
0.1204403437
  0
ELLIPSE
  5
285
100
AcDbEntity
  8
0
100
AcDbEllipse
 62
7
  6
CONTINUOUS
 10
11.0473183383
 20
9.8635818598
 30
0.0
 11
0.0
 21
0.4375
 31
0.0
 40
1.0
 41
-1.4503559831
 42
-0.0000760977
  0
ELLIPSE
  5
286
100
AcDbEntity
  8
0
100
AcDbEllipse
 62
7
  6
CONTINUOUS
 10
11.0473183383
 20
9.8635818598
 30
0.0
 11
0.4375
 21
0.0
 31
0.0
 40
1.0
 41
1.5707202291
 42
1.6073502425
  0
ELLIPSE
  5
287
100
AcDbEntity
  8
0
100
AcDbEllipse
 62
7
  6
CONTINUOUS
 10
11.0473183383
 20
9.8635818598
 30
0.0
 11
0.0
 21
0.4375
 31
0.0
 40
1.0
 41
0.0365539157
 42
1.5707963268
  0
ELLIPSE
  5
288
100
AcDbEntity
  8
0
100
AcDbEllipse
 62
7
  6
CONTINUOUS
 10
11.0473183383
 20
4.6135818598
 30
0.0
 11
-0.0
 21
0.4375
 31
0.0
 40
1.0
 41
1.5707963268
 42
4.7123889804
  0
ENDSEC
  0
SECTION
  2
OBJECTS
  0
DICTIONARY
  5
C
100
AcDbDictionary
280
0
281
1
  3
ACAD_GROUP
350
D
  3
ACAD_MLINESTYLE
350
17
  3
ACAD_LAYOUT
350
1A
  3
ACAD_PLOTSETTINGS
350
19
  3
ACAD_PLOTSTYLENAME
350
E
  0
DICTIONARY
  5
D
102
{ACAD_REACTORS
330
C
102
}
100
AcDbDictionary
280
0
281
1
  0
ACDBDICTIONARYWDFLT
  5
E
102
{ACAD_REACTORS
330
C
102
}
100
AcDbDictionary
281
1
  3
Normal
350
F
100
AcDbDictionaryWithDefault
340
F
  0
DICTIONARY
  5
17
102
{ACAD_REACTORS
330
C
102
}
100
AcDbDictionary
280
0
281
1
  3
Standard
350
18
  0
DICTIONARY
  5
19
102
{ACAD_REACTORS
330
C
102
}
100
AcDbDictionary
281
1
  0
DICTIONARY
  5
1A
102
{ACAD_REACTORS
330
C
102
}
100
AcDbDictionary
281
1
  3
Model
350
289
  3
Layout1
350
28A
  0
ACDBPLACEHOLDER
  5
F
102
{ACAD_REACTORS
330
E
102
}
  0
MLINESTYLE
  5
18
102
{ACAD_REACTORS
330
17
102
}
100
AcDbMlineStyle
  2
STANDARD
 70
0
  3

 62
256
 51
90.0
 52
90.0
 71
2
 49
0.5
 62
256
  6
BYLAYER
 49
-0.5
 62
256
  6
BYLAYER
  0
LAYOUT
  5
289
102
{ACAD_REACTORS
330
1A
102
}
100
AcDbPlotSettings
  1

  2
none_device
  4
ANSI_C_(22.00_x_17.00_Inches)
  6

 40
0.0
 41
0.0
 42
0.0
 43
0.0
 44
558.8
 45
431.8
 46
0.0
 47
0.0
 48
0.0
 49
0.0
140
0.0
141
0.0
142
1.0
143
1.0
 70
1024
 72
0
 73
0
 74
0
  7

 75
0
147
1.0
148
0.0
149
0.0
100
AcDbLayout
  1
Model
 70
0
 71
0
 10
0.0
 20
0.0
 11
22.0
 21
17.0
 12
0.0
 22
0.0
 32
0.0
 14
0.0
 24
0.0
 34
0.0
 15
0.0
 25
0.0
 35
0.0
146
0.0
 13
0.0
 23
0.0
 33
0.0
 16
1.0
 26
0.0
 36
0.0
 17
0.0
 27
1.0
 37
0.0
 76
0
330
202
345
0
346
0
  0
LAYOUT
  5
28A
102
{ACAD_REACTORS
330
1A
102
}
100
AcDbPlotSettings
  1

  2
none_device
  4
ANSI_C_(22.00_x_17.00_Inches)
  6

 40
0.0
 41
0.0
 42
0.0
 43
0.0
 44
558.8
 45
431.8
 46
0.0
 47
0.0
 48
0.0
 49
0.0
140
0.0
141
0.0
142
1.0
143
1.0
 70
0
 72
0
 73
0
 74
0
  7

 75
0
147
1.0
148
0.0
149
0.0
100
AcDbLayout
  1
Layout1
 70
0
 71
1
 10
0.0
 20
0.0
 11
22.0
 21
17.0
 12
0.0
 22
0.0
 32
0.0
 14
0.0
 24
0.0
 34
0.0
 15
0.0
 25
0.0
 35
0.0
146
0.0
 13
0.0
 23
0.0
 33
0.0
 16
1.0
 26
0.0
 36
0.0
 17
0.0
 27
1.0
 37
0.0
 76
0
330
203
345
0
346
0
  0
ENDSEC
  0
EOF
