999
DXF file: 2493_RIGHT.dxf
999
Pro/ENGINEER 2018400 by Parametric Technology Corporation
  0
SECTION
  2
HEADER
  9
$ACADVER
  1
AC1027
  9
$DWGCODEPAGE
  3
ANSI_1252
  9
$EXTMAX
 10
11.0
 20
8.5
 30
0.0
  9
$EXTMIN
 10
0.0
 20
0.0
 30
0.0
  9
$LIMMIN
 10
0.0
 20
0.0
  9
$LIMMAX
 10
11.0
 20
8.5
  9
$VIEWCTR
 10
5.5
 20
4.25
  9
$VIEWSIZE
 40
8.5
  9
$CLAYER
  8
0
  9
$LTSCALE
 40
0.605
  9
$CELTYPE
  6
BYLAYER
  9
$DIMSCALE
 40
1.0
  9
$DIMASZ
 40
0.1
  9
$DIMEXO
 40
0.0625
  9
$DIMDLI
 40
0.418
  9
$DIMEXE
 40
0.125
  9
$DIMCEN
 40
0.099
  9
$DIMLFAC
 40
1.0
  9
$DIMBLK
  1
_FILLED
  9
$DIMALT
 70
1
  9
$DIMALTD
 70
2
  9
$DIMALTTD
 70
2
  9
$DIMALTF
 40
25.4
  9
$DIMTXT
 40
0.08
  9
$DIMTOL
 70
1
  9
$DIMLIM
 70
0
  9
$DIMTFAC
 40
1.0
  9
$DIMTP
 40
0.001
  9
$DIMTM
 40
0.001
  9
$DIMGAP
 40
0.09
  9
$DIMDSEP
 70
46
  9
$AUNITS
 70
0
  9
$PDMODE
 70
3
  9
$PDSIZE
 40
0.3125
  9
$HANDSEED
  5
263
  9
$TILEMODE
 70
1
  9
$MEASUREMENT
 70
0
  9
$INSUNITS
 70
1
  0
ENDSEC
  0
SECTION
  2
CLASSES
  0
CLASS
  1
ACDBDICTIONARYWDFLT
  2
AcDbDictionaryWithDefault
  3
AutoCAD 2000
 90
0
 91
1
280
0
281
0
  0
CLASS
  1
ACDBPLACEHOLDER
  2
AcDbPlaceHolder
  3
AutoCAD 2000
 90
0
 91
1
280
0
281
0
  0
CLASS
  1
LAYOUT
  2
AcDbLayout
  3
AutoCAD 2000
 90
0
 91
0
280
0
281
0
  0
ENDSEC
  0
SECTION
  2
TABLES
  0
TABLE
  2
VPORT
  5
8
100
AcDbSymbolTable
 70
2
  0
VPORT
  5
1F4
100
AcDbSymbolTableRecord
100
AcDbViewportTableRecord
  2
*ACTIVE
 70
0
 10
0.0
 20
0.0
 11
1.0
 21
1.0
 12
5.5
 22
4.25
 13
0.0
 23
0.0
 14
1.0
 24
1.0
 15
0.0
 25
0.0
 16
0.0
 26
0.0
 36
1.0
 17
0.0
 27
0.0
 37
0.0
 40
8.5
 41
1.2941176471
 42
50.0
 43
0.0
 44
0.0
 50
0.0
 51
0.0
 71
0
 72
100
 73
1
 74
1
 75
0
 76
0
 77
0
 78
0
  0
ENDTAB
  0
TABLE
  2
LTYPE
  5
5
100
AcDbSymbolTable
 70
6
  0
LTYPE
  5
14
100
AcDbSymbolTableRecord
100
AcDbLinetypeTableRecord
  2
BYBLOCK
 70
0
  3

 72
65
 73
0
 40
0.0
  0
LTYPE
  5
15
100
AcDbSymbolTableRecord
100
AcDbLinetypeTableRecord
  2
BYLAYER
 70
0
  3

 72
65
 73
0
 40
0.0
  0
LTYPE
  5
16
100
AcDbSymbolTableRecord
100
AcDbLinetypeTableRecord
  2
CONTINUOUS
 70
64
  3
Solid line
 72
65
 73
0
 40
0.0
  0
LTYPE
  5
1F5
100
AcDbSymbolTableRecord
100
AcDbLinetypeTableRecord
  2
CENTER
 70
64
  3
____ _ ____ _ ____ _ ____ _ ____ _ ____ _ ____
 72
65
 73
4
 40
0.6
 49
0.375
 74
0
 49
-0.075
 74
0
 49
0.075
 74
0
 49
-0.075
 74
0
  0
LTYPE
  5
1F6
100
AcDbSymbolTableRecord
100
AcDbLinetypeTableRecord
  2
HIDDEN
 70
64
  3
- - - - - - - - - - - - - - - - - - - -
 72
65
 73
2
 40
0.2
 49
0.1
 74
0
 49
-0.1
 74
0
  0
LTYPE
  5
1F7
100
AcDbSymbolTableRecord
100
AcDbLinetypeTableRecord
  2
PHANTOM
 70
64
  3
_____ _ _ _____ _ _ _____ _ _ _____
 72
65
 73
6
 40
0.8
 49
0.45
 74
0
 49
-0.05
 74
0
 49
0.1
 74
0
 49
-0.05
 74
0
 49
0.1
 74
0
 49
-0.05
 74
0
  0
LTYPE
  5
1F8
100
AcDbSymbolTableRecord
100
AcDbLinetypeTableRecord
  2
DOT
 70
64
  3
. . . . . . . . . . . . . . . . . . . .
 72
65
 73
2
 40
0.2
 49
0.1
 74
0
 49
-0.1
 74
0
  0
LTYPE
  5
1F9
100
AcDbSymbolTableRecord
100
AcDbLinetypeTableRecord
  2
DASHED
 70
64
  3
- - - - - - - - - - - - - - - - - - - -
 72
65
 73
2
 40
0.2
 49
0.1
 74
0
 49
-0.1
 74
0
  0
ENDTAB
  0
TABLE
  2
LAYER
  5
2
100
AcDbSymbolTable
 70
36
  0
LAYER
  5
10
100
AcDbSymbolTableRecord
100
AcDbLayerTableRecord
  2
0
 70
0
 62
7
  6
CONTINUOUS
370
-3
390
F
  0
LAYER
  5
1FA
100
AcDbSymbolTableRecord
100
AcDbLayerTableRecord
  2
DEFAULT_1
 70
0
 62
7
  6
CENTER
370
-3
390
F
  0
LAYER
  5
1FB
100
AcDbSymbolTableRecord
100
AcDbLayerTableRecord
  2
DEFAULT_2
 70
0
 62
8
  6
HIDDEN
370
-3
390
F
  0
LAYER
  5
1FC
100
AcDbSymbolTableRecord
100
AcDbLayerTableRecord
  2
DEFAULT_3
 70
0
 62
7
  6
PHANTOM
370
-3
390
F
  0
LAYER
  5
1FD
100
AcDbSymbolTableRecord
100
AcDbLayerTableRecord
  2
DEFAULT_COORDINATE_SYSTEM
 70
0
 62
7
  6
CONTINUOUS
370
-3
390
F
  0
LAYER
  5
1FE
100
AcDbSymbolTableRecord
100
AcDbLayerTableRecord
  2
DEFAULT_DATUM_AXES
 70
0
 62
7
  6
CONTINUOUS
370
-3
390
F
  0
LAYER
  5
1FF
100
AcDbSymbolTableRecord
100
AcDbLayerTableRecord
  2
DEFAULT_DATUM_PLANES
 70
0
 62
7
  6
CONTINUOUS
370
-3
390
F
  0
ENDTAB
  0
TABLE
  2
STYLE
  5
3
100
AcDbSymbolTable
 70
1
  0
STYLE
  5
11
100
AcDbSymbolTableRecord
100
AcDbTextStyleTableRecord
  2
STANDARD
 70
0
 40
0.0
 41
0.8
 50
0.0
 71
0
 42
0.2
  3
txt
  4

  0
STYLE
  5
200
100
AcDbSymbolTableRecord
100
AcDbTextStyleTableRecord
  2
TEXTSTYLE_1
 70
0
 40
0.0
 41
0.8
 50
0.0
 71
0
 42
0.2
  3
gdt
  4

  0
ENDTAB
  0
TABLE
  2
VIEW
  5
6
100
AcDbSymbolTable
 70
0
  0
ENDTAB
  0
TABLE
  2
UCS
  5
7
100
AcDbSymbolTable
 70
0
  0
ENDTAB
  0
TABLE
  2
APPID
  5
9
100
AcDbSymbolTable
 70
1
  0
APPID
  5
201
100
AcDbSymbolTableRecord
100
AcDbRegAppTableRecord
  2
ACAD
 70
0
  0
ENDTAB
  0
TABLE
  2
BLOCK_RECORD
  5
1
100
AcDbSymbolTable
 70
0
  0
BLOCK_RECORD
  5
202
100
AcDbSymbolTableRecord
100
AcDbBlockTableRecord
  2
*Model_Space
  0
BLOCK_RECORD
  5
203
100
AcDbSymbolTableRecord
100
AcDbBlockTableRecord
  2
*Paper_Space
  0
BLOCK_RECORD
  5
204
100
AcDbSymbolTableRecord
100
AcDbBlockTableRecord
  2
_FILLED
  0
ENDTAB
  0
TABLE
  2
DIMSTYLE
  5
A
100
AcDbSymbolTable
 70
1
100
AcDbDimStyleTable
 71
0
  0
DIMSTYLE
105
205
100
AcDbSymbolTableRecord
100
AcDbDimStyleTableRecord
  2
STANDARD
 70
0
  3

  4

 40
1.0
 41
0.1
 42
0.0625
 43
0.38
 44
0.125
 45
0.0
 46
0.0
 47
0.001
 48
0.001
140
0.08
141
0.09
142
0.0
143
25.4
144
1.0
145
0.0
146
1.0
147
0.09
 71
1.0
 72
0.0
 73
1
 74
1
 75
0
 76
0
 77
0
 78
4
 79
1
170
1
171
2
172
0
173
0
174
0
175
0
176
0
177
0
178
0
270
2
179
3
271
3
272
3
273
2
274
2
275
0
280
0
281
0
282
0
283
1
284
4
285
0
286
0
287
3
288
0
340
11
278
46
341
204
342
204
343
204
344
204
  0
ENDTAB
  0
ENDSEC
  0
SECTION
  2
BLOCKS
  0
BLOCK
  5
20
100
AcDbEntity
  8
0
100
AcDbBlockBegin
  2
*Model_Space
 70
0
 10
0.0
 20
0.0
 30
0.0
  3
*Model_Space
  1

  0
ENDBLK
  5
21
100
AcDbEntity
  8
0
100
AcDbBlockEnd
  0
BLOCK
  5
1C
100
AcDbEntity
  8
0
100
AcDbBlockBegin
  2
*Paper_Space
 70
0
 10
0.0
 20
0.0
 30
0.0
  3
*Paper_Space
  1

  0
ENDBLK
  5
1D
100
AcDbEntity
  8
0
100
AcDbBlockEnd
  0
BLOCK
  5
206
100
AcDbEntity
  8
0
100
AcDbBlockBegin
  2
_FILLED
 70
64
 10
0.0
 20
0.0
  3
_FILLED
  1

  0
SOLID
  5
207
100
AcDbEntity
  8
0
  6
BYBLOCK
 62
0
100
AcDbTrace
 10
0.0
 20
0.0
 11
-1.0
 21
0.2
 12
-1.0
 22
-0.2
 13
-1.0
 23
-0.2
  0
ENDBLK
  5
208
100
AcDbEntity
  8
0
  6
BYBLOCK
 62
0
100
AcDbBlockEnd
  0
ENDSEC
  0
SECTION
  2
ENTITIES
  0
MTEXT
  5
209
100
AcDbEntity
  8
0
100
AcDbMText
 62
2
  6
CONTINUOUS
  7
STANDARD
 71
3
 72
1
 10
6.0331140361
 20
1.0948527596
 30
0.0
 11
1.0
 21
0.0
 31
0.0
 73
2
 44
0.9
  1
SCALE  .500
 40
0.08
 41
0.704
  0
LINE
  5
20A
100
AcDbEntity
  8
0
100
AcDbLine
 62
7
  6
CONTINUOUS
 10
0.0
 20
0.0
 11
0.0
 21
8.5
  0
LINE
  5
20B
100
AcDbEntity
  8
0
100
AcDbLine
 62
7
  6
CONTINUOUS
 10
0.0
 20
0.0
 11
11.0
 21
0.0
  0
LINE
  5
20C
100
AcDbEntity
  8
0
100
AcDbLine
 62
7
  6
CONTINUOUS
 10
0.0
 20
8.5
 11
11.0
 21
8.5
  0
LINE
  5
20D
100
AcDbEntity
  8
0
100
AcDbLine
 62
7
  6
CONTINUOUS
 10
11.0
 20
0.0
 11
11.0
 21
8.5
  0
LINE
  5
20E
100
AcDbEntity
  8
0
100
AcDbLine
 62
7
  6
CONTINUOUS
 10
6.2551332172
 20
2.2275080391
 11
5.330138893
 21
2.2275080391
  0
LINE
  5
20F
100
AcDbEntity
  8
0
100
AcDbLine
 62
7
  6
CONTINUOUS
 10
5.3301360551
 20
2.3375080391
 11
6.2551360551
 21
2.3375080391
  0
LINE
  5
210
100
AcDbEntity
  8
0
100
AcDbLine
 62
7
  6
CONTINUOUS
 10
5.3451386704
 20
2.3525080391
 11
6.2401334398
 21
2.3525080391
  0
LINE
  5
211
100
AcDbEntity
  8
0
100
AcDbLine
 62
7
  6
CONTINUOUS
 10
2.785761055
 20
5.0525080391
 11
2.785761055
 21
5.596258039
  0
LINE
  5
212
100
AcDbEntity
  8
0
100
AcDbLine
 62
7
  6
CONTINUOUS
 10
3.223261055
 20
5.0525080391
 11
3.223261055
 21
5.1587580391
  0
LINE
  5
213
100
AcDbEntity
  8
0
100
AcDbLine
 62
7
  6
CONTINUOUS
 10
5.9175754125
 20
7.0249191068
 11
5.9176360551
 21
7.024968669
  0
LINE
  5
214
100
AcDbEntity
  8
0
100
AcDbLine
 62
7
  6
CONTINUOUS
 10
5.6476887246
 20
6.7950172431
 11
5.6476360551
 21
6.794968669
  0
LINE
  5
215
100
AcDbEntity
  8
0
100
AcDbLine
 62
7
  6
CONTINUOUS
 10
5.7926360551
 20
6.919968669
 11
5.6476360522
 21
6.7949686687
  0
LINE
  5
216
100
AcDbEntity
  8
0
100
AcDbLine
 62
7
  6
CONTINUOUS
 10
5.6481516298
 20
6.7954124541
 11
5.6478605828
 21
6.7951644468
  0
LINE
  5
217
100
AcDbEntity
  8
0
100
AcDbLine
 62
7
  6
CONTINUOUS
 10
5.7926360551
 20
6.919968669
 11
5.9176360575
 21
7.0249686709
  0
LINE
  5
218
100
AcDbEntity
  8
0
100
AcDbLine
 62
7
  6
CONTINUOUS
 10
5.8709828832
 20
6.9857783326
 11
5.8783282873
 21
6.991949569
  0
LINE
  5
219
100
AcDbEntity
  8
0
100
AcDbLine
 62
7
  6
CONTINUOUS
 10
5.8963030854
 20
7.0070485842
 11
5.8987189902
 21
7.0090784014
  0
LINE
  5
21A
100
AcDbEntity
  8
0
100
AcDbLine
 62
7
  6
CONTINUOUS
 10
5.8250414312
 20
6.9471890861
 11
5.8402352622
 21
6.9599516111
  0
LINE
  5
21B
100
AcDbEntity
  8
0
100
AcDbLine
 62
7
  6
CONTINUOUS
 10
5.9050213913
 20
7.0143726602
 11
5.9068165589
 21
7.0158795097
  0
LINE
  5
21C
100
AcDbEntity
  8
0
100
AcDbLine
 62
7
  6
CONTINUOUS
 10
5.8090668115
 20
6.9337706187
 11
5.8197888888
 21
6.942779055
  0
LINE
  5
21D
100
AcDbEntity
  8
0
100
AcDbLine
 62
7
  6
CONTINUOUS
 10
5.908465253
 20
7.0172647726
 11
5.9145889377
 21
7.0224086779
  0
LWPOLYLINE
  5
21E
100
AcDbEntity
  8
0
100
AcDbPolyline
 62
7
  6
CONTINUOUS
 90
3
 70
0
 10
5.9160947646
 20
7.0236741883
 10
5.9166533712
 20
7.0241420897
 10
5.9175754125
 20
7.0249191068
  0
LINE
  5
21F
100
AcDbEntity
  8
0
100
AcDbLine
 62
7
  6
CONTINUOUS
 10
5.8975865814
 20
7.0449079648
 11
5.8976360551
 21
7.044968669
  0
LINE
  5
220
100
AcDbEntity
  8
0
100
AcDbLine
 62
7
  6
CONTINUOUS
 10
5.7926360551
 20
6.919968669
 11
5.8976360572
 21
7.0449686697
  0
LINE
  5
221
100
AcDbEntity
  8
0
100
AcDbLine
 62
7
  6
CONTINUOUS
 10
5.8645954758
 20
7.0056344695
 11
5.8674656459
 21
7.0090520739
  0
LINE
  5
222
100
AcDbEntity
  8
0
100
AcDbLine
 62
7
  6
CONTINUOUS
 10
5.8752255597
 20
7.0182895124
 11
5.8775292571
 21
7.0210326979
  0
LINE
  5
223
100
AcDbEntity
  8
0
100
AcDbLine
 62
7
  6
CONTINUOUS
 10
5.828444539
 20
6.962596543
 11
5.8326041359
 21
6.9675497535
  0
LWPOLYLINE
  5
224
100
AcDbEntity
  8
0
100
AcDbPolyline
 62
7
  6
CONTINUOUS
 90
3
 70
0
 10
5.6680801061
 20
6.7754845226
 10
5.6676846466
 20
6.7750212634
 10
5.6676360551
 20
6.774968669
  0
LINE
  5
225
100
AcDbEntity
  8
0
100
AcDbLine
 62
7
  6
CONTINUOUS
 10
5.7926360551
 20
6.919968669
 11
5.6676360556
 21
6.7749686665
  0
LINE
  5
226
100
AcDbEntity
  8
0
100
AcDbLine
 62
7
  6
CONTINUOUS
 10
5.6993553912
 20
6.8117620901
 11
5.6934196875
 21
6.804876721
  0
LINE
  5
227
100
AcDbEntity
  8
0
100
AcDbLine
 62
7
  6
CONTINUOUS
 10
5.7806042544
 20
6.9059915494
 11
5.7360634394
 21
6.8543484993
  0
LINE
  5
228
100
AcDbEntity
  8
0
100
AcDbLine
 62
7
  6
CONTINUOUS
 10
5.6907340545
 20
6.8017601426
 11
5.6680801061
 21
6.7754845226
  0
LINE
  5
229
100
AcDbEntity
  8
0
100
AcDbLine
 62
7
  6
CONTINUOUS
 10
4.3926360551
 20
6.807468669
 11
4.3926360551
 21
7.032468669
  0
LINE
  5
22A
100
AcDbEntity
  8
0
100
AcDbLine
 62
7
  6
CONTINUOUS
 10
4.4051360551
 20
6.794968669
 11
4.4051360551
 21
7.044968669
  0
LINE
  5
22B
100
AcDbEntity
  8
0
100
AcDbLine
 62
7
  6
CONTINUOUS
 10
2.785761055
 20
5.0525080391
 11
3.223261055
 21
5.0525080391
  0
LINE
  5
22C
100
AcDbEntity
  8
0
100
AcDbLine
 62
7
  6
CONTINUOUS
 10
5.4651360551
 20
5.1587580391
 11
3.223261055
 21
5.1587580391
  0
LINE
  5
22D
100
AcDbEntity
  8
0
100
AcDbLine
 62
7
  6
CONTINUOUS
 10
5.3301360551
 20
2.2275080391
 11
5.3301360551
 21
2.3375080391
  0
LINE
  5
22E
100
AcDbEntity
  8
0
100
AcDbLine
 62
7
  6
CONTINUOUS
 10
5.4651360551
 20
6.6755080391
 11
5.4651360551
 21
6.1025080391
  0
LINE
  5
22F
100
AcDbEntity
  8
0
100
AcDbLine
 62
7
  6
CONTINUOUS
 10
5.4651360551
 20
6.0875080391
 11
5.4651360551
 21
5.5962580391
  0
LINE
  5
230
100
AcDbEntity
  8
0
100
AcDbLine
 62
7
  6
CONTINUOUS
 10
5.4651360551
 20
5.1587580391
 11
5.4651360551
 21
2.3525080391
  0
LINE
  5
231
100
AcDbEntity
  8
0
100
AcDbLine
 62
7
  6
CONTINUOUS
 10
5.4988860551
 20
6.1025080391
 11
5.4988860551
 21
6.0875080391
  0
LINE
  5
232
100
AcDbEntity
  8
0
100
AcDbLine
 62
7
  6
CONTINUOUS
 10
5.4651360551
 20
5.5962580391
 11
2.7857610551
 21
5.5962580391
  0
LINE
  5
233
100
AcDbEntity
  8
0
100
AcDbLine
 62
7
  6
CONTINUOUS
 10
5.6676360551
 20
6.6905080391
 11
5.6676360551
 21
6.774968669
  0
LINE
  5
234
100
AcDbEntity
  8
0
100
AcDbLine
 62
7
  6
CONTINUOUS
 10
5.9176360551
 20
6.704968669
 11
5.9176360551
 21
7.024968669
  0
LINE
  5
235
100
AcDbEntity
  8
0
100
AcDbLine
 62
7
  6
CONTINUOUS
 10
6.0863860551
 20
6.1025080391
 11
6.0863860551
 21
6.0875080391
  0
LINE
  5
236
100
AcDbEntity
  8
0
100
AcDbLine
 62
7
  6
CONTINUOUS
 10
6.0887040372
 20
6.3405080391
 11
6.0887040372
 21
6.6755080391
  0
LINE
  5
237
100
AcDbEntity
  8
0
100
AcDbLine
 62
7
  6
CONTINUOUS
 10
6.0902830776
 20
6.697468669
 11
6.0902830776
 21
6.4985325196
  0
LINE
  5
238
100
AcDbEntity
  8
0
100
AcDbLine
 62
7
  6
CONTINUOUS
 10
6.0972591797
 20
6.689968669
 11
6.0972591797
 21
6.4985325196
  0
LINE
  5
239
100
AcDbEntity
  8
0
100
AcDbLine
 62
7
  6
CONTINUOUS
 10
6.1201360551
 20
6.3405080391
 11
6.1201360551
 21
6.1025080391
  0
LINE
  5
23A
100
AcDbEntity
  8
0
100
AcDbLine
 62
7
  6
CONTINUOUS
 10
6.1201360551
 20
6.0875080391
 11
6.1201360551
 21
2.3525080391
  0
LINE
  5
23B
100
AcDbEntity
  8
0
100
AcDbLine
 62
7
  6
CONTINUOUS
 10
6.1201360551
 20
6.5034880496
 11
6.1201360551
 21
6.689968669
  0
LINE
  5
23C
100
AcDbEntity
  8
0
100
AcDbLine
 62
7
  6
CONTINUOUS
 10
6.0887040372
 20
6.4905003584
 11
6.1142590755
 21
6.496165774
  0
LINE
  5
23D
100
AcDbEntity
  8
0
100
AcDbLine
 62
7
  6
CONTINUOUS
 10
6.0887040372
 20
6.4981824547
 11
6.0902830776
 21
6.4985325196
  0
LINE
  5
23E
100
AcDbEntity
  8
0
100
AcDbLine
 62
7
  6
CONTINUOUS
 10
6.0972591797
 20
6.4985325196
 11
6.1201360009
 21
6.5034880406
  0
LINE
  5
23F
100
AcDbEntity
  8
0
100
AcDbLine
 62
7
  6
CONTINUOUS
 10
5.4651360551
 20
6.0875080391
 11
6.1201360551
 21
6.0875080391
  0
LINE
  5
240
100
AcDbEntity
  8
0
100
AcDbLine
 62
7
  6
CONTINUOUS
 10
5.4651360551
 20
6.1025080391
 11
6.1201360551
 21
6.1025080391
  0
LINE
  5
241
100
AcDbEntity
  8
0
100
AcDbLine
 62
7
  6
CONTINUOUS
 10
6.2551360551
 20
2.2275080391
 11
6.2551360551
 21
2.3375080391
  0
LINE
  5
242
100
AcDbEntity
  8
0
100
AcDbLine
 62
7
  6
CONTINUOUS
 10
6.1201360551
 20
6.3405080391
 11
6.0887040372
 21
6.3405080391
  0
LINE
  5
243
100
AcDbEntity
  8
0
100
AcDbLine
 62
7
  6
CONTINUOUS
 10
6.0972591797
 20
6.4985325196
 11
6.0902830776
 21
6.4985325196
  0
LINE
  5
244
100
AcDbEntity
  8
0
100
AcDbLine
 62
7
  6
CONTINUOUS
 10
6.0902830776
 20
6.4985325196
 11
6.0919063747
 21
6.4912102995
  0
LINE
  5
245
100
AcDbEntity
  8
0
100
AcDbLine
 62
7
  6
CONTINUOUS
 10
6.0887040372
 20
6.6755080391
 11
5.4651360551
 21
6.6755080391
  0
LINE
  5
246
100
AcDbEntity
  8
0
100
AcDbLine
 62
7
  6
CONTINUOUS
 10
6.0764527474
 20
6.689968669
 11
6.1201360551
 21
6.689968669
  0
LINE
  5
247
100
AcDbEntity
  8
0
100
AcDbLine
 62
7
  6
CONTINUOUS
 10
5.4801360551
 20
6.6905080391
 11
6.0720215415
 21
6.6905080391
  0
LINE
  5
248
100
AcDbEntity
  8
0
100
AcDbLine
 62
7
  6
CONTINUOUS
 10
5.8538732987
 20
6.697468669
 11
6.1126360551
 21
6.697468669
  0
LINE
  5
249
100
AcDbEntity
  8
0
100
AcDbLine
 62
7
  6
CONTINUOUS
 10
5.9176360551
 20
6.704968669
 11
5.8504070396
 21
6.704968669
  0
LINE
  5
24A
100
AcDbEntity
  8
0
100
AcDbLine
 62
7
  6
CONTINUOUS
 10
5.6476360551
 20
6.794968669
 11
4.4051360551
 21
6.794968669
  0
LINE
  5
24B
100
AcDbEntity
  8
0
100
AcDbLine
 62
7
  6
CONTINUOUS
 10
5.8976360551
 20
7.044968669
 11
4.4051360551
 21
7.044968669
  0
ARC
  5
24C
100
AcDbEntity
  8
0
100
AcDbCircle
 62
7
  6
CONTINUOUS
 10
5.6476366638
 20
6.7749692777
 40
0.019999916
100
AcDbArc
 50
359.9982562524
 51
90.0017437476
  0
ARC
  5
24D
100
AcDbEntity
  8
0
100
AcDbCircle
 62
7
  6
CONTINUOUS
 10
5.8976356087
 20
7.0249682226
 40
0.019999915
100
AcDbArc
 50
0.0012788179
 51
89.9987211821
  0
ARC
  5
24E
100
AcDbEntity
  8
0
100
AcDbCircle
 62
7
  6
CONTINUOUS
 10
5.4801360551
 20
6.6755080391
 40
0.015
100
AcDbArc
 50
90.0
 51
180.0
  0
ARC
  5
24F
100
AcDbEntity
  8
0
100
AcDbCircle
 62
7
  6
CONTINUOUS
 10
6.2401360551
 20
2.3375080391
 40
0.015
100
AcDbArc
 50
0.0
 51
90.0
  0
ARC
  5
250
100
AcDbEntity
  8
0
100
AcDbCircle
 62
7
  6
CONTINUOUS
 10
5.3451360551
 20
2.3375080391
 40
0.015
100
AcDbArc
 50
90.0
 51
180.0
  0
ARC
  5
251
100
AcDbEntity
  8
0
100
AcDbCircle
 62
7
  6
CONTINUOUS
 10
4.4051360551
 20
7.032468669
 40
0.0125
100
AcDbArc
 50
90.0
 51
180.0
  0
ARC
  5
252
100
AcDbEntity
  8
0
100
AcDbCircle
 62
7
  6
CONTINUOUS
 10
4.4051360551
 20
6.807468669
 40
0.0125
100
AcDbArc
 50
180.0
 51
270.0
  0
ARC
  5
253
100
AcDbEntity
  8
0
100
AcDbCircle
 62
7
  6
CONTINUOUS
 10
6.1126360307
 20
6.50348805
 40
0.0075
100
AcDbArc
 50
282.5
 51
359.9999973429
  0
ARC
  5
254
100
AcDbEntity
  8
0
100
AcDbCircle
 62
7
  6
CONTINUOUS
 10
6.1126360551
 20
6.689968669
 40
0.0075
100
AcDbArc
 50
0.0
 51
90.0
  0
ARC
  5
255
100
AcDbEntity
  8
0
100
AcDbCircle
 62
7
  6
CONTINUOUS
 10
5.9251360551
 20
6.704968669
 40
0.0075
100
AcDbArc
 50
180.0
 51
270.0
  0
SPLINE
  5
256
100
AcDbEntity
  8
0
100
AcDbSpline
 62
7
  6
CONTINUOUS
 70
0
 71
3
 72
19
 73
15
 74
0
 42
0.0000001
 43
0.0000001
 44
0.0000000001
 40
0.0
 40
0.0
 40
0.0
 40
0.0
 40
0.1249547228
 40
0.1875072234
 40
0.2500366287
 40
0.3749798286
 40
0.4999149085
 40
0.5624499163
 40
0.6249871814
 40
0.6875245333
 40
0.7500620319
 40
0.8125903984
 40
0.8751273467
 40
1.0
 40
1.0
 40
1.0
 40
1.0
 10
6.0720215415
 20
6.6905080391
 30
0.0
 10
6.0730581076
 20
6.6905080391
 30
0.0
 10
6.0746177255
 20
6.6903785127
 30
0.0
 10
6.0766484858
 20
6.6899473942
 30
0.0
 10
6.0786353214
 20
6.6893441715
 30
0.0
 10
6.0810089005
 20
6.688268401
 30
0.0
 10
6.0831482021
 20
6.6867761675
 30
0.0
 10
6.0846609002
 20
6.685353131
 30
0.0
 10
6.0856839556
 20
6.6841766268
 30
0.0
 10
6.086580046
 20
6.6829006537
 30
0.0
 10
6.0873357667
 20
6.6815368187
 30
0.0
 10
6.0879384583
 20
6.6800982555
 30
0.0
 10
6.088523368
 20
6.6781060739
 30
0.0
 10
6.0887040372
 20
6.6765439244
 30
0.0
 10
6.0887040372
 20
6.6755080391
 30
0.0
  0
SPLINE
  5
257
100
AcDbEntity
  8
0
100
AcDbSpline
 62
7
  6
CONTINUOUS
 70
0
 71
3
 72
33
 73
29
 74
0
 42
0.0000001
 43
0.0000001
 44
0.0000000001
 40
0.0
 40
0.0
 40
0.0
 40
0.0
 40
0.0113173177
 40
0.0438815774
 40
0.0943308873
 40
0.1250541574
 40
0.158844437
 40
0.1953121502
 40
0.2341180581
 40
0.2749653555
 40
0.3175850075
 40
0.3617143486
 40
0.4070666627
 40
0.4532999323
 40
0.5000000345
 40
0.5467001171
 40
0.5929333535
 40
0.6382856543
 40
0.6824149977
 40
0.7250346579
 40
0.7658819559
 40
0.8046878479
 40
0.841155553
 40
0.8749458278
 40
0.9056690981
 40
0.9561184132
 40
0.9886826795
 40
1.0
 40
1.0
 40
1.0
 40
1.0
 10
5.4651360551
 20
5.1587580391
 30
0.0
 10
5.4661320623
 20
5.1602492084
 30
0.0
 10
5.4699788815
 20
5.1660411312
 30
0.0
 10
5.4781168882
 20
5.1785786903
 30
0.0
 10
5.4875921691
 20
5.1939116688
 30
0.0
 10
5.4967636715
 20
5.2096513785
 30
0.0
 10
5.5044996333
 20
5.223659323
 30
0.0
 10
5.5124234948
 20
5.2390197702
 30
0.0
 10
5.5202893672
 20
5.2556577664
 30
0.0
 10
5.5278272461
 20
5.2735127104
 30
0.0
 10
5.5347349518
 20
5.2925246151
 30
0.0
 10
5.540675363
 20
5.3126111701
 30
0.0
 10
5.5452885471
 20
5.3336359861
 30
0.0
 10
5.5482308631
 20
5.3553758545
 30
0.0
 10
5.5492441926
 20
5.3775080524
 30
0.0
 10
5.5482308623
 20
5.3996402451
 30
0.0
 10
5.5452885449
 20
5.4213801027
 30
0.0
 10
5.5406753619
 20
5.4424049118
 30
0.0
 10
5.5347349508
 20
5.4624914663
 30
0.0
 10
5.5278272445
 20
5.4815033726
 30
0.0
 10
5.5202893649
 20
5.4993583152
 30
0.0
 10
5.5124234947
 20
5.5159963083
 30
0.0
 10
5.5044996353
 20
5.5313567514
 30
0.0
 10
5.4967636744
 20
5.5453646941
 30
0.0
 10
5.4875921722
 20
5.5611044041
 30
0.0
 10
5.4781168905
 20
5.5764373843
 30
0.0
 10
5.4699788825
 20
5.5889749453
 30
0.0
 10
5.4661320625
 20
5.5947668694
 30
0.0
 10
5.4651360551
 20
5.5962580391
 30
0.0
  0
SPLINE
  5
258
100
AcDbEntity
  8
0
100
AcDbSpline
 62
7
  6
CONTINUOUS
 70
0
 71
3
 72
15
 73
11
 74
0
 42
0.0000001
 43
0.0000001
 44
0.0000000001
 40
0.0
 40
0.0
 40
0.0
 40
0.0
 40
0.1295961758
 40
0.2582720933
 40
0.3853956327
 40
0.5109872359
 40
0.6349867591
 40
0.7574758786
 40
0.8791811529
 40
1.0
 40
1.0
 40
1.0
 40
1.0
 10
6.0972591797
 20
6.4985325196
 30
0.0
 10
6.0972740076
 20
6.4981083753
 30
0.0
 10
6.0972301843
 20
6.497259105
 30
0.0
 10
6.0969639296
 20
6.4960202192
 30
0.0
 10
6.0965046146
 20
6.4948524568
 30
0.0
 10
6.095862673
 20
6.4937918519
 30
0.0
 10
6.0950573664
 20
6.4928691925
 30
0.0
 10
6.094112044
 20
6.4921100872
 30
0.0
 10
6.093053769
 20
6.4915406772
 30
0.0
 10
6.0922926553
 20
6.4912959359
 30
0.0
 10
6.0919063747
 20
6.4912102995
 30
0.0
  0
SPLINE
  5
259
100
AcDbEntity
  8
0
100
AcDbSpline
 62
7
  6
CONTINUOUS
 70
0
 71
3
 72
15
 73
11
 74
0
 42
0.0000001
 43
0.0000001
 44
0.0000000001
 40
0.0
 40
0.0
 40
0.0
 40
0.0
 40
0.1293871248
 40
0.2581507693
 40
0.3856693742
 40
0.511592041
 40
0.635751031
 40
0.7582482434
 40
0.8794868335
 40
1.0
 40
1.0
 40
1.0
 40
1.0
 10
6.0972591797
 20
6.689968669
 30
0.0
 10
6.0972591797
 20
6.6904583959
 30
0.0
 10
6.0971697128
 20
6.6914378404
 30
0.0
 10
6.0967721576
 20
6.6928506399
 30
0.0
 10
6.0961255957
 20
6.6941543972
 30
0.0
 10
6.0952546048
 20
6.6952987179
 30
0.0
 10
6.0941914859
 20
6.6962393048
 30
0.0
 10
6.0929765735
 20
6.6969396119
 30
0.0
 10
6.091657125
 20
6.6973712476
 30
0.0
 10
6.0907392169
 20
6.697468669
 30
0.0
 10
6.0902830776
 20
6.697468669
 30
0.0
  0
SPLINE
  5
25A
100
AcDbEntity
  8
0
100
AcDbSpline
 62
7
  6
CONTINUOUS
 70
0
 71
3
 72
13
 73
9
 74
0
 42
0.0000001
 43
0.0000001
 44
0.0000000001
 40
0.0
 40
0.0
 40
0.0
 40
0.0
 40
0.2523887487
 40
0.3781515272
 40
0.503541516
 40
0.628495699
 40
0.7529679454
 40
1.0
 40
1.0
 40
1.0
 40
1.0
 10
5.8156254103
 20
6.693718669
 30
0.0
 10
5.8188243126
 20
6.6942066918
 30
0.0
 10
5.8236221755
 20
6.6949067537
 30
0.0
 10
5.8300248794
 20
6.6957355614
 30
0.0
 10
5.8348148604
 20
6.6962926514
 30
0.0
 10
5.839597242
 20
6.6967681793
 30
0.0
 10
5.8459424322
 20
6.6972710432
 30
0.0
 10
5.8507060633
 20
6.6974686616
 30
0.0
 10
5.8538732987
 20
6.697468669
 30
0.0
  0
SPLINE
  5
25B
100
AcDbEntity
  8
0
100
AcDbSpline
 62
7
  6
CONTINUOUS
 70
0
 71
3
 72
17
 73
13
 74
0
 42
0.0000001
 43
0.0000001
 44
0.0000000001
 40
0.0
 40
0.0
 40
0.0
 40
0.0
 40
0.0383331162
 40
0.0780373031
 40
0.1202030823
 40
0.1656975575
 40
0.2686347982
 40
0.3889258372
 40
0.5255407625
 40
0.675649808
 40
0.8353681608
 40
1.0
 40
1.0
 40
1.0
 40
1.0
 10
5.8538732987
 20
6.697468669
 30
0.0
 10
5.8537596316
 20
6.697468669
 30
0.0
 10
5.8535275533
 20
6.6974939453
 30
0.0
 10
5.8531866072
 20
6.6976052105
 30
0.0
 10
5.8528540322
 20
6.6977883075
 30
0.0
 10
5.8524079945
 20
6.6981386908
 30
0.0
 10
5.8518936024
 20
6.6987581099
 30
0.0
 10
5.8513798584
 20
6.6996980906
 30
0.0
 10
5.8509593782
 20
6.7008331487
 30
0.0
 10
5.8506473379
 20
6.7021222578
 30
0.0
 10
5.8504555457
 20
6.7035181058
 30
0.0
 10
5.8504128706
 20
6.7044804952
 30
0.0
 10
5.8504131223
 20
6.704968669
 30
0.0
  0
LINE
  5
25C
100
AcDbEntity
  8
0
100
AcDbLine
 62
7
  6
CONTINUOUS
 10
5.795848723
 20
6.6905089118
 11
5.8156254103
 21
6.693718669
  0
LINE
  5
25D
100
AcDbEntity
  8
0
100
AcDbLine
 62
7
  6
CONTINUOUS
 10
5.7941430961
 20
6.6905062319
 11
5.814324126
 21
6.697468669
  0
LINE
  5
25E
100
AcDbEntity
  8
0
100
AcDbLine
 62
7
  6
CONTINUOUS
 10
2.7857610551
 20
5.5962580391
 11
3.004511055
 21
5.3775080391
  0
SPLINE
  5
25F
100
AcDbEntity
  8
0
100
AcDbSpline
 62
7
  6
CONTINUOUS
 70
0
 71
3
 72
15
 73
11
 74
0
 42
0.0000001
 43
0.0000001
 44
0.0000000001
 40
0.0
 40
0.0
 40
0.0
 40
0.0
 40
0.2589576375
 40
0.3867751161
 40
0.5131640863
 40
0.6379056055
 40
0.7607706777
 40
0.8214427805
 40
0.8815715165
 40
1.0
 40
1.0
 40
1.0
 40
1.0
 10
5.814324126
 20
6.697468669
 30
0.0
 10
5.8173621816
 20
6.6984512156
 30
0.0
 10
5.8219196476
 20
6.6998601959
 30
0.0
 10
5.8280223724
 20
6.7015333931
 30
0.0
 10
5.8325610991
 20
6.7026464564
 30
0.0
 10
5.8370750658
 20
6.7035943827
 30
0.0
 10
5.8408261874
 20
6.7042186654
 30
0.0
 10
5.8438077149
 20
6.7045925723
 30
0.0
 10
5.8467443606
 20
6.7048721854
 30
0.0
 10
5.8489467975
 20
6.7049688444
 30
0.0
 10
5.8504070396
 20
6.704968669
 30
0.0
  0
LINE
  5
260
100
AcDbEntity
  8
0
100
AcDbLine
 62
7
  6
CONTINUOUS
 10
3.223261055
 20
5.1587580391
 11
3.004511055
 21
5.3775080391
  0
ENDSEC
  0
SECTION
  2
OBJECTS
  0
DICTIONARY
  5
C
100
AcDbDictionary
280
0
281
1
  3
ACAD_GROUP
350
D
  3
ACAD_MLINESTYLE
350
17
  3
ACAD_LAYOUT
350
1A
  3
ACAD_PLOTSETTINGS
350
19
  3
ACAD_PLOTSTYLENAME
350
E
  0
DICTIONARY
  5
D
102
{ACAD_REACTORS
330
C
102
}
100
AcDbDictionary
280
0
281
1
  0
ACDBDICTIONARYWDFLT
  5
E
102
{ACAD_REACTORS
330
C
102
}
100
AcDbDictionary
281
1
  3
Normal
350
F
100
AcDbDictionaryWithDefault
340
F
  0
DICTIONARY
  5
17
102
{ACAD_REACTORS
330
C
102
}
100
AcDbDictionary
280
0
281
1
  3
Standard
350
18
  0
DICTIONARY
  5
19
102
{ACAD_REACTORS
330
C
102
}
100
AcDbDictionary
281
1
  0
DICTIONARY
  5
1A
102
{ACAD_REACTORS
330
C
102
}
100
AcDbDictionary
281
1
  3
Model
350
261
  3
Layout1
350
262
  0
ACDBPLACEHOLDER
  5
F
102
{ACAD_REACTORS
330
E
102
}
  0
MLINESTYLE
  5
18
102
{ACAD_REACTORS
330
17
102
}
100
AcDbMlineStyle
  2
STANDARD
 70
0
  3

 62
256
 51
90.0
 52
90.0
 71
2
 49
0.5
 62
256
  6
BYLAYER
 49
-0.5
 62
256
  6
BYLAYER
  0
LAYOUT
  5
261
102
{ACAD_REACTORS
330
1A
102
}
100
AcDbPlotSettings
  1

  2
none_device
  4
ANSI_A_(11.00_x_8.50_Inches)
  6

 40
0.0
 41
0.0
 42
0.0
 43
0.0
 44
279.4
 45
215.9
 46
0.0
 47
0.0
 48
0.0
 49
0.0
140
0.0
141
0.0
142
1.0
143
1.0
 70
1024
 72
0
 73
0
 74
0
  7

 75
0
147
1.0
148
0.0
149
0.0
100
AcDbLayout
  1
Model
 70
0
 71
0
 10
0.0
 20
0.0
 11
11.0
 21
8.5
 12
0.0
 22
0.0
 32
0.0
 14
0.0
 24
0.0
 34
0.0
 15
0.0
 25
0.0
 35
0.0
146
0.0
 13
0.0
 23
0.0
 33
0.0
 16
1.0
 26
0.0
 36
0.0
 17
0.0
 27
1.0
 37
0.0
 76
0
330
202
345
0
346
0
  0
LAYOUT
  5
262
102
{ACAD_REACTORS
330
1A
102
}
100
AcDbPlotSettings
  1

  2
none_device
  4
ANSI_A_(11.00_x_8.50_Inches)
  6

 40
0.0
 41
0.0
 42
0.0
 43
0.0
 44
279.4
 45
215.9
 46
0.0
 47
0.0
 48
0.0
 49
0.0
140
0.0
141
0.0
142
1.0
143
1.0
 70
0
 72
0
 73
0
 74
0
  7

 75
0
147
1.0
148
0.0
149
0.0
100
AcDbLayout
  1
Layout1
 70
0
 71
1
 10
0.0
 20
0.0
 11
11.0
 21
8.5
 12
0.0
 22
0.0
 32
0.0
 14
0.0
 24
0.0
 34
0.0
 15
0.0
 25
0.0
 35
0.0
146
0.0
 13
0.0
 23
0.0
 33
0.0
 16
1.0
 26
0.0
 36
0.0
 17
0.0
 27
1.0
 37
0.0
 76
0
330
203
345
0
346
0
  0
ENDSEC
  0
EOF
