999
DXF file: E:\BT Custom\CADOUTPUT\_RIGHT.dxf
999
Pro/ENGINEER 2018400 by Parametric Technology Corporation
  0
SECTION
  2
HEADER
  9
$ACADVER
  1
AC1018
  9
$DWGCODEPAGE
  3
ANSI_1252
  9
$EXTMAX
 10
22.0
 20
17.0
 30
0.0
  9
$EXTMIN
 10
0.0
 20
0.0
 30
0.0
  9
$LIMMIN
 10
0.0
 20
0.0
  9
$LIMMAX
 10
22.0
 20
17.0
  9
$VIEWCTR
 10
11.0
 20
8.5
  9
$VIEWSIZE
 40
17.0
  9
$CLAYER
  8
0
  9
$LTSCALE
 40
1.21
  9
$CELTYPE
  6
BYLAYER
  9
$DIMSCALE
 40
1.0
  9
$DIMASZ
 40
0.1
  9
$DIMEXO
 40
0.0625
  9
$DIMDLI
 40
0.836
  9
$DIMEXE
 40
0.125
  9
$DIMCEN
 40
0.198
  9
$DIMLFAC
 40
1.0
  9
$DIMBLK
  1
_FILLED
  9
$DIMALT
 70
1
  9
$DIMALTD
 70
2
  9
$DIMALTTD
 70
2
  9
$DIMALTF
 40
25.4
  9
$DIMTXT
 40
0.08
  9
$DIMTOL
 70
1
  9
$DIMLIM
 70
0
  9
$DIMTFAC
 40
1.0
  9
$DIMTP
 40
0.001
  9
$DIMTM
 40
0.001
  9
$DIMGAP
 40
0.09
  9
$DIMDSEP
 70
46
  9
$AUNITS
 70
0
  9
$PDMODE
 70
3
  9
$PDSIZE
 40
0.06
  9
$HANDSEED
  5
303
  9
$TILEMODE
 70
1
  9
$MEASUREMENT
 70
0
  9
$INSUNITS
 70
1
  0
ENDSEC
  0
SECTION
  2
CLASSES
  0
CLASS
  1
ACDBDICTIONARYWDFLT
  2
AcDbDictionaryWithDefault
  3
AutoCAD 2000
 90
0
 91
1
280
0
281
0
  0
CLASS
  1
ACDBPLACEHOLDER
  2
AcDbPlaceHolder
  3
AutoCAD 2000
 90
0
 91
1
280
0
281
0
  0
CLASS
  1
LAYOUT
  2
AcDbLayout
  3
AutoCAD 2000
 90
0
 91
0
280
0
281
0
  0
ENDSEC
  0
SECTION
  2
TABLES
  0
TABLE
  2
VPORT
  5
8
100
AcDbSymbolTable
 70
2
  0
VPORT
  5
1F4
100
AcDbSymbolTableRecord
100
AcDbViewportTableRecord
  2
*ACTIVE
 70
0
 10
0.0
 20
0.0
 11
1.0
 21
1.0
 12
11.0
 22
8.5
 13
0.0
 23
0.0
 14
1.0
 24
1.0
 15
0.0
 25
0.0
 16
0.0
 26
0.0
 36
1.0
 17
0.0
 27
0.0
 37
0.0
 40
17.0
 41
1.2941176471
 42
50.0
 43
0.0
 44
0.0
 50
0.0
 51
0.0
 71
0
 72
100
 73
1
 74
1
 75
0
 76
0
 77
0
 78
0
  0
ENDTAB
  0
TABLE
  2
LTYPE
  5
5
100
AcDbSymbolTable
 70
6
  0
LTYPE
  5
14
100
AcDbSymbolTableRecord
100
AcDbLinetypeTableRecord
  2
BYBLOCK
 70
0
  3

 72
65
 73
0
 40
0.0
  0
LTYPE
  5
15
100
AcDbSymbolTableRecord
100
AcDbLinetypeTableRecord
  2
BYLAYER
 70
0
  3

 72
65
 73
0
 40
0.0
  0
LTYPE
  5
16
100
AcDbSymbolTableRecord
100
AcDbLinetypeTableRecord
  2
CONTINUOUS
 70
64
  3
Solid line
 72
65
 73
0
 40
0.0
  0
LTYPE
  5
1F5
100
AcDbSymbolTableRecord
100
AcDbLinetypeTableRecord
  2
CENTER
 70
64
  3
____ _ ____ _ ____ _ ____ _ ____ _ ____ _ ____
 72
65
 73
4
 40
0.6
 49
0.375
 74
0
 49
-0.075
 74
0
 49
0.075
 74
0
 49
-0.075
 74
0
  0
LTYPE
  5
1F6
100
AcDbSymbolTableRecord
100
AcDbLinetypeTableRecord
  2
HIDDEN
 70
64
  3
- - - - - - - - - - - - - - - - - - - -
 72
65
 73
2
 40
0.2
 49
0.1
 74
0
 49
-0.1
 74
0
  0
LTYPE
  5
1F7
100
AcDbSymbolTableRecord
100
AcDbLinetypeTableRecord
  2
PHANTOM
 70
64
  3
_____ _ _ _____ _ _ _____ _ _ _____
 72
65
 73
6
 40
0.8
 49
0.45
 74
0
 49
-0.05
 74
0
 49
0.1
 74
0
 49
-0.05
 74
0
 49
0.1
 74
0
 49
-0.05
 74
0
  0
LTYPE
  5
1F8
100
AcDbSymbolTableRecord
100
AcDbLinetypeTableRecord
  2
DOT
 70
64
  3
. . . . . . . . . . . . . . . . . . . .
 72
65
 73
2
 40
0.2
 49
0.1
 74
0
 49
-0.1
 74
0
  0
LTYPE
  5
1F9
100
AcDbSymbolTableRecord
100
AcDbLinetypeTableRecord
  2
DASHED
 70
64
  3
- - - - - - - - - - - - - - - - - - - -
 72
65
 73
2
 40
0.2
 49
0.1
 74
0
 49
-0.1
 74
0
  0
ENDTAB
  0
TABLE
  2
LAYER
  5
2
100
AcDbSymbolTable
 70
36
  0
LAYER
  5
10
100
AcDbSymbolTableRecord
100
AcDbLayerTableRecord
  2
0
 70
0
 62
7
  6
CONTINUOUS
370
-3
390
F
  0
LAYER
  5
1FA
100
AcDbSymbolTableRecord
100
AcDbLayerTableRecord
  2
DEFAULT_1
 70
0
 62
7
  6
CENTER
370
-3
390
F
  0
LAYER
  5
1FB
100
AcDbSymbolTableRecord
100
AcDbLayerTableRecord
  2
DEFAULT_2
 70
0
 62
8
  6
HIDDEN
370
-3
390
F
  0
LAYER
  5
1FC
100
AcDbSymbolTableRecord
100
AcDbLayerTableRecord
  2
DEFAULT_3
 70
0
 62
7
  6
PHANTOM
370
-3
390
F
  0
LAYER
  5
1FD
100
AcDbSymbolTableRecord
100
AcDbLayerTableRecord
  2
ALL_FEATURES
 70
0
 62
7
  6
CONTINUOUS
370
-3
390
F
  0
LAYER
  5
1FE
100
AcDbSymbolTableRecord
100
AcDbLayerTableRecord
  2
AXES_FEATURES
 70
0
 62
7
  6
CONTINUOUS
370
-3
390
F
  0
LAYER
  5
1FF
100
AcDbSymbolTableRecord
100
AcDbLayerTableRecord
  2
DEFAULT_COORDINATE_SYSTEM
 70
0
 62
7
  6
CONTINUOUS
370
-3
390
F
  0
LAYER
  5
200
100
AcDbSymbolTableRecord
100
AcDbLayerTableRecord
  2
DEFAULT_DATUM_AXES
 70
0
 62
7
  6
CONTINUOUS
370
-3
390
F
  0
LAYER
  5
201
100
AcDbSymbolTableRecord
100
AcDbLayerTableRecord
  2
DEFAULT_DATUM_PLANES
 70
0
 62
7
  6
CONTINUOUS
370
-3
390
F
  0
LAYER
  5
202
100
AcDbSymbolTableRecord
100
AcDbLayerTableRecord
  2
DIMENSIONS
 70
0
 62
7
  6
CONTINUOUS
370
-3
390
F
  0
ENDTAB
  0
TABLE
  2
STYLE
  5
3
100
AcDbSymbolTable
 70
1
  0
STYLE
  5
11
100
AcDbSymbolTableRecord
100
AcDbTextStyleTableRecord
  2
STANDARD
 70
0
 40
0.0
 41
0.8
 50
0.0
 71
0
 42
0.2
  3
txt
  4

  0
STYLE
  5
203
100
AcDbSymbolTableRecord
100
AcDbTextStyleTableRecord
  2
TEXTSTYLE_1
 70
0
 40
0.0
 41
0.8
 50
0.0
 71
0
 42
0.2
  3
gdt
  4

  0
ENDTAB
  0
TABLE
  2
VIEW
  5
6
100
AcDbSymbolTable
 70
0
  0
ENDTAB
  0
TABLE
  2
UCS
  5
7
100
AcDbSymbolTable
 70
0
  0
ENDTAB
  0
TABLE
  2
APPID
  5
9
100
AcDbSymbolTable
 70
1
  0
APPID
  5
204
100
AcDbSymbolTableRecord
100
AcDbRegAppTableRecord
  2
ACAD
 70
0
  0
ENDTAB
  0
TABLE
  2
BLOCK_RECORD
  5
1
100
AcDbSymbolTable
 70
0
  0
BLOCK_RECORD
  5
205
100
AcDbSymbolTableRecord
100
AcDbBlockTableRecord
  2
*Model_Space
  0
BLOCK_RECORD
  5
206
100
AcDbSymbolTableRecord
100
AcDbBlockTableRecord
  2
*Paper_Space
  0
BLOCK_RECORD
  5
207
100
AcDbSymbolTableRecord
100
AcDbBlockTableRecord
  2
_FILLED
  0
ENDTAB
  0
TABLE
  2
DIMSTYLE
  5
A
100
AcDbSymbolTable
 70
1
100
AcDbDimStyleTable
 71
0
  0
DIMSTYLE
105
208
100
AcDbSymbolTableRecord
100
AcDbDimStyleTableRecord
  2
STANDARD
 70
0
  3

  4

 40
1.0
 41
0.1
 42
0.0625
 43
0.38
 44
0.125
 45
0.0
 46
0.0
 47
0.001
 48
0.001
140
0.08
141
0.09
142
0.0
143
25.4
144
1.0
145
0.0
146
1.0
147
0.09
 71
1.0
 72
0.0
 73
1
 74
1
 75
0
 76
0
 77
0
 78
4
 79
1
170
1
171
2
172
0
173
0
174
0
175
0
176
0
177
0
178
0
270
2
179
3
271
3
272
3
273
2
274
2
275
0
280
0
281
0
282
0
283
1
284
4
285
0
286
0
287
3
288
0
340
11
278
46
341
207
342
207
343
207
344
207
  0
ENDTAB
  0
ENDSEC
  0
SECTION
  2
BLOCKS
  0
BLOCK
  5
20
100
AcDbEntity
  8
0
100
AcDbBlockBegin
  2
*Model_Space
 70
0
 10
0.0
 20
0.0
 30
0.0
  3
*Model_Space
  1

  0
ENDBLK
  5
21
100
AcDbEntity
  8
0
100
AcDbBlockEnd
  0
BLOCK
  5
1C
100
AcDbEntity
  8
0
100
AcDbBlockBegin
  2
*Paper_Space
 70
0
 10
0.0
 20
0.0
 30
0.0
  3
*Paper_Space
  1

  0
ENDBLK
  5
1D
100
AcDbEntity
  8
0
100
AcDbBlockEnd
  0
BLOCK
  5
209
100
AcDbEntity
  8
0
100
AcDbBlockBegin
  2
_FILLED
 70
64
 10
0.0
 20
0.0
  3
_FILLED
  1

  0
SOLID
  5
20A
100
AcDbEntity
  8
0
  6
BYBLOCK
 62
0
100
AcDbTrace
 10
0.0
 20
0.0
 11
-1.0
 21
0.2
 12
-1.0
 22
-0.2
 13
-1.0
 23
-0.2
  0
ENDBLK
  5
20B
100
AcDbEntity
  8
0
  6
BYBLOCK
 62
0
100
AcDbBlockEnd
  0
ENDSEC
  0
SECTION
  2
ENTITIES
  0
LINE
  5
20C
100
AcDbEntity
  8
0
100
AcDbLine
 62
7
  6
CONTINUOUS
 10
16.1613185426
 20
0.1118598125
 11
13.6613185426
 21
0.1118598125
  0
LINE
  5
20D
100
AcDbEntity
  8
0
100
AcDbLine
 62
7
  6
CONTINUOUS
 10
13.9756088819
 20
0.6688598125
 11
15.8469187407
 21
0.6688598125
  0
LINE
  5
20E
100
AcDbEntity
  8
0
100
AcDbLine
 62
7
  6
CONTINUOUS
 10
5.7565697405
 20
10.2050128629
 11
5.7589317359
 21
10.241538321
  0
LINE
  5
20F
100
AcDbEntity
  8
0
100
AcDbLine
 62
7
  6
CONTINUOUS
 10
5.784279198
 20
10.2376596143
 11
5.7819172026
 21
10.2011341562
  0
LINE
  5
210
100
AcDbEntity
  8
0
100
AcDbLine
 62
7
  6
CONTINUOUS
 10
5.8572643063
 20
10.2264913233
 11
5.8549023109
 21
10.1899658652
  0
LINE
  5
211
100
AcDbEntity
  8
0
100
AcDbLine
 62
7
  6
CONTINUOUS
 10
5.9690839796
 20
10.2093805088
 11
5.9667219841
 21
10.1728550507
  0
LINE
  5
212
100
AcDbEntity
  8
0
100
AcDbLine
 62
7
  6
CONTINUOUS
 10
5.6285942577
 20
10.2734312623
 11
5.6291016365
 21
10.2767469977
  0
LINE
  5
213
100
AcDbEntity
  8
0
100
AcDbLine
 62
7
  6
CONTINUOUS
 10
6.2378770271
 20
13.9630784801
 11
6.1811542195
 21
13.5923932725
  0
LINE
  5
214
100
AcDbEntity
  8
0
100
AcDbLine
 62
7
  6
CONTINUOUS
 10
6.1852806501
 20
13.5664708388
 11
6.1890621706
 21
13.5911831859
  0
LINE
  5
215
100
AcDbEntity
  8
0
100
AcDbLine
 62
7
  6
CONTINUOUS
 10
5.9666202483
 20
10.2097575127
 11
5.9579515577
 21
10.1741971146
  0
LINE
  5
216
100
AcDbEntity
  8
0
100
AcDbLine
 62
7
  6
CONTINUOUS
 10
6.0784399216
 20
10.1926466982
 11
6.0697712309
 21
10.1570863001
  0
LINE
  5
217
100
AcDbEntity
  8
0
100
AcDbLine
 62
7
  6
CONTINUOUS
 10
6.1062511149
 20
10.1883909876
 11
6.1038891195
 21
10.1518655295
  0
LINE
  5
218
100
AcDbEntity
  8
0
100
AcDbLine
 62
7
  6
CONTINUOUS
 10
6.2522213315
 20
10.1660544057
 11
6.2498593361
 21
10.1295289476
  0
LINE
  5
219
100
AcDbEntity
  8
0
100
AcDbLine
 62
7
  6
CONTINUOUS
 10
6.3893884669
 20
10.1450648845
 11
6.3870264714
 21
10.1085394264
  0
LINE
  5
21A
100
AcDbEntity
  8
0
100
AcDbLine
 62
7
  6
CONTINUOUS
 10
6.5012081401
 20
10.12795407
 11
6.4988461447
 21
10.0914286119
  0
LINE
  5
21B
100
AcDbEntity
  8
0
100
AcDbLine
 62
7
  6
CONTINUOUS
 10
6.2156070569
 20
10.171657177
 11
6.2069383663
 21
10.1360967789
  0
LINE
  5
21C
100
AcDbEntity
  8
0
100
AcDbLine
 62
7
  6
CONTINUOUS
 10
6.3615772735
 20
10.1493205951
 11
6.3529085829
 21
10.113760197
  0
LINE
  5
21D
100
AcDbEntity
  8
0
100
AcDbLine
 62
7
  6
CONTINUOUS
 10
6.4987444089
 20
10.1283310739
 11
6.4900757182
 21
10.0927706758
  0
LINE
  5
21E
100
AcDbEntity
  8
0
100
AcDbLine
 62
7
  6
CONTINUOUS
 10
6.6105640822
 20
10.1112202594
 11
6.6018953915
 21
10.0756598613
  0
LINE
  5
21F
100
AcDbEntity
  8
0
100
AcDbLine
 62
7
  6
CONTINUOUS
 10
6.6835491904
 20
10.1000519684
 11
6.6748804998
 21
10.0644915703
  0
LINE
  5
220
100
AcDbEntity
  8
0
100
AcDbLine
 62
7
  6
CONTINUOUS
 10
6.7002279619
 20
10.0606128636
 11
6.7088966525
 21
10.0961732617
  0
LWPOLYLINE
  5
221
100
AcDbEntity
  8
0
100
AcDbPolyline
 62
7
  6
CONTINUOUS
 90
8
 70
0
 10
7.202497458
 20
10.8268581327
 10
7.2024597671
 20
10.8421945799
 10
7.203885377
 20
10.8599028633
 10
7.2068770339
 20
10.8774149482
 10
7.2114109177
 20
10.8945918024
 10
7.2174507393
 20
10.9112971184
 10
7.2249480541
 20
10.9273984691
 10
7.2338427491
 20
10.9427685183
  0
LINE
  5
222
100
AcDbEntity
  8
0
100
AcDbLine
 62
7
  6
CONTINUOUS
 10
7.3001292994
 20
13.421166024
 11
7.2963477789
 21
13.3964536768
  0
LINE
  5
223
100
AcDbEntity
  8
0
100
AcDbLine
 62
7
  6
CONTINUOUS
 10
7.3647600581
 20
13.790641145
 11
7.3080372505
 21
13.4199559374
  0
LINE
  5
224
100
AcDbEntity
  8
0
100
AcDbLine
 62
7
  6
CONTINUOUS
 10
6.842807221
 20
10.0876305697
 11
6.8433145998
 21
10.0909463051
  0
LINE
  5
225
100
AcDbEntity
  8
0
100
AcDbLine
 62
7
  6
CONTINUOUS
 10
7.2338427491
 20
10.9427685183
 11
7.2424825658
 21
10.9552119368
  0
LINE
  5
226
100
AcDbEntity
  8
0
100
AcDbLine
 62
7
  6
CONTINUOUS
 10
7.2417677138
 20
10.9543039172
 11
7.241099954
 21
10.9534819257
  0
LINE
  5
227
100
AcDbEntity
  8
0
100
AcDbLine
 62
7
  6
CONTINUOUS
 10
7.4745720217
 20
11.2195963184
 11
7.470178454
 21
11.2151606567
  0
LINE
  5
228
100
AcDbEntity
  8
0
100
AcDbLine
 62
9
  6
CONTINUOUS
 10
7.4119823049
 20
11.1429461614
 11
7.4073621956
 21
12.1120161093
  0
LINE
  5
229
100
AcDbEntity
  8
0
100
AcDbLine
 62
7
  6
CONTINUOUS
 10
7.4704940979
 20
11.1489542102
 11
7.4659285772
 21
12.1065741946
  0
LINE
  5
22A
100
AcDbEntity
  8
0
100
AcDbLine
 62
9
  6
CONTINUOUS
 10
7.4740510232
 20
11.3288759829
 11
7.4745720217
 21
11.2195963184
  0
LINE
  5
22B
100
AcDbEntity
  8
0
100
AcDbLine
 62
7
  6
CONTINUOUS
 10
7.4779921323
 20
11.2278352228
 11
7.4775495357
 21
11.3206700635
  0
LWPOLYLINE
  5
22C
100
AcDbEntity
  8
0
100
AcDbPolyline
 62
7
  6
CONTINUOUS
 90
29
 70
0
 10
14.6659997417
 20
6.205904291
 10
14.6630506984
 20
6.2057601041
 10
14.6603863854
 20
6.2056152161
 10
14.6579816707
 20
6.2054696725
 10
14.655808782
 20
6.205323319
 10
14.6538411869
 20
6.2051758682
 10
14.6520501592
 20
6.2050264992
 10
14.6504109421
 20
6.2048740757
 10
14.6489018616
 20
6.2047172646
 10
14.6475005619
 20
6.204554164
 10
14.6461791842
 20
6.2043813676
 10
14.6449090579
 20
6.2041939613
 10
14.6436599083
 20
6.2039849579
 10
14.642396463
 20
6.2037438184
 10
14.6410711133
 20
6.2034530126
 10
14.6396342903
 20
6.2030869932
 10
14.6380301696
 20
6.2026071804
 10
14.6361958543
 20
6.2019546411
 10
14.6340945169
 20
6.2010536201
 10
14.6317488281
 20
6.1998271649
 10
14.6292519166
 20
6.1982222469
 10
14.6267059281
 20
6.1961969321
 10
14.6241819902
 20
6.1936832181
 10
14.6217697547
 20
6.1906042283
 10
14.6196283254
 20
6.1869506228
 10
14.6179477396
 20
6.1828190883
 10
14.6168743975
 20
6.1783677457
 10
14.6164862724
 20
6.1737798319
 10
14.6164995272
 20
6.1726094809
  0
LINE
  5
22D
100
AcDbEntity
  8
0
100
AcDbLine
 62
7
  6
CONTINUOUS
 10
14.6728467561
 20
6.2061906292
 11
14.6659997417
 21
6.205904291
  0
LINE
  5
22E
100
AcDbEntity
  8
0
100
AcDbLine
 62
7
  6
CONTINUOUS
 10
14.6811141826
 20
6.2064736767
 11
14.6728467561
 21
6.2061906292
  0
LINE
  5
22F
100
AcDbEntity
  8
0
100
AcDbLine
 62
7
  6
CONTINUOUS
 10
14.6909370835
 20
6.2067517606
 11
14.6811141826
 21
6.2064736767
  0
LINE
  5
230
100
AcDbEntity
  8
0
100
AcDbLine
 62
7
  6
CONTINUOUS
 10
14.7088889491
 20
6.20715615
 11
14.6909370835
 21
6.2067517606
  0
LINE
  5
231
100
AcDbEntity
  8
0
100
AcDbLine
 62
7
  6
CONTINUOUS
 10
14.731081022
 20
6.2075388207
 11
14.7088889491
 21
6.20715615
  0
LINE
  5
232
100
AcDbEntity
  8
0
100
AcDbLine
 62
7
  6
CONTINUOUS
 10
14.7676478862
 20
6.2079985118
 11
14.731081022
 21
6.2075388207
  0
LINE
  5
233
100
AcDbEntity
  8
0
100
AcDbLine
 62
7
  6
CONTINUOUS
 10
14.8244738108
 20
6.2084483406
 11
14.7676478862
 21
6.2079985118
  0
LINE
  5
234
100
AcDbEntity
  8
0
100
AcDbLine
 62
7
  6
CONTINUOUS
 10
14.8799556053
 20
6.208660136
 11
14.8244738108
 21
6.2084483406
  0
LINE
  5
235
100
AcDbEntity
  8
0
100
AcDbLine
 62
9
  6
CONTINUOUS
 10
14.656752072
 20
6.1750548446
 11
15.1658856504
 21
6.1750548446
  0
LINE
  5
236
100
AcDbEntity
  8
0
100
AcDbLine
 62
9
  6
CONTINUOUS
 10
14.656752072
 20
6.2013948871
 11
15.1658856504
 21
6.2013948871
  0
LINE
  5
237
100
AcDbEntity
  8
0
100
AcDbLine
 62
7
  6
CONTINUOUS
 10
14.9429391983
 20
6.20865958
 11
14.8799556053
 21
6.208660136
  0
LINE
  5
238
100
AcDbEntity
  8
0
100
AcDbLine
 62
7
  6
CONTINUOUS
 10
15.0032098886
 20
6.2084183951
 11
14.9429391983
 21
6.20865958
  0
LINE
  5
239
100
AcDbEntity
  8
0
100
AcDbLine
 62
7
  6
CONTINUOUS
 10
15.0649836882
 20
6.2078886887
 11
15.0032098886
 21
6.2084183951
  0
LINE
  5
23A
100
AcDbEntity
  8
0
100
AcDbLine
 62
7
  6
CONTINUOUS
 10
15.1022171126
 20
6.2073674307
 11
15.0649836882
 21
6.2078886887
  0
LWPOLYLINE
  5
23B
100
AcDbEntity
  8
0
100
AcDbPolyline
 62
7
  6
CONTINUOUS
 90
3
 70
0
 10
15.1292726583
 20
6.2068129029
 10
15.1234076474
 20
6.2069518369
 10
15.1022171126
 20
6.2073674307
  0
LWPOLYLINE
  5
23C
100
AcDbEntity
  8
0
100
AcDbPolyline
 62
7
  6
CONTINUOUS
 90
14
 70
0
 10
15.300760837
 20
3.7682666554
 10
15.2848594752
 20
3.7748737396
 10
15.2675653182
 20
3.7837405256
 10
15.2509675525
 20
3.7941001196
 10
15.2351550913
 20
3.8059262673
 10
15.2202160879
 20
3.8191873886
 10
15.2062414631
 20
3.8338472523
 10
15.1933295032
 20
3.8498709375
 10
15.1815697102
 20
3.8672174307
 10
15.171069438
 20
3.8858309042
 10
15.1619508783
 20
3.9056051219
 10
15.1543286603
 20
3.9264026678
 10
15.1483066728
 20
3.9480728627
 10
15.1439703958
 20
3.9704593519
  0
LINE
  5
23D
100
AcDbEntity
  8
0
100
AcDbLine
 62
7
  6
CONTINUOUS
 10
15.1394873821
 20
6.2065355561
 11
15.1292726583
 21
6.2068129029
  0
LINE
  5
23E
100
AcDbEntity
  8
0
100
AcDbLine
 62
7
  6
CONTINUOUS
 10
15.1479871078
 20
6.2062575379
 11
15.1394873821
 21
6.2065355561
  0
LWPOLYLINE
  5
23F
100
AcDbEntity
  8
0
100
AcDbPolyline
 62
7
  6
CONTINUOUS
 90
8
 70
0
 10
15.169381607
 20
6.2051297586
 10
15.1675330088
 20
6.2052731052
 10
15.1655003496
 20
6.2054151715
 10
15.1632588779
 20
6.2055564318
 10
15.1607828312
 20
6.2056971879
 10
15.1580460408
 20
6.2058376075
 10
15.1550205972
 20
6.2059778084
 10
15.1479871078
 20
6.2062575379
  0
LWPOLYLINE
  5
240
100
AcDbEntity
  8
0
100
AcDbPolyline
 62
7
  6
CONTINUOUS
 90
5
 70
0
 10
15.1753648482
 20
6.2045272992
 10
15.1740422035
 20
6.2046845204
 10
15.172616593
 20
6.2048364333
 10
15.1710691535
 20
6.2049844992
 10
15.169381607
 20
6.2051297586
  0
LINE
  5
241
100
AcDbEntity
  8
0
100
AcDbLine
 62
7
  6
CONTINUOUS
 10
14.1947513582
 20
1.8902850397
 11
14.2288960209
 21
1.854648599
  0
LINE
  5
242
100
AcDbEntity
  8
0
100
AcDbLine
 62
7
  6
CONTINUOUS
 10
14.3488198593
 20
7.8818598125
 11
15.473817225
 21
7.8818598125
  0
LINE
  5
243
100
AcDbEntity
  8
0
100
AcDbLine
 62
7
  6
CONTINUOUS
 10
14.3413185426
 20
7.9018598125
 11
15.4813185426
 21
7.9018598125
  0
LINE
  5
244
100
AcDbEntity
  8
0
100
AcDbLine
 62
7
  6
CONTINUOUS
 10
7.4696153615
 20
11.3332695506
 11
7.4740510232
 21
11.3288759829
  0
LINE
  5
245
100
AcDbEntity
  8
0
100
AcDbLine
 62
7
  6
CONTINUOUS
 10
6.1936729429
 20
10.1272195503
 11
6.113892868
 21
10.1394276172
  0
LINE
  5
246
100
AcDbEntity
  8
0
100
AcDbLine
 62
7
  6
CONTINUOUS
 10
6.0564747025
 20
10.1482138312
 11
5.9767568377
 21
10.1604123787
  0
LINE
  5
247
100
AcDbEntity
  8
0
100
AcDbLine
 62
7
  6
CONTINUOUS
 10
5.7665696003
 20
10.1925755457
 11
5.9446897722
 21
10.1653193293
  0
LINE
  5
248
100
AcDbEntity
  8
0
100
AcDbLine
 62
7
  6
CONTINUOUS
 10
6.2598594139
 20
10.117091597
 11
6.3396468302
 21
10.1048824066
  0
LINE
  5
249
100
AcDbEntity
  8
0
100
AcDbLine
 62
7
  6
CONTINUOUS
 10
6.3970263313
 20
10.0961021091
 11
6.4768141835
 21
10.083892852
  0
LINE
  5
24A
100
AcDbEntity
  8
0
100
AcDbLine
 62
7
  6
CONTINUOUS
 10
6.5088462556
 20
10.0789912562
 11
6.6869664272
 21
10.0517350399
  0
LINE
  5
24B
100
AcDbEntity
  8
0
100
AcDbLine
 62
9
  6
CONTINUOUS
 10
5.7565697405
 20
10.2050128629
 11
5.9579515577
 21
10.1741971146
  0
LINE
  5
24C
100
AcDbEntity
  8
0
100
AcDbLine
 62
9
  6
CONTINUOUS
 10
5.9667219841
 20
10.1728550507
 11
6.0697712309
 21
10.1570863001
  0
LINE
  5
24D
100
AcDbEntity
  8
0
100
AcDbLine
 62
9
  6
CONTINUOUS
 10
6.1038891195
 20
10.1518655295
 11
6.2069383663
 21
10.1360967789
  0
LINE
  5
24E
100
AcDbEntity
  8
0
100
AcDbLine
 62
9
  6
CONTINUOUS
 10
6.2498593361
 20
10.1295289476
 11
6.3529085829
 21
10.113760197
  0
LINE
  5
24F
100
AcDbEntity
  8
0
100
AcDbLine
 62
9
  6
CONTINUOUS
 10
6.3870264714
 20
10.1085394264
 11
6.4900757182
 21
10.0927706758
  0
LINE
  5
250
100
AcDbEntity
  8
0
100
AcDbLine
 62
9
  6
CONTINUOUS
 10
6.4988461447
 20
10.0914286119
 11
6.7002279619
 21
10.0606128636
  0
LINE
  5
251
100
AcDbEntity
  8
0
100
AcDbLine
 62
7
  6
CONTINUOUS
 10
6.3893622642
 20
10.1448936493
 11
6.3615510709
 21
10.1491493599
  0
LINE
  5
252
100
AcDbEntity
  8
0
100
AcDbLine
 62
7
  6
CONTINUOUS
 10
6.2521951288
 20
10.1658831705
 11
6.2155808543
 21
10.1714859419
  0
LINE
  5
253
100
AcDbEntity
  8
0
100
AcDbLine
 62
7
  6
CONTINUOUS
 10
6.1062249123
 20
10.1882197525
 11
6.0784137189
 21
10.1924754631
  0
LINE
  5
254
100
AcDbEntity
  8
0
100
AcDbLine
 62
7
  6
CONTINUOUS
 10
5.6384828372
 20
10.2599695925
 11
6.8293455512
 21
10.0777419902
  0
LINE
  5
255
100
AcDbEntity
  8
0
100
AcDbLine
 62
9
  6
CONTINUOUS
 10
5.6285942577
 20
10.2734312623
 11
6.842807221
 21
10.0876305697
  0
LINE
  5
256
100
AcDbEntity
  8
0
100
AcDbLine
 62
7
  6
CONTINUOUS
 10
6.8981384826
 20
10.0825570722
 11
5.574278062
 21
10.2851361835
  0
LINE
  5
257
100
AcDbEntity
  8
0
100
AcDbLine
 62
9
  6
CONTINUOUS
 10
7.2327178093
 20
10.1197224388
 11
5.2661226278
 21
10.4206537892
  0
LINE
  5
258
100
AcDbEntity
  8
0
100
AcDbLine
 62
9
  6
CONTINUOUS
 10
7.2453575327
 20
10.1400210697
 11
5.2601314126
 21
10.4438033544
  0
LINE
  5
259
100
AcDbEntity
  8
0
100
AcDbLine
 62
7
  6
CONTINUOUS
 10
7.3163576945
 20
12.3124504227
 11
7.3161596719
 21
12.3125718102
  0
LWPOLYLINE
  5
25A
100
AcDbEntity
  8
0
100
AcDbPolyline
 62
7
  6
CONTINUOUS
 90
14
 70
0
 10
7.3161596719
 20
12.3125718102
 10
7.3022399455
 20
12.3219746638
 10
7.2891486986
 20
12.3325209081
 10
7.2769800373
 20
12.3441389932
 10
7.2658251924
 20
12.3567457302
 10
7.2557669297
 20
12.3702503306
 10
7.2468793363
 20
12.3845548845
 10
7.2392270953
 20
12.3995555186
 10
7.2328643607
 20
12.4151454127
 10
7.2278357701
 20
12.431214453
 10
7.2241766653
 20
12.4476492202
 10
7.221912855
 20
12.4643337605
 10
7.2210604392
 20
12.4811503733
 10
7.2214566786
 20
12.495556232
  0
LINE
  5
25B
100
AcDbEntity
  8
0
100
AcDbLine
 62
7
  6
CONTINUOUS
 10
7.2427989755
 20
11.0483039673
 11
7.3733981578
 21
11.0500664032
  0
LINE
  5
25C
100
AcDbEntity
  8
0
100
AcDbLine
 62
7
  6
CONTINUOUS
 10
7.3841324165
 20
12.2031189532
 11
7.322700367
 21
12.213649347
  0
LWPOLYLINE
  5
25D
100
AcDbEntity
  8
0
100
AcDbPolyline
 62
7
  6
CONTINUOUS
 90
15
 70
0
 10
13.8031604856
 20
2.7373872201
 10
13.8049657578
 20
2.675947875
 10
13.8105030752
 20
2.6123925824
 10
13.8197408772
 20
2.5491863339
 10
13.8326536133
 20
2.486549579
 10
13.8492123228
 20
2.4247141301
 10
13.8693794903
 20
2.363901563
 10
13.8930892655
 20
2.3043418355
 10
13.9202670517
 20
2.2462628292
 10
13.950827489
 20
2.1898526291
 10
13.9846554151
 20
2.1352696177
 10
14.021636768
 20
2.0826732284
 10
14.061664482
 20
2.0322469761
 10
14.1046137862
 20
1.9842092027
 10
14.1947513582
 20
1.8902850397
  0
LINE
  5
25E
100
AcDbEntity
  8
0
100
AcDbLine
 62
9
  6
CONTINUOUS
 10
7.4665202299
 20
11.982474771
 11
7.4743941562
 21
11.9825123105
  0
LINE
  5
25F
100
AcDbEntity
  8
0
100
AcDbLine
 62
7
  6
CONTINUOUS
 10
15.1423303421
 20
3.9830159786
 11
15.1423658411
 21
3.9826907263
  0
LINE
  5
260
100
AcDbEntity
  8
0
100
AcDbLine
 62
7
  6
CONTINUOUS
 10
15.1423371569
 20
3.9829661507
 11
15.1423001865
 21
3.983321123
  0
LWPOLYLINE
  5
261
100
AcDbEntity
  8
0
100
AcDbPolyline
 62
7
  6
CONTINUOUS
 90
3
 70
0
 10
15.1423001865
 20
3.983321123
 10
15.1420204477
 20
3.9878197395
 10
15.1420227683
 20
3.9922546196
  0
LWPOLYLINE
  5
262
100
AcDbEntity
  8
0
100
AcDbPolyline
 62
7
  6
CONTINUOUS
 90
3
 70
0
 10
14.6164995481
 20
6.1726095574
 10
14.6394632988
 20
5.4187699024
 10
14.6622658369
 20
4.6540171763
  0
LINE
  5
263
100
AcDbEntity
  8
0
100
AcDbLine
 62
7
  6
CONTINUOUS
 10
14.6622658369
 20
4.6540171763
 11
14.681375736
 21
3.9954303369
  0
LWPOLYLINE
  5
264
100
AcDbEntity
  8
0
100
AcDbPolyline
 62
7
  6
CONTINUOUS
 90
4
 70
0
 10
14.6813752807
 20
3.9954461927
 10
14.681394526
 20
3.9919994729
 10
14.6812038563
 20
3.9880265538
 10
14.6811500831
 20
3.987387192
  0
LINE
  5
265
100
AcDbEntity
  8
0
100
AcDbLine
 62
7
  6
CONTINUOUS
 10
14.3413185426
 20
7.9018598125
 11
14.3413185426
 21
13.2599480582
  0
LINE
  5
266
100
AcDbEntity
  8
0
100
AcDbLine
 62
7
  6
CONTINUOUS
 10
14.3513185426
 20
7.9018598125
 11
14.3513185426
 21
7.8818598125
  0
LINE
  5
267
100
AcDbEntity
  8
0
100
AcDbLine
 62
9
  6
CONTINUOUS
 10
14.656752072
 20
6.1750548446
 11
14.656752072
 21
6.2013948871
  0
LINE
  5
268
100
AcDbEntity
  8
0
100
AcDbLine
 62
9
  6
CONTINUOUS
 10
14.9113185426
 20
0.6688598125
 11
14.9113185426
 21
1.4998546015
  0
LWPOLYLINE
  5
269
100
AcDbEntity
  8
0
100
AcDbPolyline
 62
7
  6
CONTINUOUS
 90
16
 70
0
 10
13.9687268749
 20
1.9666888004
 10
13.9655749747
 20
1.929336684
 10
13.9623951576
 20
1.892744439
 10
13.9592410351
 20
1.8578232167
 10
13.9561629789
 20
1.8252719004
 10
13.9530384951
 20
1.7937908465
 10
13.9498149676
 20
1.762758044
 10
13.9464828242
 20
1.732021691
 10
13.9429473095
 20
1.7007014806
 10
13.9390914699
 20
1.6678510996
 10
13.9347751527
 20
1.632472637
 10
13.9299301716
 20
1.5942723159
 10
13.9245303869
 20
1.5533196461
 10
13.9185506904
 20
1.5096731773
 10
13.9119786069
 20
1.4634598855
 10
13.9048455037
 20
1.4150416965
  0
LWPOLYLINE
  5
26A
100
AcDbEntity
  8
0
100
AcDbPolyline
 62
7
  6
CONTINUOUS
 90
3
 70
0
 10
13.9828933514
 20
2.1381127936
 10
13.9811373832
 20
2.1173493122
 10
13.9687268749
 20
1.9666888004
  0
LINE
  5
26B
100
AcDbEntity
  8
0
100
AcDbLine
 62
9
  6
CONTINUOUS
 10
14.3413185426
 20
13.2599480582
 11
15.4813185426
 21
13.2599480582
  0
LINE
  5
26C
100
AcDbEntity
  8
0
100
AcDbLine
 62
9
  6
CONTINUOUS
 10
7.2985473217
 20
13.3472975866
 11
6.1684820815
 21
13.5202218681
  0
LINE
  5
26D
100
AcDbEntity
  8
0
100
AcDbLine
 62
7
  6
CONTINUOUS
 10
7.2963477789
 20
13.3964536768
 11
6.1852806501
 21
13.5664708388
  0
LINE
  5
26E
100
AcDbEntity
  8
0
100
AcDbLine
 62
7
  6
CONTINUOUS
 10
7.3080372505
 20
13.4199559374
 11
6.1811542195
 21
13.5923932725
  0
LINE
  5
26F
100
AcDbEntity
  8
0
100
AcDbLine
 62
9
  6
CONTINUOUS
 10
7.3647600581
 20
13.790641145
 11
6.2378770271
 21
13.9630784801
  0
LWPOLYLINE
  5
270
100
AcDbEntity
  8
0
100
AcDbPolyline
 62
7
  6
CONTINUOUS
 90
17
 70
0
 10
15.9250774839
 20
1.3669033074
 10
15.9177939072
 20
1.4150262171
 10
15.9106625669
 20
1.4634316233
 10
15.9040917442
 20
1.5096347622
 10
15.8981127929
 20
1.5532741617
 10
15.8927133405
 20
1.594222446
 10
15.887868159
 20
1.6324223963
 10
15.8835511525
 20
1.6678046511
 10
15.879694814
 20
1.7006575618
 10
15.8761590639
 20
1.7319781653
 10
15.8728268556
 20
1.7627133329
 10
15.8696033169
 20
1.7937442789
 10
15.8664787904
 20
1.825223584
 10
15.86340094
 20
1.8577703369
 10
15.8602470264
 20
1.8926869584
 10
15.8570673254
 20
1.9292759323
 10
15.8539154655
 20
1.966626139
  0
LINE
  5
271
100
AcDbEntity
  8
0
100
AcDbLine
 62
7
  6
CONTINUOUS
 10
15.1439703958
 20
3.9704593519
 11
15.1423308608
 21
3.9830143639
  0
LWPOLYLINE
  5
272
100
AcDbEntity
  8
0
100
AcDbPolyline
 62
7
  6
CONTINUOUS
 90
4
 70
0
 10
15.8539154655
 20
1.966626139
 10
15.8476967383
 20
2.0421690589
 10
15.8445897729
 20
2.0800691437
 10
15.8397444732
 20
2.138104815
  0
LINE
  5
273
100
AcDbEntity
  8
0
100
AcDbLine
 62
9
  6
CONTINUOUS
 10
15.1658856504
 20
6.2013948871
 11
15.1658856504
 21
6.1750548446
  0
LINE
  5
274
100
AcDbEntity
  8
0
100
AcDbLine
 62
7
  6
CONTINUOUS
 10
15.4713185426
 20
7.9018598125
 11
15.4713185426
 21
7.8818598125
  0
LINE
  5
275
100
AcDbEntity
  8
0
100
AcDbLine
 62
7
  6
CONTINUOUS
 10
15.4813185426
 20
7.9018598125
 11
15.4813185426
 21
13.2599480582
  0
LWPOLYLINE
  5
276
100
AcDbEntity
  8
0
100
AcDbPolyline
 62
7
  6
CONTINUOUS
 90
20
 70
0
 10
15.2061488864
 20
6.1726209331
 10
15.2061618213
 20
6.1737796652
 10
15.2057738377
 20
6.1783675532
 10
15.204700662
 20
6.1828188224
 10
15.2030204018
 20
6.1869500227
 10
15.2008796712
 20
6.1906029442
 10
15.1984688727
 20
6.1936807609
 10
15.1959371261
 20
6.1962020208
 10
15.1933464534
 20
6.198258209
 10
15.1907714726
 20
6.1999011389
 10
15.1883780678
 20
6.2011362058
 10
15.1862809823
 20
6.2020211384
 10
15.1844796448
 20
6.202652243
 10
15.1829092746
 20
6.2031160431
 10
15.1815072149
 20
6.2034698347
 10
15.1802212436
 20
6.2037504194
 10
15.1790063822
 20
6.2039820665
 10
15.1778153101
 20
6.2041822292
 10
15.1766119493
 20
6.2043615986
 10
15.1753648482
 20
6.2045272992
  0
LWPOLYLINE
  5
277
100
AcDbEntity
  8
0
100
AcDbPolyline
 62
7
  6
CONTINUOUS
 90
4
 70
0
 10
15.1420226073
 20
3.9922483796
 10
15.1627275806
 20
4.7144838791
 10
15.18526847
 20
5.4792074376
 10
15.2061488641
 20
6.1726209966
  0
LINE
  5
278
100
AcDbEntity
  8
0
100
AcDbLine
 62
7
  6
CONTINUOUS
 10
14.6811500911
 20
3.9873872831
 11
14.6811519876
 21
3.9874085713
  0
LWPOLYLINE
  5
279
100
AcDbEntity
  8
0
100
AcDbPolyline
 62
7
  6
CONTINUOUS
 90
15
 70
0
 10
14.6811519759
 20
3.9874084724
 10
14.6804576639
 20
3.9805389273
 10
14.6768212571
 20
3.9571021638
 10
14.6713416583
 20
3.934400184
 10
14.6641107741
 20
3.9125952754
 10
14.655234194
 20
3.8918427893
 10
14.6448321549
 20
3.872286003
 10
14.633038416
 20
3.8540491978
 10
14.6199728055
 20
3.8372054902
 10
14.6057394237
 20
3.8218031973
 10
14.5904430062
 20
3.8078840175
 10
14.5741847541
 20
3.7954900882
 10
14.5570637294
 20
3.784657704
 10
14.5391757745
 20
3.7754196113
 10
14.5228055951
 20
3.7686135717
  0
LINE
  5
27A
100
AcDbEntity
  8
0
100
AcDbLine
 62
7
  6
CONTINUOUS
 10
13.9048455037
 20
1.4150416965
 11
13.8975282406
 21
1.3668995659
  0
LWPOLYLINE
  5
27B
100
AcDbEntity
  8
0
100
AcDbPolyline
 62
7
  6
CONTINUOUS
 90
22
 70
0
 10
16.0194766892
 20
2.7373872387
 10
16.017794061
 20
2.7987057163
 10
16.012403147
 20
2.8620796091
 10
16.003336809
 20
2.9250685903
 10
15.9906331172
 20
2.9874579703
 10
15.9743327106
 20
3.0490316029
 10
15.9544730522
 20
3.1095780641
 10
15.9310986926
 20
3.1688804155
 10
15.9042793183
 20
3.226722389
 10
15.874120023
 20
3.2829284701
 10
15.8407369364
 20
3.3373327332
 10
15.8042382559
 20
3.3897698268
 10
15.7647367833
 20
3.4400532097
 10
15.7223513985
 20
3.4879890231
 10
15.6772327388
 20
3.5333894964
 10
15.6295424714
 20
3.5760817251
 10
15.5794410842
 20
3.6159453095
 10
15.5270983637
 20
3.6528837672
 10
15.472676824
 20
3.6867902608
 10
15.4163275792
 20
3.7175404319
 10
15.3581978777
 20
3.7450097348
 10
15.3007542721
 20
3.7682492835
  0
LWPOLYLINE
  5
27C
100
AcDbEntity
  8
0
100
AcDbPolyline
 62
7
  6
CONTINUOUS
 90
22
 70
0
 10
14.5228125697
 20
3.7685950809
 10
14.465118729
 20
3.7453068328
 10
14.4069286345
 20
3.7178551974
 10
14.350519707
 20
3.6871166341
 10
14.2960395465
 20
3.6532159029
 10
14.2436395566
 20
3.6162776547
 10
14.1934825283
 20
3.576408985
 10
14.1457385608
 20
3.5337065155
 10
14.1005685882
 20
3.4882906782
 10
14.0581348244
 20
3.4403344978
 10
14.0185883855
 20
3.390025977
 10
13.9820484218
 20
3.3375593532
 10
13.9486280305
 20
3.28312158
 10
13.9184357644
 20
3.2268784727
 10
13.8915881154
 20
3.1689963644
 10
13.8681904287
 20
3.1096512625
 10
13.8483127997
 20
3.0490600659
 10
13.8319998552
 20
2.9874403852
 10
13.8192891306
 20
2.9250043932
 10
13.8102212803
 20
2.8619689559
 10
13.8048343189
 20
2.7985494082
 10
13.8031603956
 20
2.737387228
  0
LWPOLYLINE
  5
27D
100
AcDbEntity
  8
0
100
AcDbPolyline
 62
7
  6
CONTINUOUS
 90
14
 70
0
 10
15.7181468267
 20
1.9843392738
 10
15.7610883701
 20
2.032384475
 10
15.8011087604
 20
2.0828184549
 10
15.8380831123
 20
2.1354231224
 10
15.8719038394
 20
2.1900149908
 10
15.9024564395
 20
2.2464343066
 10
15.9296256098
 20
2.3045221259
 10
15.9533261656
 20
2.3640897645
 10
15.9734832022
 20
2.4249090639
 10
15.9900308907
 20
2.4867498217
 10
16.0029320224
 20
2.5493901376
 10
16.0121579006
 20
2.6125979242
 10
16.0176831288
 20
2.6761522591
 10
16.0194766108
 20
2.7373872312
  0
LINE
  5
27E
100
AcDbEntity
  8
0
100
AcDbLine
 62
7
  6
CONTINUOUS
 10
15.5937410643
 20
1.854648599
 11
15.6690386961
 21
1.9331791857
  0
LINE
  5
27F
100
AcDbEntity
  8
0
100
AcDbLine
 62
7
  6
CONTINUOUS
 10
15.7181468267
 20
1.9843392738
 11
15.6690386961
 21
1.9331791857
  0
ARC
  5
280
100
AcDbEntity
  8
0
100
AcDbCircle
 62
9
  6
CONTINUOUS
 10
-40.6940610146
 20
8.4224091517
 40
47.8755944592
100
AcDbArc
 50
3.1668251355
 51
3.6762343442
  0
ARC
  5
281
100
AcDbEntity
  8
0
100
AcDbCircle
 62
7
  6
CONTINUOUS
 10
-5.3478949136
 20
4.3168385931
 40
19.4702243642
100
AcDbArc
 50
349.2011307817
 51
351.2855268556
  0
ARC
  5
282
100
AcDbEntity
  8
0
100
AcDbCircle
 62
7
  6
CONTINUOUS
 10
-9.5534870074
 20
16.4900178152
 40
16.0
100
AcDbArc
 50
337.7970532807
 51
349.3031702015
  0
ARC
  5
283
100
AcDbEntity
  8
0
100
AcDbCircle
 62
7
  6
CONTINUOUS
 10
2.7526748674
 20
-14.2718854025
 40
26.8241774589
100
AcDbArc
 50
80.0780772549
 51
80.2193559838
  0
ARC
  5
284
100
AcDbEntity
  8
0
100
AcDbCircle
 62
7
  6
CONTINUOUS
 10
-2.440365667
 20
3.7619159346
 40
16.5102133263
100
AcDbArc
 50
347.2276032143
 51
349.2022940985
  0
ARC
  5
285
100
AcDbEntity
  8
0
100
AcDbCircle
 62
9
  6
CONTINUOUS
 10
15.4496892601
 20
4.0162712209
 40
0.3091550006
100
AcDbArc
 50
178.8416056579
 51
184.4584889679
  0
ARC
  5
286
100
AcDbEntity
  8
0
100
AcDbCircle
 62
9
  6
CONTINUOUS
 10
14.3743060781
 20
4.0146379677
 40
0.3080530295
100
AcDbArc
 50
356.4248831611
 51
1.2266005101
  0
ARC
  5
287
100
AcDbEntity
  8
0
100
AcDbCircle
 62
9
  6
CONTINUOUS
 10
15.4469482348
 20
4.0160876522
 40
0.3064080014
100
AcDbArc
 50
184.4641109466
 51
186.1289982057
  0
ARC
  5
288
100
AcDbEntity
  8
0
100
AcDbCircle
 62
9
  6
CONTINUOUS
 10
14.3770825953
 20
4.0144768449
 40
0.3052718687
100
AcDbArc
 50
355.0317187964
 51
356.4225696766
  0
ARC
  5
289
100
AcDbEntity
  8
0
100
AcDbCircle
 62
7
  6
CONTINUOUS
 10
5.2786484357
 20
10.4362455863
 40
0.02
100
AcDbArc
 50
157.7970532807
 51
231.2230383136
  0
ARC
  5
28A
100
AcDbEntity
  8
0
100
AcDbCircle
 62
7
  6
CONTINUOUS
 10
6.3414335933
 20
10.1165574979
 40
0.0118110236
100
AcDbArc
 50
261.3
 51
346.3
  0
ARC
  5
28B
100
AcDbEntity
  8
0
100
AcDbCircle
 62
7
  6
CONTINUOUS
 10
6.261645741
 20
10.128766755
 40
0.0118110236
100
AcDbArc
 50
176.3
 51
261.3
  0
ARC
  5
28C
100
AcDbEntity
  8
0
100
AcDbCircle
 62
7
  6
CONTINUOUS
 10
5.7937036075
 20
10.2003719636
 40
0.0118110236
100
AcDbArc
 50
176.3
 51
261.3
  0
ARC
  5
28D
100
AcDbEntity
  8
0
100
AcDbCircle
 62
7
  6
CONTINUOUS
 10
5.8666887158
 20
10.1892036726
 40
0.0118110236
100
AcDbArc
 50
176.3
 51
261.3
  0
ARC
  5
28E
100
AcDbEntity
  8
0
100
AcDbCircle
 62
7
  6
CONTINUOUS
 10
5.9464765681
 20
10.1769944155
 40
0.0118110236
100
AcDbArc
 50
261.3
 51
346.3
  0
ARC
  5
28F
100
AcDbEntity
  8
0
100
AcDbCircle
 62
7
  6
CONTINUOUS
 10
5.9785083891
 20
10.1720928581
 40
0.0118110236
100
AcDbArc
 50
176.3
 51
261.3
  0
ARC
  5
290
100
AcDbEntity
  8
0
100
AcDbCircle
 62
7
  6
CONTINUOUS
 10
6.0582962413
 20
10.1598836011
 40
0.0118110236
100
AcDbArc
 50
261.3
 51
346.3
  0
ARC
  5
291
100
AcDbEntity
  8
0
100
AcDbCircle
 62
7
  6
CONTINUOUS
 10
6.1156755244
 20
10.1511033369
 40
0.0118110236
100
AcDbArc
 50
176.3
 51
261.3
  0
ARC
  5
292
100
AcDbEntity
  8
0
100
AcDbCircle
 62
7
  6
CONTINUOUS
 10
6.1954633767
 20
10.1388940798
 40
0.0118110236
100
AcDbArc
 50
261.3
 51
346.3
  0
ARC
  5
293
100
AcDbEntity
  8
0
100
AcDbCircle
 62
7
  6
CONTINUOUS
 10
5.6402693823
 20
10.2716447172
 40
0.0118110236
100
AcDbArc
 50
171.3
 51
261.3
  0
ARC
  5
294
100
AcDbEntity
  8
0
100
AcDbCircle
 62
7
  6
CONTINUOUS
 10
5.7683561454
 20
10.2042506703
 40
0.0118110236
100
AcDbArc
 50
176.3000000044
 51
261.3
  0
ARC
  5
295
100
AcDbEntity
  8
0
100
AcDbCircle
 62
7
  6
CONTINUOUS
 10
5.6724017437
 20
10.9263793772
 40
0.6487072456
100
AcDbArc
 50
231.2230383136
 51
261.3
  0
ARC
  5
296
100
AcDbEntity
  8
0
100
AcDbCircle
 62
7
  6
CONTINUOUS
 10
7.2254277616
 20
10.1383464879
 40
0.02
100
AcDbArc
 50
291.3769616864
 51
4.8029467193
  0
ARC
  5
297
100
AcDbEntity
  8
0
100
AcDbCircle
 62
7
  6
CONTINUOUS
 10
6.4786007286
 20
10.0955679767
 40
0.0118110236
100
AcDbArc
 50
261.3
 51
346.3
  0
ARC
  5
298
100
AcDbEntity
  8
0
100
AcDbCircle
 62
7
  6
CONTINUOUS
 10
6.3988128764
 20
10.1077772338
 40
0.0118110236
100
AcDbArc
 50
176.3
 51
261.3
  0
ARC
  5
299
100
AcDbEntity
  8
0
100
AcDbCircle
 62
7
  6
CONTINUOUS
 10
6.5904204019
 20
10.0784571622
 40
0.0118110236
100
AcDbArc
 50
261.3
 51
346.3
  0
ARC
  5
29A
100
AcDbEntity
  8
0
100
AcDbCircle
 62
7
  6
CONTINUOUS
 10
6.5106325496
 20
10.0906664193
 40
0.0118110236
100
AcDbArc
 50
176.3
 51
261.3
  0
ARC
  5
29B
100
AcDbEntity
  8
0
100
AcDbCircle
 62
7
  6
CONTINUOUS
 10
6.6634055102
 20
10.0672888713
 40
0.0118110236
100
AcDbArc
 50
261.3
 51
346.3
  0
ARC
  5
29C
100
AcDbEntity
  8
0
100
AcDbCircle
 62
7
  6
CONTINUOUS
 10
6.8311320964
 20
10.0894171148
 40
0.0118110236
100
AcDbArc
 50
261.3
 51
351.3
  0
ARC
  5
29D
100
AcDbEntity
  8
0
100
AcDbCircle
 62
7
  6
CONTINUOUS
 10
6.6887529723
 20
10.0634101645
 40
0.0118110236
100
AcDbArc
 50
261.3
 51
346.2999999956
  0
ARC
  5
29E
100
AcDbEntity
  8
0
100
AcDbCircle
 62
7
  6
CONTINUOUS
 10
6.9962624727
 20
10.7238002187
 40
0.6487072456
100
AcDbArc
 50
261.3
 51
291.3769616864
  0
ARC
  5
29F
100
AcDbEntity
  8
0
100
AcDbCircle
 62
7
  6
CONTINUOUS
 10
7.3720700307
 20
11.1484826389
 40
0.0984251969
100
AcDbArc
 50
270.7731595888
 51
0.2731595949
  0
ARC
  5
2A0
100
AcDbEntity
  8
0
100
AcDbCircle
 62
7
  6
CONTINUOUS
 10
7.2065088707
 20
10.9822648539
 40
0.045
100
AcDbArc
 50
320.2357129045
 51
8.4495221549
  0
ARC
  5
2A1
100
AcDbEntity
  8
0
100
AcDbCircle
 62
7
  6
CONTINUOUS
 10
7.4657392619
 20
11.320484624
 40
0.0118110236
100
AcDbArc
 50
0.2730396967
 51
45.2730368898
  0
ARC
  5
2A2
100
AcDbEntity
  8
0
100
AcDbCircle
 62
7
  6
CONTINUOUS
 10
7.4661806273
 20
11.2279080438
 40
0.0118110236
100
AcDbArc
 50
315.2732823001
 51
0.2732794932
  0
ARC
  5
2A3
100
AcDbEntity
  8
0
100
AcDbCircle
 62
9
  6
CONTINUOUS
 10
7.7330523583
 20
12.1634993075
 40
0.6386078162
100
AcDbArc
 50
161.5939027406
 51
176.3970813899
  0
ARC
  5
2A4
100
AcDbEntity
  8
0
100
AcDbCircle
 62
7
  6
CONTINUOUS
 10
7.367504482
 20
12.1061084838
 40
0.0984251969
100
AcDbArc
 50
0.2731595949
 51
80.2738166472
  0
ARC
  5
2A5
100
AcDbEntity
  8
0
100
AcDbCircle
 62
7
  6
CONTINUOUS
 10
7.248889112
 20
13.3531338711
 40
0.05
100
AcDbArc
 50
353.2968297985
 51
81.3
  0
ARC
  5
2A6
100
AcDbEntity
  8
0
100
AcDbCircle
 62
7
  6
CONTINUOUS
 10
6.2176132349
 20
13.5109412558
 40
0.05
100
AcDbArc
 50
81.3
 51
169.3031702015
  0
ARC
  5
2A7
100
AcDbEntity
  8
0
100
AcDbCircle
 62
7
  6
CONTINUOUS
 10
7.427482404
 20
11.9126907403
 40
0.0472440945
100
AcDbArc
 50
326.715849833
 51
33.8304693569
  0
ARC
  5
2A8
100
AcDbEntity
  8
0
100
AcDbCircle
 62
7
  6
CONTINUOUS
 10
7.4271505986
 20
11.9822870735
 40
0.0472440945
100
AcDbArc
 50
326.715849833
 51
33.8304693569
  0
ARC
  5
2A9
100
AcDbEntity
  8
0
100
AcDbCircle
 62
7
  6
CONTINUOUS
 10
7.4268187932
 20
12.0518834067
 40
0.0472440945
100
AcDbArc
 50
326.715849833
 51
33.8304693569
  0
ARC
  5
2AA
100
AcDbEntity
  8
0
100
AcDbCircle
 62
7
  6
CONTINUOUS
 10
7.4266813549
 20
12.0807111518
 40
0.0472440945
100
AcDbArc
 50
342.4815567029
 51
33.8326021211
  0
ARC
  5
2AB
100
AcDbEntity
  8
0
100
AcDbCircle
 62
7
  6
CONTINUOUS
 10
7.4276198423
 20
11.8838629952
 40
0.0472440945
100
AcDbArc
 50
326.715849833
 51
18.0647624871
  0
ARC
  5
2AC
100
AcDbEntity
  8
0
100
AcDbCircle
 62
7
  6
CONTINUOUS
 10
7.2928708629
 20
12.2740652699
 40
0.045
100
AcDbArc
 50
343.9009595099
 51
61.1423482661
  0
ARC
  5
2AD
100
AcDbEntity
  8
0
100
AcDbCircle
 62
9
  6
CONTINUOUS
 10
13.4884648636
 20
10.7970805287
 40
6.3730687023
100
AcDbArc
 50
166.7972190821
 51
167.4124282676
  0
ARC
  5
2AE
100
AcDbEntity
  8
0
100
AcDbCircle
 62
9
  6
CONTINUOUS
 10
10.9959877644
 20
11.4840746441
 40
3.8067190529
100
AcDbArc
 50
179.6062154873
 51
186.1184587513
  0
ARC
  5
2AF
100
AcDbEntity
  8
0
100
AcDbCircle
 62
9
  6
CONTINUOUS
 10
10.6679730211
 20
11.4420743397
 40
3.4813888968
100
AcDbArc
 50
168.4151992477
 51
174.6763298807
  0
ARC
  5
2B0
100
AcDbEntity
  8
0
100
AcDbCircle
 62
9
  6
CONTINUOUS
 10
10.2179465229
 20
11.4327495413
 40
3.0440295565
100
AcDbArc
 50
165.6737482329
 51
166.5418861979
  0
ARC
  5
2B1
100
AcDbEntity
  8
0
100
AcDbCircle
 62
7
  6
CONTINUOUS
 10
10.2184575281
 20
11.4296911442
 40
3.0
100
AcDbArc
 50
163.9009595099
 51
188.4495221549
  0
ARC
  5
2B2
100
AcDbEntity
  8
0
100
AcDbCircle
 62
9
  6
CONTINUOUS
 10
10.1251504193
 20
11.4970113615
 40
2.9358172514
100
AcDbArc
 50
174.7609503283
 51
179.7418785727
  0
ARC
  5
2B3
100
AcDbEntity
  8
0
100
AcDbCircle
 62
7
  6
CONTINUOUS
 10
10.8328549077
 20
13.2599480214
 40
4.6484636349
100
AcDbArc
 50
0.0000004531
 51
171.2999995469
  0
ARC
  5
2B4
100
AcDbEntity
  8
0
100
AcDbCircle
 62
7
  6
CONTINUOUS
 10
10.8328549105
 20
13.2599480582
 40
3.5084636321
100
AcDbArc
 50
0.0
 51
171.3
  0
ARC
  5
2B5
100
AcDbEntity
  8
0
100
AcDbCircle
 62
7
  6
CONTINUOUS
 10
35.1705573333
 20
4.3168431077
 40
19.4702500959
100
AcDbArc
 50
188.7144445428
 51
190.7988683001
  0
ARC
  5
2B6
100
AcDbEntity
  8
0
100
AcDbCircle
 62
7
  6
CONTINUOUS
 10
32.2630027522
 20
3.7619159345
 40
16.5102133262
100
AcDbArc
 50
190.7977059015
 51
192.7723967857
  0
ARC
  5
2B7
100
AcDbEntity
  8
0
100
AcDbCircle
 62
7
  6
CONTINUOUS
 10
23.1891744028
 20
11.4796865546
 40
16.0
100
AcDbArc
 50
173.2968297985
 51
176.3597361067
  0
ARC
  5
2B8
100
AcDbEntity
  8
0
100
AcDbCircle
 62
7
  6
CONTINUOUS
 10
23.1891744028
 20
11.4796865546
 40
16.0
100
AcDbArc
 50
182.3384186034
 51
184.8029467193
  0
ARC
  5
2B9
100
AcDbEntity
  8
0
100
AcDbCircle
 62
9
  6
CONTINUOUS
 10
21.3847245787
 20
11.2843015516
 40
14.3185731157
100
AcDbArc
 50
176.3187703114
 51
176.5056980138
  0
ARC
  5
2BA
100
AcDbEntity
  8
0
100
AcDbCircle
 62
9
  6
CONTINUOUS
 10
20.291011252
 20
11.3405540246
 40
13.0580748307
100
AcDbArc
 50
176.2823466907
 51
176.4847473732
  0
SPLINE
  5
2BB
100
AcDbEntity
  8
0
100
AcDbSpline
 62
7
  6
CONTINUOUS
 70
0
 71
3
 72
35
 73
31
 74
0
 42
0.0000001
 43
0.0000001
 44
0.0000000001
 40
0.0
 40
0.0
 40
0.0
 40
0.0
 40
0.030704433
 40
0.0614994409
 40
0.0923839137
 40
0.1233553058
 40
0.1544107046
 40
0.185546562
 40
0.2167586044
 40
0.2480420768
 40
0.2793911802
 40
0.3107993441
 40
0.3422587912
 40
0.3737614866
 40
0.4368448359
 40
0.5
 40
0.5631551641
 40
0.6262385134
 40
0.6577412088
 40
0.6892006559
 40
0.7206088198
 40
0.7519579232
 40
0.7832413956
 40
0.814453438
 40
0.8455892954
 40
0.8766446943
 40
0.9076160863
 40
0.9385005591
 40
0.969295567
 40
1.0
 40
1.0
 40
1.0
 40
1.0
 10
14.22889578
 20
1.8546483928
 30
0.0
 10
14.239655896
 20
1.8434112641
 30
0.0
 10
14.2618089323
 20
1.8214708355
 30
0.0
 10
14.2967708764
 20
1.79031207
 30
0.0
 10
14.3334145931
 20
1.7609316387
 30
0.0
 10
14.3716236868
 20
1.7333931085
 30
0.0
 10
14.4112916293
 20
1.7077656617
 30
0.0
 10
14.4523106289
 20
1.6841168387
 30
0.0
 10
14.4945726263
 20
1.6625133471
 30
0.0
 10
14.537970628
 20
1.6430279786
 30
0.0
 10
14.5823912123
 20
1.6257259809
 30
0.0
 10
14.6277123685
 20
1.6106599083
 30
0.0
 10
14.6738022079
 20
1.5978449081
 30
0.0
 10
14.7361256977
 20
1.5837883972
 30
0.0
 10
14.8153165787
 20
1.5719720483
 30
0.0
 10
14.9113185426
 20
1.5671847034
 30
0.0
 10
15.0073205065
 20
1.5719720483
 30
0.0
 10
15.0865113875
 20
1.5837883972
 30
0.0
 10
15.1488348773
 20
1.5978449081
 30
0.0
 10
15.1949247167
 20
1.6106599083
 30
0.0
 10
15.2402458729
 20
1.6257259809
 30
0.0
 10
15.2846664572
 20
1.6430279786
 30
0.0
 10
15.3280644589
 20
1.6625133471
 30
0.0
 10
15.3703264563
 20
1.6841168387
 30
0.0
 10
15.4113454559
 20
1.7077656617
 30
0.0
 10
15.4510133984
 20
1.7333931085
 30
0.0
 10
15.4892224922
 20
1.7609316387
 30
0.0
 10
15.5258662089
 20
1.79031207
 30
0.0
 10
15.5608281529
 20
1.8214708355
 30
0.0
 10
15.5829811892
 20
1.8434112641
 30
0.0
 10
15.5937413052
 20
1.8546483928
 30
0.0
  0
SPLINE
  5
2BC
100
AcDbEntity
  8
0
100
AcDbSpline
 62
7
  6
CONTINUOUS
 70
0
 71
3
 72
30
 73
26
 74
0
 42
0.0000001
 43
0.0000001
 44
0.0000000001
 40
0.0
 40
0.0
 40
0.0
 40
0.0
 40
0.0624708818
 40
0.1249574514
 40
0.156207449
 40
0.1874613948
 40
0.2187185426
 40
0.2499778893
 40
0.2656080202
 40
0.28123824
 40
0.2968683796
 40
0.3124983068
 40
0.328127997
 40
0.3437574444
 40
0.3750155888
 40
0.4062727014
 40
0.4375287518
 40
0.5000375822
 40
0.5625420492
 40
0.6250423213
 40
0.687538809
 40
0.7500322023
 40
0.8125235078
 40
0.8750140853
 40
1.0
 40
1.0
 40
1.0
 40
1.0
 10
14.3488185426
 20
7.8818598125
 30
0.0
 10
14.3488185426
 20
7.7910858252
 30
0.0
 10
14.3473151317
 20
7.6095131213
 30
0.0
 10
14.3424276463
 20
7.3825821381
 30
0.0
 10
14.3371620093
 20
7.2010392249
 30
0.0
 10
14.3326467481
 20
7.064873154
 30
0.0
 10
14.3276780325
 20
6.9287094521
 30
0.0
 10
14.3232531394
 20
6.8152438187
 30
0.0
 10
14.3195987452
 20
6.7244724278
 30
0.0
 10
14.3168146338
 20
6.6563945976
 30
0.0
 10
14.3140016967
 20
6.5883182521
 30
0.0
 10
14.3111723
 20
6.5202433589
 30
0.0
 10
14.3083235008
 20
6.4521702812
 30
0.0
 10
14.3044971237
 20
6.3614094926
 30
0.0
 10
14.2996567452
 20
6.2479636932
 30
0.0
 10
14.2937413352
 20
6.1118367347
 30
0.0
 10
14.2856915555
 20
5.9303505978
 30
0.0
 10
14.2752865172
 20
5.7035200618
 30
0.0
 10
14.2621308572
 20
5.4313689116
 30
0.0
 10
14.2481849405
 20
5.159274952
 30
0.0
 10
14.2333279052
 20
4.8872451877
 30
0.0
 10
14.217438894
 20
4.6152866962
 30
0.0
 10
14.2003970187
 20
4.3434062592
 30
0.0
 10
14.1759760086
 20
3.9810090363
 30
0.0
 10
14.1555684206
 20
3.7093523248
 30
0.0
 10
14.1408739691
 20
3.5283356448
 30
0.0
  0
SPLINE
  5
2BD
100
AcDbEntity
  8
0
100
AcDbSpline
 62
7
  6
CONTINUOUS
 70
0
 71
3
 72
30
 73
26
 74
0
 42
0.0000001
 43
0.0000001
 44
0.0000000001
 40
0.0
 40
0.0
 40
0.0
 40
0.0
 40
0.0624708817
 40
0.1249574513
 40
0.1562074487
 40
0.1874613945
 40
0.2187185422
 40
0.2499778889
 40
0.2656080197
 40
0.2812382396
 40
0.2968683792
 40
0.3124983063
 40
0.3281279966
 40
0.3437574441
 40
0.3750155884
 40
0.4062727011
 40
0.4375287516
 40
0.500037582
 40
0.5625420492
 40
0.6250423214
 40
0.6875388092
 40
0.7500322027
 40
0.8125235082
 40
0.8750140857
 40
1.0
 40
1.0
 40
1.0
 40
1.0
 10
15.4738185426
 20
7.8818598125
 30
0.0
 10
15.4738185426
 20
7.7910861667
 30
0.0
 10
15.4753219422
 20
7.6095141459
 30
0.0
 10
15.4802093937
 20
7.3825840161
 30
0.0
 10
15.4854749966
 20
7.2010417858
 30
0.0
 10
15.4899902303
 20
7.064876227
 30
0.0
 10
15.4949589173
 20
6.9287130371
 30
0.0
 10
15.499383787
 20
6.8152478303
 30
0.0
 10
15.5030381633
 20
6.7244767807
 30
0.0
 10
15.5058222617
 20
6.6563992066
 30
0.0
 10
15.5086351869
 20
6.588323117
 30
0.0
 10
15.5114645717
 20
6.5202484797
 30
0.0
 10
15.5143133586
 20
6.4521756579
 30
0.0
 10
15.5181397189
 20
6.3614152104
 30
0.0
 10
15.5229800757
 20
6.2479698375
 30
0.0
 10
15.5288954581
 20
6.1118433905
 30
0.0
 10
15.5369451987
 20
5.9303579354
 30
0.0
 10
15.5473501837
 20
5.7035282515
 30
0.0
 10
15.560505771
 20
5.4313781232
 30
0.0
 10
15.5744516049
 20
5.1592851849
 30
0.0
 10
15.5893085461
 20
4.8872564411
 30
0.0
 10
15.6051974504
 20
4.6152989693
 30
0.0
 10
15.6222392047
 20
4.3434195511
 30
0.0
 10
15.6466600327
 20
3.9810236856
 30
0.0
 10
15.6670674589
 20
3.70936799
 30
0.0
 10
15.6817617895
 20
3.5283519861
 30
0.0
  0
LINE
  5
2BE
100
AcDbEntity
  8
0
100
AcDbLine
 62
9
  6
CONTINUOUS
 10
15.1955877442
 20
6.1711561833
 11
15.1405974755
 21
4.0225209935
  0
SPLINE
  5
2BF
100
AcDbEntity
  8
0
100
AcDbSpline
 62
9
  6
CONTINUOUS
 70
0
 71
3
 72
20
 73
16
 74
0
 42
0.0000001
 43
0.0000001
 44
0.0000000001
 40
0.0
 40
0.0
 40
0.0
 40
0.0
 40
0.215441547
 40
0.4085530157
 40
0.5773933093
 40
0.7202650475
 40
0.8354874228
 40
0.8821584671
 40
0.9212353331
 40
0.9525226838
 40
0.9652011071
 40
0.9758873771
 40
0.9845929009
 40
0.991375653
 40
1.0
 40
1.0
 40
1.0
 40
1.0
 10
14.6270497863
 20
6.1711553598
 30
0.0
 10
14.6262838356
 20
6.1712225235
 30
0.0
 10
14.6248315358
 20
6.1713523641
 30
0.0
 10
14.6227802246
 20
6.1715486071
 30
0.0
 10
14.6209884782
 20
6.1717379082
 30
0.0
 10
14.6194756608
 20
6.1719199409
 30
0.0
 10
14.6183986374
 20
6.1720732524
 30
0.0
 10
14.6176919757
 20
6.1721963879
 30
0.0
 10
14.6172826587
 20
6.1722799948
 30
0.0
 10
14.6169948885
 20
6.172351384
 30
0.0
 10
14.6168085095
 20
6.172409531
 30
0.0
 10
14.6167013402
 20
6.1724490812
 30
0.0
 10
14.6166157303
 20
6.1724888348
 30
0.0
 10
14.6165440347
 20
6.1725320377
 30
0.0
 10
14.6165000957
 20
6.1725788476
 30
0.0
 10
14.6164991393
 20
6.1726096122
 30
0.0
  0
SPLINE
  5
2C0
100
AcDbEntity
  8
0
100
AcDbSpline
 62
9
  6
CONTINUOUS
 70
0
 71
3
 72
10
 73
6
 74
0
 42
0.0000001
 43
0.0000001
 44
0.0000000001
 40
0.0
 40
0.0
 40
0.0
 40
0.0
 40
0.2500112628
 40
0.5000134335
 40
1.0
 40
1.0
 40
1.0
 40
1.0
 10
14.6822885101
 20
4.0212323296
 30
0.0
 10
14.6776324029
 20
4.2003992937
 30
0.0
 10
14.6683639259
 20
4.5587278387
 30
0.0
 10
14.6499368362
 20
5.2753684908
 30
0.0
 10
14.6361951461
 20
5.8128429209
 30
0.0
 10
14.6270497863
 20
6.1711553598
 30
0.0
  0
SPLINE
  5
2C1
100
AcDbEntity
  8
0
100
AcDbSpline
 62
9
  6
CONTINUOUS
 70
0
 71
3
 72
9
 73
5
 74
0
 42
0.0000001
 43
0.0000001
 44
0.0000000001
 40
0.0
 40
0.0
 40
0.0
 40
0.0
 40
0.5101817795
 40
1.0
 40
1.0
 40
1.0
 40
1.0
 10
15.1405974755
 20
4.0225209935
 30
0.0
 10
15.1411866134
 20
4.0173988222
 30
0.0
 10
15.1420368994
 20
4.0073204013
 30
0.0
 10
15.1421623339
 20
3.9972038292
 30
0.0
 10
15.1420231675
 20
3.9922556412
 30
0.0
  0
SPLINE
  5
2C2
100
AcDbEntity
  8
0
100
AcDbSpline
 62
9
  6
CONTINUOUS
 70
0
 71
3
 72
25
 73
21
 74
0
 42
0.0000001
 43
0.0000001
 44
0.0000000001
 40
0.0
 40
0.0
 40
0.0
 40
0.0
 40
0.2085073485
 40
0.4005576678
 40
0.5716381387
 40
0.6480334004
 40
0.7177262178
 40
0.780311026
 40
0.835433985
 40
0.8827907348
 40
0.9221371568
 40
0.9533102599
 40
0.9658133657
 40
0.9762753107
 40
0.9847367212
 40
0.9912933585
 40
0.9939266392
 40
0.9961926069
 40
0.9981755462
 40
1.0
 40
1.0
 40
1.0
 40
1.0
 10
7.1893588087
 20
11.5102373941
 30
0.0
 10
7.1914782758
 20
11.5102260519
 30
0.0
 10
7.1955500936
 20
11.5102256607
 30
0.0
 10
7.2013605625
 20
11.5102969111
 30
0.0
 10
7.2058270046
 20
11.5104178817
 30
0.0
 10
7.2090482304
 20
11.5105541852
 30
0.0
 10
7.211166371
 20
11.5106687618
 30
0.0
 10
7.2130669626
 20
11.5107987192
 30
0.0
 10
7.2147387296
 20
11.5109431463
 30
0.0
 10
7.2161719906
 20
11.511100719
 30
0.0
 10
7.2173583068
 20
11.5112704087
 30
0.0
 10
7.2181879516
 20
11.5114289921
 30
0.0
 10
7.218720758
 20
11.5115674415
 30
0.0
 10
7.2190250478
 20
11.5116657403
 30
0.0
 10
7.2192641401
 20
11.5117659859
 30
0.0
 10
7.2194202638
 20
11.5118568461
 30
0.0
 10
7.2195085597
 20
11.5119333369
 30
0.0
 10
7.219553496
 20
11.5119875067
 30
0.0
 10
7.2195818423
 20
11.5120430544
 30
0.0
 10
7.2195891183
 20
11.5120817725
 30
0.0
 10
7.2195896277
 20
11.5121003113
 30
0.0
  0
SPLINE
  5
2C3
100
AcDbEntity
  8
0
100
AcDbSpline
 62
9
  6
CONTINUOUS
 70
0
 71
3
 72
68
 73
64
 74
0
 42
0.0000001
 43
0.0000001
 44
0.0000000001
 40
0.0
 40
0.0
 40
0.0
 40
0.0
 40
0.0039409754
 40
0.0075076829
 40
0.010671304
 40
0.0134036054
 40
0.0145994227
 40
0.0156769398
 40
0.0166327765
 40
0.0174639443
 40
0.0181681554
 40
0.018744497
 40
0.0191950917
 40
0.0193760557
 40
0.0195305329
 40
0.0196634401
 40
0.0197830598
 40
0.0199012
 40
0.0200307077
 40
0.0201821025
 40
0.0203625753
 40
0.0208274318
 40
0.0214486585
 40
0.0222396619
 40
0.0232119225
 40
0.0243756209
 40
0.0257401749
 40
0.0273145771
 40
0.0291081723
 40
0.0311332889
 40
0.0359309634
 40
0.0418156816
 40
0.0489287761
 40
0.0574322834
 40
0.0674498243
 40
0.0790676205
 40
0.0923131859
 40
0.1071789012
 40
0.1236299129
 40
0.1416105405
 40
0.1818337287
 40
0.227014217
 40
0.2762532001
 40
0.3287820512
 40
0.3838787454
 40
0.4408219795
 40
0.4988437456
 40
0.5570932438
 40
0.6708074932
 40
0.7247299497
 40
0.7757339251
 40
0.8230794722
 40
0.8659492105
 40
0.9034168587
 40
0.9347929782
 40
0.9480820306
 40
0.9597369024
 40
0.9697738592
 40
0.9782977551
 40
0.9854402913
 40
0.9913513971
 40
0.9961673952
 40
1.0
 40
1.0
 40
1.0
 40
1.0
 10
14.656752072
 20
6.2013948871
 30
0.0
 10
14.6560512136
 20
6.2014743392
 30
0.0
 10
14.6547167344
 20
6.2016318088
 30
0.0
 10
14.6528228123
 20
6.2018790803
 30
0.0
 10
14.6511472335
 20
6.2021260701
 30
0.0
 10
14.6498958509
 20
6.2023395577
 30
0.0
 10
14.6490169584
 20
6.2025135668
 30
0.0
 10
14.6484525288
 20
6.2026380991
 30
0.0
 10
14.6479550512
 20
6.2027624339
 30
0.0
 10
14.6475266694
 20
6.2028864838
 30
0.0
 10
14.6471691751
 20
6.203010068
 30
0.0
 10
14.6468845687
 20
6.2031330988
 30
0.0
 10
14.6466962882
 20
6.2032417232
 30
0.0
 10
14.6465877329
 20
6.2033318034
 30
0.0
 10
14.6465318528
 20
6.2033948757
 30
0.0
 10
14.6464958621
 20
6.2034590933
 30
0.0
 10
14.646481416
 20
6.2035250765
 30
0.0
 10
14.6464904806
 20
6.2035915063
 30
0.0
 10
14.6465225849
 20
6.2036563848
 30
0.0
 10
14.6465763653
 20
6.2037197931
 30
0.0
 10
14.6466864894
 20
6.2038111646
 30
0.0
 10
14.6468868203
 20
6.2039205439
 30
0.0
 10
14.6471997379
 20
6.2040434536
 30
0.0
 10
14.6476086644
 20
6.2041670025
 30
0.0
 10
14.648117791
 20
6.2042909569
 30
0.0
 10
14.6487320097
 20
6.2044151398
 30
0.0
 10
14.6494557752
 20
6.2045394272
 30
0.0
 10
14.6502936855
 20
6.2046637332
 30
0.0
 10
14.6512509325
 20
6.2047880891
 30
0.0
 10
14.6527830881
 20
6.2049637302
 30
0.0
 10
14.6550474898
 20
6.2051784898
 30
0.0
 10
14.6582231683
 20
6.2054233545
 30
0.0
 10
14.6620638761
 20
6.2056660088
 30
0.0
 10
14.6666456734
 20
6.2059047778
 30
0.0
 10
14.6720348197
 20
6.2061391442
 30
0.0
 10
14.6782735813
 20
6.2063677498
 30
0.0
 10
14.685380762
 20
6.2065899728
 30
0.0
 10
14.6933535571
 20
6.2068046958
 30
0.0
 10
14.702174299
 20
6.2070109427
 30
0.0
 10
14.715533099
 20
6.2072835272
 30
0.0
 10
14.7340341426
 20
6.2075894516
 30
0.0
 10
14.7581302289
 20
6.2079006901
 30
0.0
 10
14.7844294274
 20
6.2081657373
 30
0.0
 10
14.8125039115
 20
6.2083808909
 30
0.0
 10
14.8419576616
 20
6.2085431609
 30
0.0
 10
14.8723947823
 20
6.2086492752
 30
0.0
 10
14.9033963374
 20
6.2086963281
 30
0.0
 10
14.9445586773
 20
6.2086757094
 30
0.0
 10
14.9849872117
 20
6.2085372373
 30
0.0
 10
15.0241182499
 20
6.208281315
 30
0.0
 10
15.0513705409
 20
6.2080412527
 30
0.0
 10
15.0766440551
 20
6.2077529108
 30
0.0
 10
15.0994941129
 20
6.20742031
 30
0.0
 10
15.1194849027
 20
6.2070449543
 30
0.0
 10
15.1341806009
 20
6.2066850339
 30
0.0
 10
15.1442558052
 20
6.2063715595
 30
0.0
 10
15.1505124855
 20
6.2061432634
 30
0.0
 10
15.1559153973
 20
6.2059087439
 30
0.0
 10
15.1605095996
 20
6.2056698177
 30
0.0
 10
15.1643639755
 20
6.2054273948
 30
0.0
 10
15.1675530212
 20
6.2051828172
 30
0.0
 10
15.1701474521
 20
6.2049374722
 30
0.0
 10
15.171684782
 20
6.2047543745
 30
0.0
 10
15.1723641863
 20
6.2046598263
 30
0.0
  0
SPLINE
  5
2C4
100
AcDbEntity
  8
0
100
AcDbSpline
 62
9
  6
CONTINUOUS
 70
0
 71
3
 72
31
 73
27
 74
0
 42
0.0000001
 43
0.0000001
 44
0.0000000001
 40
0.0
 40
0.0
 40
0.0
 40
0.0
 40
0.0049018733
 40
0.0097535258
 40
0.0146307943
 40
0.0196083927
 40
0.0301221892
 40
0.0417843634
 40
0.0549346334
 40
0.0697853655
 40
0.0864620668
 40
0.1050322127
 40
0.1255228933
 40
0.1479218322
 40
0.1721965703
 40
0.1983001512
 40
0.2261769968
 40
0.2557645402
 40
0.319788477
 40
0.3897659306
 40
0.4651127188
 40
0.5452444927
 40
0.6296073925
 40
0.7177133882
 40
0.8090732141
 40
1.0
 40
1.0
 40
1.0
 40
1.0
 10
7.2139930194
 20
12.5010151574
 30
0.0
 10
7.2137666707
 20
12.501170809
 30
0.0
 10
7.2132969257
 20
12.5014535415
 30
0.0
 10
7.2125444957
 20
12.5017846256
 30
0.0
 10
7.2117517677
 20
12.5020182048
 30
0.0
 10
7.2106226953
 20
12.5022027991
 30
0.0
 10
7.2090877089
 20
12.5021739431
 30
0.0
 10
7.2071451955
 20
12.5017444082
 30
0.0
 10
7.2050696193
 20
12.5009295449
 30
0.0
 10
7.2028626801
 20
12.4997372657
 30
0.0
 10
7.2005276443
 20
12.4981725414
 30
0.0
 10
7.1980711317
 20
12.4962393136
 30
0.0
 10
7.195501531
 20
12.4939431393
 30
0.0
 10
7.1928270963
 20
12.4912926936
 30
0.0
 10
7.1900575485
 20
12.4882972954
 30
0.0
 10
7.1872030174
 20
12.4849668957
 30
0.0
 10
7.184273913
 20
12.4813118202
 30
0.0
 10
7.1801745973
 20
12.4758750129
 30
0.0
 10
7.1749570088
 20
12.4683321055
 30
0.0
 10
7.1687113737
 20
12.4583971846
 30
0.0
 10
7.1624114382
 20
12.4474418272
 30
0.0
 10
7.1561268751
 20
12.4355579309
 30
0.0
 10
7.1499219568
 20
12.4228318332
 30
0.0
 10
7.1438629655
 20
12.4093426649
 30
0.0
 10
7.1359177359
 20
12.3901644304
 30
0.0
 10
7.1305017617
 20
12.3752888832
 30
0.0
 10
7.1271193401
 20
12.3651380143
 30
0.0
  0
SPLINE
  5
2C5
100
AcDbEntity
  8
0
100
AcDbSpline
 62
9
  6
CONTINUOUS
 70
0
 71
3
 72
11
 73
7
 74
0
 42
0.0000001
 43
0.0000001
 44
0.0000000001
 40
0.0
 40
0.0
 40
0.0
 40
0.0
 40
0.2499177561
 40
0.4999169713
 40
0.7499555824
 40
1.0
 40
1.0
 40
1.0
 40
1.0
 10
7.0927716276
 20
12.157008211
 30
0.0
 10
7.0908117883
 20
12.1249126979
 30
0.0
 10
7.087297247
 20
12.0606859027
 30
0.0
 10
7.0830878168
 20
11.9642843128
 30
0.0
 10
7.0797719357
 20
11.867831963
 30
0.0
 10
7.078038756
 20
11.8035123701
 30
0.0
 10
7.0772626445
 20
11.7713501423
 30
0.0
  0
SPLINE
  5
2C6
100
AcDbEntity
  8
0
100
AcDbSpline
 62
9
  6
CONTINUOUS
 70
0
 71
3
 72
11
 73
7
 74
0
 42
0.0000001
 43
0.0000001
 44
0.0000000001
 40
0.0
 40
0.0
 40
0.0
 40
0.0
 40
0.2499591144
 40
0.5000843477
 40
0.7501700792
 40
1.0
 40
1.0
 40
1.0
 40
1.0
 10
7.0772626445
 20
11.7713501423
 30
0.0
 10
7.0767011143
 20
11.7480791798
 30
0.0
 10
7.0761123122
 20
11.7015071482
 30
0.0
 10
7.0768206023
 20
11.6316445844
 30
0.0
 10
7.0790770803
 20
11.5618272489
 30
0.0
 10
7.0815620973
 20
11.5153346377
 30
0.0
 10
7.083031056
 20
11.4921153528
 30
0.0
  0
SPLINE
  5
2C7
100
AcDbEntity
  8
0
100
AcDbSpline
 62
9
  6
CONTINUOUS
 70
0
 71
3
 72
42
 73
38
 74
0
 42
0.0000001
 43
0.0000001
 44
0.0000000001
 40
0.0
 40
0.0
 40
0.0
 40
0.0
 40
0.0945817433
 40
0.1884173774
 40
0.2348578883
 40
0.28086182
 40
0.3263418499
 40
0.371207568
 40
0.4153573464
 40
0.4586882875
 40
0.5424647531
 40
0.6216156137
 40
0.6951680107
 40
0.7295250148
 40
0.7620944452
 40
0.7927492443
 40
0.8213643322
 40
0.8478274137
 40
0.8720388558
 40
0.8939028619
 40
0.9133553551
 40
0.9221678177
 40
0.9303679903
 40
0.937957678
 40
0.9449453023
 40
0.9513457365
 40
0.957180728
 40
0.9624824366
 40
0.9672963941
 40
0.9716866877
 40
0.9757410352
 40
0.979570987
 40
0.9833090059
 40
0.9870964713
 40
0.9910675815
 40
0.9953380724
 40
1.0
 40
1.0
 40
1.0
 40
1.0
 10
7.1084344154
 20
11.0672197903
 30
0.0
 10
7.1089301812
 20
11.0584061633
 30
0.0
 10
7.1102782454
 20
11.0408668672
 30
0.0
 10
7.1128276165
 20
11.0190897292
 30
0.0
 10
7.1153639435
 20
11.0018887235
 30
0.0
 10
7.1174960782
 20
10.9891927791
 30
0.0
 10
7.119851827
 20
10.9766860241
 30
0.0
 10
7.122416839
 20
10.9643972525
 30
0.0
 10
7.1251796937
 20
10.952357077
 30
0.0
 10
7.1290648159
 20
10.9368517234
 30
0.0
 10
7.1342914249
 20
10.9183182638
 30
0.0
 10
7.1411488326
 20
10.8973330275
 30
0.0
 10
7.1472741122
 20
10.8809771039
 30
0.0
 10
7.1523076189
 20
10.8688693333
 30
0.0
 10
7.1560116379
 20
10.860547939
 30
0.0
 10
7.1597049202
 20
10.8528116108
 30
0.0
 10
7.1633623477
 20
10.8456932875
 30
0.0
 10
7.1669579513
 20
10.8392235492
 30
0.0
 10
7.1704642606
 20
10.833429856
 30
0.0
 10
7.1738589992
 20
10.8283400435
 30
0.0
 10
7.1766601348
 20
10.8245885392
 30
0.0
 10
7.17883585
 20
10.8219705168
 30
0.0
 10
7.1803715261
 20
10.8202624998
 30
0.0
 10
7.1818631815
 20
10.8187466274
 30
0.0
 10
7.1833086751
 20
10.8174244791
 30
0.0
 10
7.1847060175
 20
10.816296996
 30
0.0
 10
7.1860537007
 20
10.815364988
 30
0.0
 10
7.1873507305
 20
10.8146294254
 30
0.0
 10
7.1885966667
 20
10.8140915548
 30
0.0
 10
7.1897914233
 20
10.813753302
 30
0.0
 10
7.1909344083
 20
10.8136168283
 30
0.0
 10
7.1920236111
 20
10.8136853503
 30
0.0
 10
7.193054452
 20
10.813960561
 30
0.0
 10
7.1940218481
 20
10.8144400963
 30
0.0
 10
7.194923008
 20
10.8151192514
 30
0.0
 10
7.1957579966
 20
10.8159930964
 30
0.0
 10
7.1962479784
 20
10.8166706572
 30
0.0
 10
7.1964836534
 20
10.8170364137
 30
0.0
  0
LINE
  5
2C8
100
AcDbEntity
  8
0
100
AcDbLine
 62
9
  6
CONTINUOUS
 10
7.1964836534
 20
10.8170364137
 11
7.2024981544
 21
10.8268590621
  0
LINE
  5
2C9
100
AcDbEntity
  8
0
100
AcDbLine
 62
9
  6
CONTINUOUS
 10
15.1422916508
 20
3.9833732953
 11
15.142330265
 21
3.9830157262
  0
LINE
  5
2CA
100
AcDbEntity
  8
0
100
AcDbLine
 62
9
  6
CONTINUOUS
 10
7.2604146853
 20
12.1872366108
 11
7.268578798
 21
12.1859732561
  0
SPLINE
  5
2CB
100
AcDbEntity
  8
0
100
AcDbSpline
 62
9
  6
CONTINUOUS
 70
0
 71
3
 72
21
 73
17
 74
0
 42
0.0000001
 43
0.0000001
 44
0.0000000001
 40
0.0
 40
0.0
 40
0.0
 40
0.0
 40
0.0089371571
 40
0.0196005536
 40
0.0460975416
 40
0.0619402689
 40
0.0795164882
 40
0.1198429121
 40
0.1669042914
 40
0.2203852389
 40
0.279903254
 40
0.3450233859
 40
0.490032711
 40
0.6509484038
 40
0.8227297655
 40
1.0
 40
1.0
 40
1.0
 40
1.0
 10
14.6270497863
 20
6.1711553598
 30
0.0
 10
14.6271181572
 20
6.1712135743
 30
0.0
 10
14.6272769943
 20
6.1713308334
 30
0.0
 10
14.6276740016
 20
6.1715702132
 30
0.0
 10
14.6281608672
 20
6.1717904903
 30
0.0
 10
14.6287258023
 20
6.1719984415
 30
0.0
 10
14.6294311575
 20
6.1722261074
 30
0.0
 10
14.6304498015
 20
6.1725012292
 30
0.0
 10
14.6318307407
 20
6.1728129147
 30
0.0
 10
14.6334108444
 20
6.1731137184
 30
0.0
 10
14.6351774285
 20
6.1734012918
 30
0.0
 10
14.6378606133
 20
6.1737779039
 30
0.0
 10
14.6415665846
 20
6.1741905001
 30
0.0
 10
14.6463505499
 20
6.1745863486
 30
0.0
 10
14.651466336
 20
6.174882842
 30
0.0
 10
14.6549714576
 20
6.1750115079
 30
0.0
 10
14.656752072
 20
6.1750548446
 30
0.0
  0
SPLINE
  5
2CC
100
AcDbEntity
  8
0
100
AcDbSpline
 62
9
  6
CONTINUOUS
 70
0
 71
3
 72
16
 73
12
 74
0
 42
0.0000001
 43
0.0000001
 44
0.0000000001
 40
0.0
 40
0.0
 40
0.0
 40
0.0
 40
0.1172714966
 40
0.2368846436
 40
0.3588563749
 40
0.4207458599
 40
0.4832220628
 40
0.6098142203
 40
0.7384301517
 40
0.8686652729
 40
1.0
 40
1.0
 40
1.0
 40
1.0
 10
7.2838502704
 20
12.2526774621
 30
0.0
 10
7.2820598458
 20
12.250544751
 30
0.0
 10
7.278581294
 20
12.2461178314
 30
0.0
 10
7.2738220725
 20
12.2390399634
 30
0.0
 10
7.2703011238
 20
12.232741285
 30
0.0
 10
7.2677995427
 20
12.2274517542
 30
0.0
 10
7.265513449
 20
12.2219465727
 30
0.0
 10
7.2631455358
 20
12.2147694326
 30
0.0
 10
7.2612057704
 20
12.2058069501
 30
0.0
 10
7.2602382632
 20
12.1965749279
 30
0.0
 10
7.2602524473
 20
12.1903509338
 30
0.0
 10
7.2604146853
 20
12.1872366108
 30
0.0
  0
SPLINE
  5
2CD
100
AcDbEntity
  8
0
100
AcDbSpline
 62
9
  6
CONTINUOUS
 70
0
 71
3
 72
22
 73
18
 74
0
 42
0.0000001
 43
0.0000001
 44
0.0000000001
 40
0.0
 40
0.0
 40
0.0
 40
0.0
 40
0.0073184476
 40
0.0161514233
 40
0.0266915773
 40
0.0390428619
 40
0.0532565003
 40
0.0693503868
 40
0.1071670396
 40
0.152355214
 40
0.2046240386
 40
0.2635813609
 40
0.3287638879
 40
0.4755938719
 40
0.6402140827
 40
0.8170222115
 40
1.0
 40
1.0
 40
1.0
 40
1.0
 10
14.6822884083
 20
4.0212325341
 30
0.0
 10
14.6823276484
 20
4.0212956054
 30
0.0
 10
14.6824344012
 20
4.0214222171
 30
0.0
 10
14.6826439717
 20
4.0215951171
 30
0.0
 10
14.6829162894
 20
4.0217681435
 30
0.0
 10
14.6832512897
 20
4.0219409794
 30
0.0
 10
14.6836486837
 20
4.0221135161
 30
0.0
 10
14.6842965156
 20
4.0223558866
 30
0.0
 10
14.6852597848
 20
4.0226484803
 30
0.0
 10
14.686593199
 20
4.022977407
 30
0.0
 10
14.6881487193
 20
4.0232966155
 30
0.0
 10
14.6899130153
 20
4.0236032538
 30
0.0
 10
14.6926337188
 20
4.0240073306
 30
0.0
 10
14.6964317177
 20
4.0244500254
 30
0.0
 10
14.7013698749
 20
4.0248743145
 30
0.0
 10
14.7066834742
 20
4.0251939207
 30
0.0
 10
14.7103331538
 20
4.0253287506
 30
0.0
 10
14.7121897522
 20
4.0253764886
 30
0.0
  0
SPLINE
  5
2CE
100
AcDbEntity
  8
0
100
AcDbSpline
 62
9
  6
CONTINUOUS
 70
0
 71
3
 72
25
 73
21
 74
0
 42
0.0000001
 43
0.0000001
 44
0.0000000001
 40
0.0
 40
0.0
 40
0.0
 40
0.0
 40
0.2104980411
 40
0.4033316141
 40
0.5743485386
 40
0.6505029389
 40
0.7198651572
 40
0.782072372
 40
0.8367976192
 40
0.88377024
 40
0.9227712193
 40
0.9392365677
 40
0.9536623595
 40
0.966052133
 40
0.9764229821
 40
0.9848165889
 40
0.991332185
 40
0.9939555341
 40
0.9962184884
 40
1.0
 40
1.0
 40
1.0
 40
1.0
 10
7.2109556466
 20
11.0783380231
 30
0.0
 10
7.212919284
 20
11.0786160674
 30
0.0
 10
7.2166791223
 20
11.0791679093
 30
0.0
 10
7.222023259
 20
11.0800185075
 30
0.0
 10
7.2261075085
 20
11.0807301081
 30
0.0
 10
7.2290374413
 20
11.0812865363
 30
0.0
 10
7.2309557861
 20
11.0816743026
 30
0.0
 10
7.2326711085
 20
11.0820466009
 30
0.0
 10
7.2341741985
 20
11.0824012598
 30
0.0
 10
7.2354569273
 20
11.0827361796
 30
0.0
 10
7.2363827041
 20
11.0830101313
 30
0.0
 10
7.2370064146
 20
11.0832215786
 30
0.0
 10
7.2373882372
 20
11.0833650102
 30
0.0
 10
7.2377107778
 20
11.0835021176
 30
0.0
 10
7.2379740073
 20
11.0836326449
 30
0.0
 10
7.238177749
 20
11.0837565101
 30
0.0
 10
7.2383073784
 20
11.0838605975
 30
0.0
 10
7.23837728
 20
11.0839427883
 30
0.0
 10
7.2384197587
 20
11.0840125899
 30
0.0
 10
7.2384328395
 20
11.0840716549
 30
0.0
 10
7.2384287354
 20
11.0841070455
 30
0.0
  0
LINE
  5
2CF
100
AcDbEntity
  8
0
100
AcDbLine
 62
9
  6
CONTINUOUS
 10
7.2214566944
 20
12.4955562231
 11
7.2139930194
 21
12.5010151574
  0
SPLINE
  5
2D0
100
AcDbEntity
  8
0
100
AcDbSpline
 62
9
  6
CONTINUOUS
 70
0
 71
3
 72
15
 73
11
 74
0
 42
0.0000001
 43
0.0000001
 44
0.0000000001
 40
0.0
 40
0.0
 40
0.0
 40
0.0
 40
0.1255059786
 40
0.2508278799
 40
0.3759815123
 40
0.5009828068
 40
0.6258556979
 40
0.7506286216
 40
0.875330888
 40
1.0
 40
1.0
 40
1.0
 40
1.0
 10
7.1964836534
 20
10.8170364137
 30
0.0
 10
7.1961211744
 20
10.8231735652
 30
0.0
 10
7.1959682134
 20
10.8354804097
 30
0.0
 10
7.1974624244
 20
10.8538626879
 30
0.0
 10
7.2006669728
 20
10.872001719
 30
0.0
 10
7.2055545294
 20
10.8897382522
 30
0.0
 10
7.2120825526
 20
10.9069189068
 30
0.0
 10
7.2201949947
 20
10.9233948774
 30
0.0
 10
7.2298200774
 20
10.9390218095
 30
0.0
 10
7.2371934563
 20
10.9487878315
 30
0.0
 10
7.2410995189
 20
10.9534821186
 30
0.0
  0
SPLINE
  5
2D1
100
AcDbEntity
  8
0
100
AcDbSpline
 62
9
  6
CONTINUOUS
 70
0
 71
3
 72
14
 73
10
 74
0
 42
0.0000001
 43
0.0000001
 44
0.0000000001
 40
0.0
 40
0.0
 40
0.0
 40
0.0
 40
0.0846285218
 40
0.1825974876
 40
0.2931278713
 40
0.4153343615
 40
0.5482343772
 40
0.6907570189
 40
1.0
 40
1.0
 40
1.0
 40
1.0
 10
7.1084340616
 20
11.0672197736
 30
0.0
 10
7.111309076
 20
11.0676661833
 30
0.0
 10
7.1175220927
 20
11.068566449
 30
0.0
 10
7.1275142415
 20
11.0698768536
 30
0.0
 10
7.1388021824
 20
11.0712370533
 30
0.0
 10
7.151294595
 20
11.0726354888
 30
0.0
 10
7.164890423
 20
11.074060419
 30
0.0
 10
7.1848937545
 20
11.0760340099
 30
0.0
 10
7.2003623541
 20
11.0774326222
 30
0.0
 10
7.210954618
 20
11.0783456674
 30
0.0
  0
SPLINE
  5
2D2
100
AcDbEntity
  8
0
100
AcDbSpline
 62
9
  6
CONTINUOUS
 70
0
 71
3
 72
15
 73
11
 74
0
 42
0.0000001
 43
0.0000001
 44
0.0000000001
 40
0.0
 40
0.0
 40
0.0
 40
0.0
 40
0.0910081046
 40
0.1934303363
 40
0.3065258769
 40
0.4294568596
 40
0.5613000315
 40
0.7010569503
 40
0.8476636222
 40
1.0
 40
1.0
 40
1.0
 40
1.0
 10
7.083031056
 20
11.4921153528
 30
0.0
 10
7.0861986396
 20
11.4929437518
 30
0.0
 10
7.0929618205
 20
11.4945874309
 30
0.0
 10
7.1037403203
 20
11.4969218655
 30
0.0
 10
7.1156912241
 20
11.4992564263
 30
0.0
 10
7.1287220827
 20
11.5015722658
 30
0.0
 10
7.1427321325
 20
11.5038508228
 30
0.0
 10
7.1576127915
 20
11.5060740267
 30
0.0
 10
7.1732486435
 20
11.5082243381
 30
0.0
 10
7.1839184395
 20
11.509575638
 30
0.0
 10
7.1893588003
 20
11.5102374429
 30
0.0
  0
SPLINE
  5
2D3
100
AcDbEntity
  8
0
100
AcDbSpline
 62
9
  6
CONTINUOUS
 70
0
 71
3
 72
14
 73
10
 74
0
 42
0.0000001
 43
0.0000001
 44
0.0000000001
 40
0.0
 40
0.0
 40
0.0
 40
0.0
 40
0.0912201715
 40
0.1942535452
 40
0.3081411817
 40
0.4318148822
 40
0.5641144101
 40
0.7037976821
 40
1.0
 40
1.0
 40
1.0
 40
1.0
 10
7.0772626413
 20
11.7713501423
 30
0.0
 10
7.0810340683
 20
11.77101873
 30
0.0
 10
7.0890706798
 20
11.7703735741
 30
0.0
 10
7.1018290576
 20
11.7694873685
 30
0.0
 10
7.1159391042
 20
11.7686304607
 30
0.0
 10
7.1312678848
 20
11.7678113852
 30
0.0
 10
7.1476709181
 20
11.7670381747
 30
0.0
 10
7.1712323757
 20
11.7660593415
 30
0.0
 10
7.1893131875
 20
11.765447455
 30
0.0
 10
7.2016012717
 20
11.7650844177
 30
0.0
  0
SPLINE
  5
2D4
100
AcDbEntity
  8
0
100
AcDbSpline
 62
9
  6
CONTINUOUS
 70
0
 71
3
 72
16
 73
12
 74
0
 42
0.0000001
 43
0.0000001
 44
0.0000000001
 40
0.0
 40
0.0
 40
0.0
 40
0.0
 40
0.0429229237
 40
0.0894236757
 40
0.192445184
 40
0.3075571956
 40
0.4330585878
 40
0.5670895813
 40
0.707660913
 40
0.8526813605
 40
1.0
 40
1.0
 40
1.0
 40
1.0
 10
7.0927716267
 20
12.157008211
 30
0.0
 10
7.0951110706
 20
12.1566385119
 30
0.0
 10
7.0999899948
 20
12.1558999614
 30
0.0
 10
7.1105057411
 20
12.154421159
 30
0.0
 10
7.1249934564
 20
12.1525885578
 30
0.0
 10
7.1438368437
 20
12.15046984
 30
0.0
 10
7.1644057954
 20
12.1483965284
 30
0.0
 10
7.1863932852
 20
12.1464002086
 30
0.0
 10
7.2094710764
 20
12.1445114202
 30
0.0
 10
7.2332948103
 20
12.1427586707
 30
0.0
 10
7.2493915158
 20
12.1417014816
 30
0.0
 10
7.2575050408
 20
12.1412000838
 30
0.0
  0
LINE
  5
2D5
100
AcDbEntity
  8
0
100
AcDbLine
 62
7
  6
CONTINUOUS
 10
7.3093199815
 20
12.1624385298
 11
7.3094747548
 21
12.162411848
  0
SPLINE
  5
2D6
100
AcDbEntity
  8
0
100
AcDbSpline
 62
9
  6
CONTINUOUS
 70
0
 71
3
 72
15
 73
11
 74
0
 42
0.0000001
 43
0.0000001
 44
0.0000000001
 40
0.0
 40
0.0
 40
0.0
 40
0.0
 40
0.1252916317
 40
0.2505200341
 40
0.3756623881
 40
0.5007005203
 40
0.6256349391
 40
0.7504796653
 40
0.8752557569
 40
1.0
 40
1.0
 40
1.0
 40
1.0
 10
7.3746419758
 20
12.151095507
 30
0.0
 10
7.37691681
 20
12.1507039984
 30
0.0
 10
7.3814035702
 20
12.1495029155
 30
0.0
 10
7.3877005718
 20
12.146550297
 30
0.0
 10
7.3933814198
 20
12.1425419525
 30
0.0
 10
7.3982689213
 20
12.1376064843
 30
0.0
 10
7.4022267024
 20
12.131905648
 30
0.0
 10
7.4051395751
 20
12.125611759
 30
0.0
 10
7.4069343538
 20
12.1189191914
 30
0.0
 10
7.4073529313
 20
12.1143142844
 30
0.0
 10
7.4073621956
 20
12.1120161093
 30
0.0
  0
SPLINE
  5
2D7
100
AcDbEntity
  8
0
100
AcDbSpline
 62
9
  6
CONTINUOUS
 70
0
 71
3
 72
17
 73
13
 74
0
 42
0.0000001
 43
0.0000001
 44
0.0000000001
 40
0.0
 40
0.0
 40
0.0
 40
0.0
 40
0.1246750026
 40
0.2493920958
 40
0.3118528186
 40
0.3743368552
 40
0.4992437342
 40
0.6242678867
 40
0.6868970448
 40
0.7495519434
 40
0.8747600639
 40
1.0
 40
1.0
 40
1.0
 40
1.0
 10
7.4119823049
 20
11.1429461614
 30
0.0
 10
7.4119973758
 20
11.140378382
 30
0.0
 10
7.4115258017
 20
11.1352265081
 30
0.0
 10
7.4097210101
 20
11.1290200854
 30
0.0
 10
7.4075905967
 20
11.1243322666
 30
0.0
 10
7.405015773
 20
11.119868699
 30
0.0
 10
7.4010008254
 20
11.1147853461
 30
0.0
 10
7.3960721469
 20
11.1105760498
 30
0.0
 10
7.3916962966
 20
11.1078363998
 30
0.0
 10
7.3870675972
 20
11.1055407538
 30
0.0
 10
7.3808904025
 20
11.1035440081
 30
0.0
 10
7.3757254456
 20
11.1029522974
 30
0.0
 10
7.3731461653
 20
11.1029219281
 30
0.0
  0
LINE
  5
2D8
100
AcDbEntity
  8
0
100
AcDbLine
 62
7
  6
CONTINUOUS
 10
7.3731464268
 20
11.1029012959
 11
7.2367685117
 21
11.1010648461
  0
LINE
  5
2D9
100
AcDbEntity
  8
0
100
AcDbLine
 62
7
  6
CONTINUOUS
 10
7.2367685117
 20
11.1010648461
 11
7.2365114389
 21
11.1010613779
  0
SPLINE
  5
2DA
100
AcDbEntity
  8
0
100
AcDbSpline
 62
9
  6
CONTINUOUS
 70
0
 71
3
 72
16
 73
12
 74
0
 42
0.0000001
 43
0.0000001
 44
0.0000000001
 40
0.0
 40
0.0
 40
0.0
 40
0.0
 40
0.0429222074
 40
0.0894227604
 40
0.1924451234
 40
0.3075591085
 40
0.4330628366
 40
0.5670956972
 40
0.7076675454
 40
0.8526862535
 40
1.0
 40
1.0
 40
1.0
 40
1.0
 10
7.0956948926
 20
12.2036310355
 30
0.0
 10
7.0980335818
 20
12.2032529198
 30
0.0
 10
7.1029110815
 20
12.2024968343
 30
0.0
 10
7.1134242708
 20
12.2009803002
 30
0.0
 10
7.1279093507
 20
12.1990958343
 30
0.0
 10
7.1467503568
 20
12.1969098208
 30
0.0
 10
7.1673175965
 20
12.1947632041
 30
0.0
 10
7.1893039388
 20
12.1926886778
 30
0.0
 10
7.2123810255
 20
12.1907179627
 30
0.0
 10
7.2362043608
 20
12.1888808014
 30
0.0
 10
7.2523011113
 20
12.187766677
 30
0.0
 10
7.2604146853
 20
12.1872366103
 30
0.0
  0
SPLINE
  5
2DB
100
AcDbEntity
  8
0
100
AcDbSpline
 62
9
  6
CONTINUOUS
 70
0
 71
3
 72
19
 73
15
 74
0
 42
0.0000001
 43
0.0000001
 44
0.0000000001
 40
0.0
 40
0.0
 40
0.0
 40
0.0
 40
0.0506381804
 40
0.1034544119
 40
0.158385233
 40
0.2153512779
 40
0.2742401718
 40
0.3349185286
 40
0.3972336284
 40
0.4610159003
 40
0.5922116545
 40
0.7269325128
 40
0.8634549456
 40
1.0
 40
1.0
 40
1.0
 40
1.0
 10
7.1271198683
 20
12.3651379936
 30
0.0
 10
7.1288395407
 20
12.3623046521
 30
0.0
 10
7.1325513515
 20
12.3566347236
 30
0.0
 10
7.1387527237
 20
12.3483205234
 30
0.0
 10
7.1456792219
 20
12.3400521263
 30
0.0
 10
7.1532990245
 20
12.3318668785
 30
0.0
 10
7.1615784243
 20
12.3238010612
 30
0.0
 10
7.1704801248
 20
12.3158908276
 30
0.0
 10
7.1799643123
 20
12.3081714084
 30
0.0
 10
7.1934555871
 20
12.2980859227
 30
0.0
 10
7.2114978254
 20
12.2862054399
 30
0.0
 10
7.2345217165
 20
12.2733643806
 30
0.0
 10
7.2587115472
 20
12.2620347426
 30
0.0
 10
7.2754026967
 20
12.2555953189
 30
0.0
 10
7.2838499989
 20
12.2526770953
 30
0.0
  0
SPLINE
  5
2DC
100
AcDbEntity
  8
0
100
AcDbSpline
 62
9
  6
CONTINUOUS
 70
0
 71
3
 72
23
 73
19
 74
0
 42
0.0000001
 43
0.0000001
 44
0.0000000001
 40
0.0
 40
0.0
 40
0.0
 40
0.0
 40
0.0629412807
 40
0.1258291726
 40
0.1886517948
 40
0.2514107677
 40
0.3141021656
 40
0.3767258147
 40
0.4392823187
 40
0.5017737043
 40
0.5642033494
 40
0.6265758842
 40
0.6888970679
 40
0.7511736436
 40
0.8134138467
 40
0.8756242931
 40
0.9378189319
 40
1.0
 40
1.0
 40
1.0
 40
1.0
 10
7.2139924661
 20
12.5010151922
 30
0.0
 10
7.2136421414
 20
12.496311948
 30
0.0
 10
7.2132720562
 20
12.4868814669
 30
0.0
 10
7.21371295
 20
12.4727412736
 30
0.0
 10
7.2151480961
 20
12.4586801671
 30
0.0
 10
7.2175699166
 20
12.4447701439
 30
0.0
 10
7.2209665358
 20
12.4310807774
 30
0.0
 10
7.225320779
 20
12.4176811779
 30
0.0
 10
7.2306107787
 20
12.4046387966
 30
0.0
 10
7.2368098906
 20
12.392019334
 30
0.0
 10
7.2438869107
 20
12.3798863552
 30
0.0
 10
7.2518062293
 20
12.3683009917
 30
0.0
 10
7.2605279923
 20
12.3573216456
 30
0.0
 10
7.2700082988
 20
12.3470035945
 30
0.0
 10
7.2801993192
 20
12.3373990101
 30
0.0
 10
7.2910499651
 20
12.3285557872
 30
0.0
 10
7.3025047591
 20
12.3205194797
 30
0.0
 10
7.3105078355
 20
12.3157252788
 30
0.0
 10
7.3145885216
 20
12.3134764646
 30
0.0
  0
SPLINE
  5
2DD
100
AcDbEntity
  8
0
100
AcDbSpline
 62
9
  6
CONTINUOUS
 70
0
 71
3
 72
37
 73
33
 74
0
 42
0.0000001
 43
0.0000001
 44
0.0000000001
 40
0.0
 40
0.0
 40
0.0
 40
0.0
 40
0.1014704942
 40
0.2014408119
 40
0.2989664914
 40
0.3931388465
 40
0.483076728
 40
0.5679387217
 40
0.6469235414
 40
0.7192699983
 40
0.7843055003
 40
0.8138793269
 40
0.8413995046
 40
0.8668057093
 40
0.89004261
 40
0.9110572356
 40
0.9298001596
 40
0.9462298768
 40
0.9603270932
 40
0.9720814424
 40
0.9770793642
 40
0.9814928876
 40
0.9853281248
 40
0.9885994052
 40
0.9913305057
 40
0.9925060682
 40
0.9935641422
 40
0.9953697409
 40
0.996888301
 40
0.997612052
 40
0.9983530733
 40
1.0
 40
1.0
 40
1.0
 40
1.0
 10
7.2109554853
 20
11.0783380535
 30
0.0
 10
7.2113777215
 20
11.0739644394
 30
0.0
 10
7.2123254016
 20
11.0652920925
 30
0.0
 10
7.2140384763
 20
11.0524587102
 30
0.0
 10
7.2160047701
 20
11.0399815206
 30
0.0
 10
7.218172493
 20
11.0279791294
 30
0.0
 10
7.2204896894
 20
11.0165638326
 30
0.0
 10
7.2229002641
 20
11.0058411082
 30
0.0
 10
7.2253475357
 20
10.9959096598
 30
0.0
 10
7.227773163
 20
10.9868591935
 30
0.0
 10
7.2297872949
 20
10.9799151376
 30
0.0
 10
7.2313486264
 20
10.9748622148
 30
0.0
 10
7.2324436584
 20
10.9714616003
 30
0.0
 10
7.2334939226
 20
10.9683351177
 30
0.0
 10
7.2344949035
 20
10.9654895578
 30
0.0
 10
7.2354421041
 20
10.9629313031
 30
0.0
 10
7.2363312175
 20
10.9606663264
 30
0.0
 10
7.2371582629
 20
10.9586993205
 30
0.0
 10
7.2379200155
 20
10.9570340855
 30
0.0
 10
7.2385258851
 20
10.9558427148
 30
0.0
 10
7.2389812679
 20
10.9550470901
 30
0.0
 10
7.23928622
 20
10.9545610247
 30
0.0
 10
7.2395732198
 20
10.9541526158
 30
0.0
 10
7.2398420899
 20
10.9538216855
 30
0.0
 10
7.2400608916
 20
10.9535997625
 30
0.0
 10
7.2402281385
 20
10.9534642194
 30
0.0
 10
7.2403734292
 20
10.9533666843
 30
0.0
 10
7.2405470349
 20
10.9532846195
 30
0.0
 10
7.2407263205
 20
10.9532661399
 30
0.0
 10
7.2408530217
 20
10.9532962242
 30
0.0
 10
7.2409753252
 20
10.953354827
 30
0.0
 10
7.2410528592
 20
10.9534271866
 30
0.0
 10
7.2410986861
 20
10.9534818302
 30
0.0
  0
SPLINE
  5
2DE
100
AcDbEntity
  8
0
100
AcDbSpline
 62
9
  6
CONTINUOUS
 70
0
 71
3
 72
41
 73
37
 74
0
 42
0.0000001
 43
0.0000001
 44
0.0000000001
 40
0.0
 40
0.0
 40
0.0
 40
0.0
 40
0.0311732171
 40
0.0623591367
 40
0.0935574922
 40
0.1247680228
 40
0.1559903763
 40
0.1872239566
 40
0.2184681578
 40
0.2497223659
 40
0.2809856459
 40
0.3122572423
 40
0.3435360631
 40
0.3748209043
 40
0.4061106289
 40
0.4374041769
 40
0.4530531674
 40
0.4687026315
 40
0.5000000002
 40
0.5312973683
 40
0.5469468325
 40
0.5625958233
 40
0.5938893704
 40
0.6251790954
 40
0.656463936
 40
0.6877427576
 40
0.719014354
 40
0.7502776353
 40
0.7815318423
 40
0.812776044
 40
0.8440096239
 40
0.8752319774
 40
0.9064425082
 40
0.9376408637
 40
0.9688267813
 40
1.0
 40
1.0
 40
1.0
 40
1.0
 10
15.7128895355
 20
1.9788357106
 30
0.0
 10
15.7000027221
 20
1.9654329165
 30
0.0
 10
15.6735341716
 20
1.9392753851
 30
0.0
 10
15.6318863891
 20
1.9021021547
 30
0.0
 10
15.5883997246
 20
1.8670603705
 30
0.0
 10
15.5431876043
 20
1.8342387612
 30
0.0
 10
15.4963673713
 20
1.8037165125
 30
0.0
 10
15.4480584427
 20
1.7755698833
 30
0.0
 10
15.3983807817
 20
1.7498745312
 30
0.0
 10
15.3474573561
 20
1.7267029498
 30
0.0
 10
15.295412572
 20
1.7061279611
 30
0.0
 10
15.2423754084
 20
1.6882204868
 30
0.0
 10
15.1884936688
 20
1.6729972714
 30
0.0
 10
15.1339093748
 20
1.6604774017
 30
0.0
 10
15.0787624147
 20
1.6506838267
 30
0.0
 10
15.032448899
 20
1.6448256278
 30
0.0
 10
14.9952577427
 20
1.6415384158
 30
0.0
 10
14.9579931535
 20
1.6391900549
 30
0.0
 10
14.9113185464
 20
1.638016265
 30
0.0
 10
14.8646439428
 20
1.6391901487
 30
0.0
 10
14.8273793547
 20
1.6415385164
 30
0.0
 10
14.7901881942
 20
1.6448256717
 30
0.0
 10
14.7438746655
 20
1.6506837735
 30
0.0
 10
14.6887277073
 20
1.6604773697
 30
0.0
 10
14.6341434349
 20
1.6729973343
 30
0.0
 10
14.5802616999
 20
1.6882205572
 30
0.0
 10
14.5272244906
 20
1.7061278958
 30
0.0
 10
14.4751796654
 20
1.7267027874
 30
0.0
 10
14.4242562723
 20
1.7498744494
 30
0.0
 10
14.3745786957
 20
1.7755699603
 30
0.0
 10
14.3262697577
 20
1.8037165669
 30
0.0
 10
14.2794494685
 20
1.8342387292
 30
0.0
 10
14.2342373115
 20
1.8670602907
 30
0.0
 10
14.1907506885
 20
1.9021021291
 30
0.0
 10
14.1491030335
 20
1.9392755018
 30
0.0
 10
14.1226344898
 20
1.9654330346
 30
0.0
 10
14.1097476452
 20
1.9788358001
 30
0.0
  0
SPLINE
  5
2DF
100
AcDbEntity
  8
0
100
AcDbSpline
 62
9
  6
CONTINUOUS
 70
0
 71
3
 72
21
 73
17
 74
0
 42
0.0000001
 43
0.0000001
 44
0.0000000001
 40
0.0
 40
0.0
 40
0.0
 40
0.0
 40
0.007679937
 40
0.0169186826
 40
0.0278721277
 40
0.0406242906
 40
0.0716475283
 40
0.1100565866
 40
0.155688091
 40
0.2082468049
 40
0.2673425114
 40
0.3325177106
 40
0.4789355886
 40
0.6427016918
 40
0.8183456467
 40
1.0
 40
1.0
 40
1.0
 40
1.0
 10
15.1405979085
 20
4.0225151887
 30
0.0
 10
15.1405518595
 20
4.0225778825
 30
0.0
 10
15.1404326883
 20
4.0227029365
 30
0.0
 10
15.1402073739
 20
4.0228740848
 30
0.0
 10
15.1399204044
 20
4.023045432
 30
0.0
 10
15.1394223359
 20
4.0232897481
 30
0.0
 10
15.1386419966
 20
4.0235840547
 30
0.0
 10
15.1375240892
 20
4.0239152253
 30
0.0
 10
15.1361785755
 20
4.0242397338
 30
0.0
 10
15.1346166064
 20
4.0245545241
 30
0.0
 10
15.1328509667
 20
4.0248565478
 30
0.0
 10
15.1301379577
 20
4.0252538665
 30
0.0
 10
15.1263601267
 20
4.0256890238
 30
0.0
 10
15.1214564233
 20
4.0261058502
 30
0.0
 10
15.1161875063
 20
4.0264195206
 30
0.0
 10
15.1125705703
 20
4.0265517279
 30
0.0
 10
15.1107312285
 20
4.0265984928
 30
0.0
  0
SPLINE
  5
2E0
100
AcDbEntity
  8
0
100
AcDbSpline
 62
9
  6
CONTINUOUS
 70
0
 71
3
 72
21
 73
17
 74
0
 42
0.0000001
 43
0.0000001
 44
0.0000000001
 40
0.0
 40
0.0
 40
0.0
 40
0.0
 40
0.0089386022
 40
0.0196034287
 40
0.0461031023
 40
0.0619470382
 40
0.0795243583
 40
0.119852628
 40
0.1669153552
 40
0.2203971512
 40
0.2799155283
 40
0.3450355593
 40
0.4900434348
 40
0.6509563144
 40
0.8227339373
 40
1.0
 40
1.0
 40
1.0
 40
1.0
 10
15.1955877442
 20
6.1711561833
 30
0.0
 10
15.1955193522
 20
6.1712143939
 30
0.0
 10
15.1953604762
 20
6.1713316445
 30
0.0
 10
15.1949633984
 20
6.1715710048
 30
0.0
 10
15.1944764738
 20
6.1717912644
 30
0.0
 10
15.1939114854
 20
6.1719991967
 30
0.0
 10
15.193206087
 20
6.1722268366
 30
0.0
 10
15.1921874015
 20
6.1725019238
 30
0.0
 10
15.1908064274
 20
6.1728135654
 30
0.0
 10
15.1892263071
 20
6.1731143207
 30
0.0
 10
15.1874597237
 20
6.1734018416
 30
0.0
 10
15.1847765712
 20
6.1737783752
 30
0.0
 10
15.1810706755
 20
6.1741908693
 30
0.0
 10
15.1762868355
 20
6.1745865941
 30
0.0
 10
15.1711712086
 20
6.1748829622
 30
0.0
 10
15.1676662036
 20
6.1750115479
 30
0.0
 10
15.1658856504
 20
6.1750548445
 30
0.0
  0
SPLINE
  5
2E1
100
AcDbEntity
  8
0
100
AcDbSpline
 62
9
  6
CONTINUOUS
 70
0
 71
3
 72
35
 73
31
 74
0
 42
0.0000001
 43
0.0000001
 44
0.0000000001
 40
0.0
 40
0.0
 40
0.0
 40
0.0
 40
0.0001140415
 40
0.0003313532
 40
0.0011413975
 40
0.0024760796
 40
0.0043470456
 40
0.0067627049
 40
0.0097305599
 40
0.0132577605
 40
0.0173512914
 40
0.0220180494
 40
0.0272648809
 40
0.0395259867
 40
0.0541889362
 40
0.0713078647
 40
0.0909156017
 40
0.1129595147
 40
0.1373654443
 40
0.1640592055
 40
0.1929665969
 40
0.2240134064
 40
0.2922283894
 40
0.3679819381
 40
0.4500348099
 40
0.5370176424
 40
0.6275610406
 40
0.7203273647
 40
0.8141072792
 40
1.0
 40
1.0
 40
1.0
 40
1.0
 10
7.3733981569
 20
11.0500666434
 30
0.0
 10
7.3734001655
 20
11.0500666704
 30
0.0
 10
7.3734048452
 20
11.0500716693
 30
0.0
 10
7.3734113831
 20
11.0500900438
 30
0.0
 10
7.3734195483
 20
11.0501316243
 30
0.0
 10
7.3734278261
 20
11.0502014934
 30
0.0
 10
7.373436338
 20
11.0503003289
 30
0.0
 10
7.3734445145
 20
11.0504277883
 30
0.0
 10
7.3734524554
 20
11.0505845723
 30
0.0
 10
7.3734600544
 20
11.050770923
 30
0.0
 10
7.3734673062
 20
11.0509872427
 30
0.0
 10
7.3734741828
 20
11.0512338743
 30
0.0
 10
7.373483307
 20
11.0516243636
 30
0.0
 10
7.3734933165
 20
11.0521909507
 30
0.0
 10
7.3735031089
 20
11.0529666827
 30
0.0
 10
7.3735110617
 20
11.0538718479
 30
0.0
 10
7.3735170636
 20
11.0549070415
 30
0.0
 10
7.3735211048
 20
11.0560706013
 30
0.0
 10
7.3735231531
 20
11.0573589826
 30
0.0
 10
7.3735231816
 20
11.0587682616
 30
0.0
 10
7.3735211668
 20
11.0602945144
 30
0.0
 10
7.3735155405
 20
11.0625521339
 30
0.0
 10
7.3735029403
 20
11.0656349043
 30
0.0
 10
7.3734799601
 20
11.0696160757
 30
0.0
 10
7.3734493356
 20
11.0739277892
 30
0.0
 10
7.3734117551
 20
11.0784999714
 30
0.0
 10
7.3733679395
 20
11.0832608175
 30
0.0
 10
7.3733185886
 20
11.0881413424
 30
0.0
 10
7.3732469817
 20
11.094701249
 30
0.0
 10
7.3731878856
 20
11.0996271684
 30
0.0
 10
7.3731464261
 20
11.1029012987
 30
0.0
  0
SPLINE
  5
2E2
100
AcDbEntity
  8
0
100
AcDbSpline
 62
9
  6
CONTINUOUS
 70
0
 71
3
 72
28
 73
24
 74
0
 42
0.0000001
 43
0.0000001
 44
0.0000000001
 40
0.0
 40
0.0
 40
0.0
 40
0.0
 40
0.1799793663
 40
0.3634840651
 40
0.4533893797
 40
0.5400931952
 40
0.6220468878
 40
0.6978764885
 40
0.7663354764
 40
0.8265006597
 40
0.8776289089
 40
0.899683507
 40
0.9193546313
 40
0.9366324133
 40
0.951581771
 40
0.9642939479
 40
0.9748760846
 40
0.9834648033
 40
0.990255528
 40
0.9930753914
 40
0.9955833708
 40
0.9978584735
 40
1.0
 40
1.0
 40
1.0
 40
1.0
 10
7.4073621956
 20
12.1120161086
 30
0.0
 10
7.4109274206
 20
12.1120300933
 30
0.0
 10
7.4181280738
 20
12.1119940759
 30
0.0
 10
7.4271076338
 20
12.1117869151
 30
0.0
 10
7.4342357144
 20
12.1115031567
 30
0.0
 10
7.4393508653
 20
12.1112368511
 30
0.0
 10
7.4441835792
 20
12.1109170714
 30
0.0
 10
7.4486503527
 20
12.11054897
 30
0.0
 10
7.4526797271
 20
12.1101367379
 30
0.0
 10
7.4562125828
 20
12.1096888498
 30
0.0
 10
7.4588220939
 20
12.1092741849
 30
0.0
 10
7.4606278772
 20
12.1089234083
 30
0.0
 10
7.4617690046
 20
12.1086697015
 30
0.0
 10
7.4627647298
 20
12.1084129351
 30
0.0
 10
7.4636169332
 20
12.1081543895
 30
0.0
 10
7.4643292626
 20
12.1078951996
 30
0.0
 10
7.4649062496
 20
12.1076361923
 30
0.0
 10
7.4653522083
 20
12.1073782133
 30
0.0
 10
7.4656356632
 20
12.1071509412
 30
0.0
 10
7.4657911372
 20
12.1069670277
 30
0.0
 10
7.4658695709
 20
12.1068375487
 30
0.0
 10
7.4659171916
 20
12.1067078877
 30
0.0
 10
7.4659282618
 20
12.1066201497
 30
0.0
 10
7.465928464
 20
12.1065777282
 30
0.0
  0
SPLINE
  5
2E3
100
AcDbEntity
  8
0
100
AcDbSpline
 62
9
  6
CONTINUOUS
 70
0
 71
3
 72
28
 73
24
 74
0
 42
0.0000001
 43
0.0000001
 44
0.0000000001
 40
0.0
 40
0.0
 40
0.0
 40
0.0
 40
0.0021448023
 40
0.0044230283
 40
0.0069338758
 40
0.0097563168
 40
0.0165513642
 40
0.0251434902
 40
0.0357283076
 40
0.0484425588
 40
0.0633934523
 40
0.0806722655
 40
0.1003440628
 40
0.1223991071
 40
0.1735274851
 40
0.2336919078
 40
0.3021493844
 40
0.3779767986
 40
0.4599278035
 40
0.5466285184
 40
0.6365304989
 40
0.8200279807
 40
1.0
 40
1.0
 40
1.0
 40
1.0
 10
7.4704939841
 20
11.148951881
 30
0.0
 10
7.4704941891
 20
11.1489093929
 30
0.0
 10
7.4704839628
 20
11.1488214227
 30
0.0
 10
7.4704375902
 20
11.1486911103
 30
0.0
 10
7.4703604009
 20
11.1485606814
 30
0.0
 10
7.470206707
 20
11.1483750134
 30
0.0
 10
7.4699254466
 20
11.148144681
 30
0.0
 10
7.469481954
 20
11.1478820334
 30
0.0
 10
7.4689074513
 20
11.14761711
 30
0.0
 10
7.4681976178
 20
11.147350715
 30
0.0
 10
7.4673479162
 20
11.1470836323
 30
0.0
 10
7.4663546875
 20
11.1468169623
 30
0.0
 10
7.465216035
 20
11.1465519703
 30
0.0
 10
7.4634136939
 20
11.1461834184
 30
0.0
 10
7.4608082643
 20
11.1457432061
 30
0.0
 10
7.4572798381
 20
11.1452609071
 30
0.0
 10
7.4532545784
 20
11.1448095818
 30
0.0
 10
7.4487915199
 20
11.1443982823
 30
0.0
 10
7.4439620781
 20
11.1440318884
 30
0.0
 10
7.4388497011
 20
11.1437163562
 30
0.0
 10
7.4317246573
 20
11.1433641357
 30
0.0
 10
7.4227474837
 20
11.1430709635
 30
0.0
 10
7.4155474995
 20
11.1429661778
 30
0.0
 10
7.4119823048
 20
11.1429461629
 30
0.0
  0
SPLINE
  5
2E4
100
AcDbEntity
  8
0
100
AcDbSpline
 62
9
  6
CONTINUOUS
 70
0
 71
3
 72
33
 73
29
 74
0
 42
0.0000001
 43
0.0000001
 44
0.0000000001
 40
0.0
 40
0.0
 40
0.0
 40
0.0
 40
0.000130378
 40
0.0003548823
 40
0.0011697415
 40
0.002504935
 40
0.0043745719
 40
0.0067879282
 40
0.0097529152
 40
0.0132769129
 40
0.0173670523
 40
0.027273634
 40
0.039527946
 40
0.0541846576
 40
0.0712981878
 40
0.0909015976
 40
0.1129423359
 40
0.1373462509
 40
0.1640391521
 40
0.2239950202
 40
0.2922160742
 40
0.3679790974
 40
0.4500427276
 40
0.5370356895
 40
0.6275866584
 40
0.7203563911
 40
0.81413421
 40
1.0
 40
1.0
 40
1.0
 40
1.0
 10
7.3841336496
 20
12.2031185539
 30
0.0
 10
7.3841313959
 20
12.2031190069
 30
0.0
 10
7.3841250561
 20
12.2031157284
 30
0.0
 10
7.3841133372
 20
12.2030989846
 30
0.0
 10
7.3840960698
 20
12.2030603094
 30
0.0
 10
7.3840729702
 20
12.202993507
 30
0.0
 10
7.384044494
 20
12.202898514
 30
0.0
 10
7.3840110103
 20
12.2027752184
 30
0.0
 10
7.3839724171
 20
12.2026230587
 30
0.0
 10
7.3839287366
 20
12.2024417242
 30
0.0
 10
7.3838590895
 20
12.2021407612
 30
0.0
 10
7.3837595903
 20
12.201688735
 30
0.0
 10
7.3836255086
 20
12.2010535898
 30
0.0
 10
7.3834699406
 20
12.200293129
 30
0.0
 10
7.3832925664
 20
12.199404884
 30
0.0
 10
7.3830934312
 20
12.1983882324
 30
0.0
 10
7.3828728478
 20
12.1972448066
 30
0.0
 10
7.3826315128
 20
12.1959780869
 30
0.0
 10
7.3822687826
 20
12.1940539854
 30
0.0
 10
7.3817697219
 20
12.191369433
 30
0.0
 10
7.3811213727
 20
12.1878326583
 30
0.0
 10
7.3804108753
 20
12.1839110038
 30
0.0
 10
7.3796482977
 20
12.1796624321
 30
0.0
 10
7.3788458325
 20
12.1751561284
 30
0.0
 10
7.3780159371
 20
12.1704629821
 30
0.0
 10
7.3771705734
 20
12.1656510931
 30
0.0
 10
7.3760408045
 20
12.1591829204
 30
0.0
 10
7.3751989068
 20
12.1543248735
 30
0.0
 10
7.3746419761
 20
12.151095507
 30
0.0
  0
SPLINE
  5
2E5
100
AcDbEntity
  8
0
100
AcDbSpline
 62
9
  6
CONTINUOUS
 70
0
 71
3
 72
15
 73
11
 74
0
 42
0.0000001
 43
0.0000001
 44
0.0000000001
 40
0.0
 40
0.0
 40
0.0
 40
0.0
 40
0.1255406588
 40
0.2510310188
 40
0.3764005998
 40
0.5015772106
 40
0.6265161292
 40
0.7511981729
 40
0.8756513307
 40
1.0
 40
1.0
 40
1.0
 40
1.0
 10
15.1955877442
 20
6.1711561833
 30
0.0
 10
15.195600623
 20
6.173123797
 30
0.0
 10
15.1952339207
 20
6.1770710631
 30
0.0
 10
15.1935566912
 20
6.1827640454
 30
0.0
 10
15.1908060731
 20
6.1880199773
 30
0.0
 10
15.187090212
 20
6.1926322756
 30
0.0
 10
15.1825533383
 20
6.196423479
 30
0.0
 10
15.1773705057
 20
6.1992464176
 30
0.0
 10
15.1717444248
 20
6.2009918124
 30
0.0
 10
15.1678346183
 20
6.2013903216
 30
0.0
 10
15.1658856504
 20
6.2013948871
 30
0.0
  0
SPLINE
  5
2E6
100
AcDbEntity
  8
0
100
AcDbSpline
 62
9
  6
CONTINUOUS
 70
0
 71
3
 72
15
 73
11
 74
0
 42
0.0000001
 43
0.0000001
 44
0.0000000001
 40
0.0
 40
0.0
 40
0.0
 40
0.0
 40
0.1255403268
 40
0.2510329253
 40
0.3764056854
 40
0.5015766405
 40
0.6265083007
 40
0.7511985394
 40
0.8756662819
 40
1.0
 40
1.0
 40
1.0
 40
1.0
 10
14.6270497863
 20
6.1711553598
 30
0.0
 10
14.6270363332
 20
6.173123009
 30
0.0
 10
14.6274024055
 20
6.1770705648
 30
0.0
 10
14.6290807358
 20
6.182763495
 30
0.0
 10
14.631831716
 20
6.1880192868
 30
0.0
 10
14.6355470191
 20
6.1926319655
 30
0.0
 10
14.6400836592
 20
6.1964236161
 30
0.0
 10
14.6452670484
 20
6.1992464129
 30
0.0
 10
14.6508934467
 20
6.2009915077
 30
0.0
 10
14.6548032944
 20
6.2013903095
 30
0.0
 10
14.656752072
 20
6.2013948871
 30
0.0
  0
SPLINE
  5
2E7
100
AcDbEntity
  8
0
100
AcDbSpline
 62
9
  6
CONTINUOUS
 70
0
 71
3
 72
20
 73
16
 74
0
 42
0.0000001
 43
0.0000001
 44
0.0000000001
 40
0.0
 40
0.0
 40
0.0
 40
0.0
 40
0.0086546362
 40
0.0154484745
 40
0.0241637253
 40
0.034859025
 40
0.0475461746
 40
0.0788496731
 40
0.1179403313
 40
0.1646231662
 40
0.2798635364
 40
0.4227412919
 40
0.5915667442
 40
0.7846363684
 40
1.0
 40
1.0
 40
1.0
 40
1.0
 10
15.2061492548
 20
6.1726210642
 30
0.0
 10
15.2061483131
 20
6.172590154
 30
0.0
 10
15.2061044093
 20
6.1725430414
 30
0.0
 10
15.2060325638
 20
6.1724994974
 30
0.0
 10
15.2059468509
 20
6.1724594609
 30
0.0
 10
15.2058395363
 20
6.1724196161
 30
0.0
 10
15.2056529223
 20
6.1723610352
 30
0.0
 10
15.2053647795
 20
6.1722890905
 30
0.0
 10
15.2049549372
 20
6.172204814
 30
0.0
 10
15.2042474199
 20
6.1720806791
 30
0.0
 10
15.203169131
 20
6.1719261003
 30
0.0
 10
15.2016546227
 20
6.1717425821
 30
0.0
 10
15.1998610442
 20
6.1715518228
 30
0.0
 10
15.1978078684
 20
6.171354228
 30
0.0
 10
15.196354311
 20
6.1712236647
 30
0.0
 10
15.1955877442
 20
6.1711561833
 30
0.0
  0
SPLINE
  5
2E8
100
AcDbEntity
  8
0
100
AcDbSpline
 62
9
  6
CONTINUOUS
 70
0
 71
3
 72
13
 73
9
 74
0
 42
0.0000001
 43
0.0000001
 44
0.0000000001
 40
0.0
 40
0.0
 40
0.0
 40
0.0
 40
0.2648932281
 40
0.5175000568
 40
0.6402593613
 40
0.7612086208
 40
0.8809364442
 40
1.0
 40
1.0
 40
1.0
 40
1.0
 10
7.4669400732
 20
11.8944124439
 30
0.0
 10
7.4681750708
 20
11.8957415987
 30
0.0
 10
7.4703925345
 20
11.8985305921
 30
0.0
 10
7.4724914501
 20
11.9024112164
 30
0.0
 10
7.4736615129
 20
11.9056080622
 30
0.0
 10
7.4742830963
 20
11.9080230096
 30
0.0
 10
7.4746525896
 20
11.9104632685
 30
0.0
 10
7.4747298495
 20
11.9121004763
 30
0.0
 10
7.4747259616
 20
11.9129159773
 30
0.0
  0
SPLINE
  5
2E9
100
AcDbEntity
  8
0
100
AcDbSpline
 62
9
  6
CONTINUOUS
 70
0
 71
3
 72
26
 73
22
 74
0
 42
0.0000001
 43
0.0000001
 44
0.0000000001
 40
0.0
 40
0.0
 40
0.0
 40
0.0
 40
0.0626408279
 40
0.1252791274
 40
0.1879107199
 40
0.2505280168
 40
0.3131238737
 40
0.3444170211
 40
0.3757043442
 40
0.4382555269
 40
0.5007881103
 40
0.5632976473
 40
0.6257771401
 40
0.6882209235
 40
0.719433447
 40
0.7506375617
 40
0.781834401
 40
0.8130247209
 40
0.8753777551
 40
0.9377040149
 40
1.0
 40
1.0
 40
1.0
 40
1.0
 10
14.9113185426
 20
1.4998546015
 30
0.0
 10
14.891156538
 20
1.4998546015
 30
0.0
 10
14.8508204078
 20
1.5012174226
 30
0.0
 10
14.7906019097
 20
1.507296751
 30
0.0
 10
14.7309241835
 20
1.517357657
 30
0.0
 10
14.6720593614
 20
1.5313464084
 30
0.0
 10
14.6238936023
 20
1.5462368621
 30
0.0
 10
14.5860414799
 20
1.5600585762
 30
0.0
 10
14.5486903441
 20
1.5751437729
 30
0.0
 10
14.5030002318
 20
1.5963511791
 30
0.0
 10
14.4500167458
 20
1.6253989243
 30
0.0
 10
14.3991019936
 20
1.6578966943
 30
0.0
 10
14.3504861831
 20
1.6936915431
 30
0.0
 10
14.312067645
 20
1.7261526974
 30
0.0
 10
14.2827168467
 20
1.7536145083
 30
0.0
 10
14.2614228697
 20
1.7749407939
 30
0.0
 10
14.2408700754
 20
1.7969724369
 30
0.0
 10
14.2144845356
 20
1.8272428881
 30
0.0
 10
14.1834422841
 20
1.866708217
 30
0.0
 10
14.1494610427
 20
1.9164279287
 30
0.0
 10
14.1290771153
 20
1.9510159768
 30
0.0
 10
14.1194840523
 20
1.9686232534
 30
0.0
  0
SPLINE
  5
2EA
100
AcDbEntity
  8
0
100
AcDbSpline
 62
9
  6
CONTINUOUS
 70
0
 71
3
 72
27
 73
23
 74
0
 42
0.0000001
 43
0.0000001
 44
0.0000000001
 40
0.0
 40
0.0
 40
0.0
 40
0.0
 40
0.0024763308
 40
0.0042939674
 40
0.0066021651
 40
0.0094347236
 40
0.0128080153
 40
0.0212053983
 40
0.0318258735
 40
0.0446731294
 40
0.0597345181
 40
0.0769827446
 40
0.1179138443
 40
0.1671610224
 40
0.2243267842
 40
0.2889501069
 40
0.3605004474
 40
0.4383918681
 40
0.5219866479
 40
0.6105888147
 40
0.7998645288
 40
1.0
 40
1.0
 40
1.0
 40
1.0
 10
15.3007542382
 20
3.7682491926
 30
0.0
 10
15.3007336117
 20
3.7682568767
 30
0.0
 10
15.3006915041
 20
3.7682455891
 30
0.0
 10
15.3006440262
 20
3.7682127005
 30
0.0
 10
15.3005976014
 20
3.7681711084
 30
0.0
 10
15.3005464882
 20
3.7681153617
 30
0.0
 10
15.3004648327
 20
3.7680143154
 30
0.0
 10
15.3003512306
 20
3.7678506805
 30
0.0
 10
15.3002018663
 20
3.7676099528
 30
0.0
 10
15.3000318073
 20
3.7673126197
 30
0.0
 10
15.2998413726
 20
3.7669592541
 30
0.0
 10
15.2995435412
 20
3.7663803284
 30
0.0
 10
15.2991263191
 20
3.7655213007
 30
0.0
 10
15.2985765326
 20
3.7643325423
 30
0.0
 10
15.2979576973
 20
3.7629438599
 30
0.0
 10
15.2972750333
 20
3.7613667085
 30
0.0
 10
15.2965342923
 20
3.7596140368
 30
0.0
 10
15.295741647
 20
3.7577002919
 30
0.0
 10
15.2949037118
 20
3.7556412992
 30
0.0
 10
15.2937088133
 20
3.7526587225
 30
0.0
 10
15.2921581262
 20
3.7487028259
 30
0.0
 10
15.290921825
 20
3.7454697475
 30
0.0
 10
15.2902928495
 20
3.7438057111
 30
0.0
  0
SPLINE
  5
2EB
100
AcDbEntity
  8
0
100
AcDbSpline
 62
9
  6
CONTINUOUS
 70
0
 71
3
 72
13
 73
9
 74
0
 42
0.0000001
 43
0.0000001
 44
0.0000000001
 40
0.0
 40
0.0
 40
0.0
 40
0.0
 40
0.2648932281
 40
0.5175000568
 40
0.6402593613
 40
0.7612086208
 40
0.8809364442
 40
1.0
 40
1.0
 40
1.0
 40
1.0
 10
7.4661003865
 20
12.0705370981
 30
0.0
 10
7.4673480014
 20
12.0692197792
 30
0.0
 10
7.4695919571
 20
12.066452056
 30
0.0
 10
7.4717277787
 20
12.0625916211
 30
0.0
 10
7.47292827
 20
12.0594060771
 30
0.0
 10
7.4735728515
 20
12.0569971662
 30
0.0
 10
7.4739655957
 20
12.0545605414
 30
0.0
 10
7.4740584628
 20
12.0529241447
 30
0.0
 10
7.4740623507
 20
12.0521086436
 30
0.0
  0
SPLINE
  5
2EC
100
AcDbEntity
  8
0
100
AcDbSpline
 62
9
  6
CONTINUOUS
 70
0
 71
3
 72
25
 73
21
 74
0
 42
0.0000001
 43
0.0000001
 44
0.0000000001
 40
0.0
 40
0.0
 40
0.0
 40
0.0
 40
0.0059682773
 40
0.0127899505
 40
0.0210519949
 40
0.0310843133
 40
0.0430558982
 40
0.0570487505
 40
0.0731018538
 40
0.0912266531
 40
0.1336150492
 40
0.1839839527
 40
0.2419406307
 40
0.3069971443
 40
0.3785642319
 40
0.4559921393
 40
0.5385595824
 40
0.6254929838
 40
0.809129782
 40
1.0
 40
1.0
 40
1.0
 40
1.0
 10
16.0194766261
 20
2.7373872388
 30
0.0
 10
16.019476697
 20
2.7374482522
 30
0.0
 10
16.0194481311
 20
2.7375798816
 30
0.0
 10
16.0193300484
 20
2.7377633355
 30
0.0
 10
16.0191429481
 20
2.7379414327
 30
0.0
 10
16.0188869453
 20
2.7381167565
 30
0.0
 10
16.0185618475
 20
2.7382902745
 30
0.0
 10
16.01816773
 20
2.738461922
 30
0.0
 10
16.0177051048
 20
2.738631342
 30
0.0
 10
16.0169581353
 20
2.7388659635
 30
0.0
 10
16.0158582562
 20
2.7391435453
 30
0.0
 10
16.0143473562
 20
2.739447151
 30
0.0
 10
16.0125976896
 20
2.739732646
 30
0.0
 10
16.0106259249
 20
2.7399968855
 30
0.0
 10
16.0084507502
 20
2.7402371641
 30
0.0
 10
16.0060930343
 20
2.7404508737
 30
0.0
 10
16.0035753749
 20
2.74063594
 30
0.0
 10
15.9999712481
 20
2.7408457063
 30
0.0
 10
15.9952566387
 20
2.7410206657
 30
0.0
 10
15.9914279689
 20
2.7410692878
 30
0.0
 10
15.9894767119
 20
2.7410710648
 30
0.0
  0
SPLINE
  5
2ED
100
AcDbEntity
  8
0
100
AcDbSpline
 62
9
  6
CONTINUOUS
 70
0
 71
3
 72
25
 73
21
 74
0
 42
0.0000001
 43
0.0000001
 44
0.0000000001
 40
0.0
 40
0.0
 40
0.0
 40
0.0
 40
0.0059682007
 40
0.0127898129
 40
0.0210518119
 40
0.031084097
 40
0.0430556576
 40
0.0570484924
 40
0.0731015835
 40
0.091226375
 40
0.1336147669
 40
0.1839836789
 40
0.241940377
 40
0.3069969212
 40
0.3785640485
 40
0.4559920022
 40
0.5385594947
 40
0.6254929438
 40
0.8091298073
 40
1.0
 40
1.0
 40
1.0
 40
1.0
 10
13.8031603803
 20
2.737387228
 30
0.0
 10
13.8031603094
 20
2.7374482407
 30
0.0
 10
13.8031888755
 20
2.7375798691
 30
0.0
 10
13.8033069586
 20
2.737763321
 30
0.0
 10
13.8034940593
 20
2.7379414165
 30
0.0
 10
13.8037500626
 20
2.738116739
 30
0.0
 10
13.8040751612
 20
2.7382902558
 30
0.0
 10
13.8044692795
 20
2.7384619024
 30
0.0
 10
13.8049319059
 20
2.7386313216
 30
0.0
 10
13.8056788773
 20
2.7388659423
 30
0.0
 10
13.8067787592
 20
2.7391435236
 30
0.0
 10
13.8082896631
 20
2.7394471295
 30
0.0
 10
13.8100393344
 20
2.7397326251
 30
0.0
 10
13.8120111046
 20
2.7399968659
 30
0.0
 10
13.8141862855
 20
2.7402371462
 30
0.0
 10
13.8165440082
 20
2.7404508579
 30
0.0
 10
13.8190616748
 20
2.7406359266
 30
0.0
 10
13.8226658116
 20
2.7408456964
 30
0.0
 10
13.8273804328
 20
2.7410206605
 30
0.0
 10
13.831209112
 20
2.7410692861
 30
0.0
 10
13.8331603733
 20
2.7410710648
 30
0.0
  0
SPLINE
  5
2EE
100
AcDbEntity
  8
0
100
AcDbSpline
 62
9
  6
CONTINUOUS
 70
0
 71
3
 72
27
 73
23
 74
0
 42
0.0000001
 43
0.0000001
 44
0.0000000001
 40
0.0
 40
0.0
 40
0.0
 40
0.0
 40
0.0024759654
 40
0.0042946902
 40
0.0066044194
 40
0.0094387939
 40
0.0128140982
 40
0.0212159169
 40
0.0318411923
 40
0.0446934901
 40
0.059760068
 40
0.0770135468
 40
0.1179550552
 40
0.1672120587
 40
0.2243864836
 40
0.2890167669
 40
0.3605717891
 40
0.4384650962
 40
0.5220584387
 40
0.6106554038
 40
0.7999076553
 40
1.0
 40
1.0
 40
1.0
 40
1.0
 10
14.5228057252
 20
3.7686135161
 30
0.0
 10
14.522826387
 20
3.7686211391
 30
0.0
 10
14.5228684859
 20
3.7686096857
 30
0.0
 10
14.5229159301
 20
3.7685766552
 30
0.0
 10
14.5229623289
 20
3.7685349092
 30
0.0
 10
14.5230134057
 20
3.7684789959
 30
0.0
 10
14.5230949921
 20
3.7683776851
 30
0.0
 10
14.52320848
 20
3.7682136849
 30
0.0
 10
14.5233576755
 20
3.7679724752
 30
0.0
 10
14.5235275223
 20
3.7676745974
 30
0.0
 10
14.5237177015
 20
3.7673206261
 30
0.0
 10
14.5240151044
 20
3.7667407713
 30
0.0
 10
14.5244316856
 20
3.7658804551
 30
0.0
 10
14.5249805798
 20
3.7646900146
 30
0.0
 10
14.5255983599
 20
3.7632994767
 30
0.0
 10
14.5262798112
 20
3.7617203236
 30
0.0
 10
14.5270191887
 20
3.759965533
 30
0.0
 10
14.5278103279
 20
3.7580495823
 30
0.0
 10
14.5286466238
 20
3.7559883276
 30
0.0
 10
14.5298390927
 20
3.7530026998
 30
0.0
 10
14.5313864974
 20
3.7490430828
 30
0.0
 10
14.5326201343
 20
3.7458070865
 30
0.0
 10
14.5332477218
 20
3.7441416353
 30
0.0
  0
LINE
  5
2EF
100
AcDbEntity
  8
0
100
AcDbLine
 62
9
  6
CONTINUOUS
 10
14.6811520141
 20
3.9874084763
 11
14.6812074949
 21
3.9880390072
  0
SPLINE
  5
2F0
100
AcDbEntity
  8
0
100
AcDbSpline
 62
9
  6
CONTINUOUS
 70
0
 71
3
 72
9
 73
5
 74
0
 42
0.0000001
 43
0.0000001
 44
0.0000000001
 40
0.0
 40
0.0
 40
0.0
 40
0.0
 40
0.4885543463
 40
1.0
 40
1.0
 40
1.0
 40
1.0
 10
14.6813747706
 20
3.9954469192
 30
0.0
 10
14.6812552752
 20
3.9996490224
 30
0.0
 10
14.6812999971
 20
4.0082602766
 30
0.0
 10
14.6818767406
 20
4.0168508642
 30
0.0
 10
14.6822885101
 20
4.0212323296
 30
0.0
  0
LINE
  5
2F1
100
AcDbEntity
  8
0
100
AcDbLine
 62
9
  6
CONTINUOUS
 10
15.1658856504
 20
6.1750548446
 11
15.1107312285
 21
4.0265984843
  0
SPLINE
  5
2F2
100
AcDbEntity
  8
0
100
AcDbSpline
 62
9
  6
CONTINUOUS
 70
0
 71
3
 72
27
 73
23
 74
0
 42
0.0000001
 43
0.0000001
 44
0.0000000001
 40
0.0
 40
0.0
 40
0.0
 40
0.0
 40
0.1933557904
 40
0.379483923
 40
0.5512204281
 40
0.6295975009
 40
0.7019575837
 40
0.7676069333
 40
0.8259213889
 40
0.8763534209
 40
0.8984656787
 40
0.9184426256
 40
0.9362406917
 40
0.9518286121
 40
0.965182435
 40
0.9762925882
 40
0.9851758195
 40
0.9918919329
 40
0.9944909961
 40
0.9966403021
 40
0.9984268132
 40
1.0
 40
1.0
 40
1.0
 40
1.0
 10
7.2685819229
 20
12.1859867845
 30
0.0
 10
7.271430531
 20
12.1852605101
 30
0.0
 10
7.2770125477
 20
12.1838006163
 30
0.0
 10
7.2850929066
 20
12.1815765892
 30
0.0
 10
7.2914622534
 20
12.1797256614
 30
0.0
 10
7.296151321
 20
12.1782935677
 30
0.0
 10
7.2992877342
 20
12.1773002301
 30
0.0
 10
7.3021221791
 20
12.1763643406
 30
0.0
 10
7.3046272285
 20
12.1754950861
 30
0.0
 10
7.3064940955
 20
12.1748066676
 30
0.0
 10
7.3078034093
 20
12.174292314
 30
0.0
 10
7.3086453055
 20
12.1739454174
 30
0.0
 10
7.3093890349
 20
12.1736210595
 30
0.0
 10
7.3100329206
 20
12.1733201297
 30
0.0
 10
7.3105755094
 20
12.1730434576
 30
0.0
 10
7.3110161033
 20
12.1727918355
 30
0.0
 10
7.3113538121
 20
12.17256597
 30
0.0
 10
7.3115667953
 20
12.1723870204
 30
0.0
 10
7.3116794111
 20
12.1722533346
 30
0.0
 10
7.3117307227
 20
12.1721675538
 30
0.0
 10
7.3117561035
 20
12.1720865769
 30
0.0
 10
7.3117537948
 20
12.1720341114
 30
0.0
 10
7.3117478765
 20
12.1720109368
 30
0.0
  0
SPLINE
  5
2F3
100
AcDbEntity
  8
0
100
AcDbSpline
 62
9
  6
CONTINUOUS
 70
0
 71
3
 72
27
 73
23
 74
0
 42
0.0000001
 43
0.0000001
 44
0.0000000001
 40
0.0
 40
0.0
 40
0.0
 40
0.0
 40
0.0025019636
 40
0.0050461181
 40
0.0106469412
 40
0.0174654011
 40
0.0258616022
 40
0.0360243949
 40
0.0480597105
 40
0.0620269653
 40
0.0779505466
 40
0.0958395494
 40
0.11569516
 40
0.1612855569
 40
0.2146360031
 40
0.2755622306
 40
0.3438228934
 40
0.4191468397
 40
0.5012438561
 40
0.5897524836
 40
0.7844453079
 40
1.0
 40
1.0
 40
1.0
 40
1.0
 10
7.3145877158
 20
12.3134769066
 30
0.0
 10
7.31453708
 20
12.3135046227
 30
0.0
 10
7.3144287421
 20
12.3135499922
 30
0.0
 10
7.314185548
 20
12.3135950816
 30
0.0
 10
7.3138354762
 20
12.3135521028
 30
0.0
 10
7.3133897982
 20
12.3133645712
 30
0.0
 10
7.3128957287
 20
12.3130466937
 30
0.0
 10
7.3123509163
 20
12.3125961302
 30
0.0
 10
7.3117544296
 20
12.3120116464
 30
0.0
 10
7.3111069677
 20
12.3112923365
 30
0.0
 10
7.3104094871
 20
12.3104382481
 30
0.0
 10
7.3096633519
 20
12.3094497683
 30
0.0
 10
7.3085535795
 20
12.3078793794
 30
0.0
 10
7.3070630162
 20
12.3055779966
 30
0.0
 10
7.3051769878
 20
12.3024075
 30
0.0
 10
7.3031381993
 20
12.2987217151
 30
0.0
 10
7.3009645688
 20
12.2945332128
 30
0.0
 10
7.2986757265
 20
12.2898558603
 30
0.0
 10
7.2962940357
 20
12.28470538
 30
0.0
 10
7.2929162983
 20
12.2769831427
 30
0.0
 10
7.2886297944
 20
12.266300744
 30
0.0
 10
7.2854404068
 20
12.2573863764
 30
0.0
 10
7.2838496058
 20
12.2526744163
 30
0.0
  0
SPLINE
  5
2F4
100
AcDbEntity
  8
0
100
AcDbSpline
 62
9
  6
CONTINUOUS
 70
0
 71
3
 72
24
 73
20
 74
0
 42
0.0000001
 43
0.0000001
 44
0.0000000001
 40
0.0
 40
0.0
 40
0.0
 40
0.0
 40
0.1246278713
 40
0.1869849497
 40
0.249355338
 40
0.3117413852
 40
0.3741472792
 40
0.4365775306
 40
0.499035572
 40
0.5615255673
 40
0.5927898372
 40
0.6240628498
 40
0.6866239824
 40
0.7492237807
 40
0.7805446499
 40
0.8118754521
 40
0.8745497373
 40
0.9372605057
 40
1.0
 40
1.0
 40
1.0
 40
1.0
 10
15.1107312285
 20
4.0265984843
 30
0.0
 10
15.1103487672
 20
4.0117571935
 30
0.0
 10
15.1113107396
 20
3.9894099122
 30
0.0
 10
15.1156625091
 20
3.9600096683
 30
0.0
 10
15.1204684473
 20
3.938223535
 30
0.0
 10
15.1268159241
 20
3.9168309468
 30
0.0
 10
15.1347005254
 20
3.8959470295
 30
0.0
 10
15.1441113527
 20
3.8756945101
 30
0.0
 10
15.1550321346
 20
3.8562026556
 30
0.0
 10
15.165371334
 20
3.8407056129
 30
0.0
 10
15.1743584235
 20
3.8288245905
 30
0.0
 10
15.1838182813
 20
3.817305329
 30
0.0
 10
15.1965141439
 20
3.8036341575
 30
0.0
 10
15.2102949494
 20
3.7910478118
 30
0.0
 10
15.2219228762
 20
3.7816920951
 30
0.0
 10
15.2339427595
 20
3.7728308656
 30
0.0
 10
15.2496644066
 20
3.7627176155
 30
0.0
 10
15.2695015812
 20
3.7522365281
 30
0.0
 10
15.283288331
 20
3.7464123297
 30
0.0
 10
15.2902928495
 20
3.7438057115
 30
0.0
  0
SPLINE
  5
2F5
100
AcDbEntity
  8
0
100
AcDbSpline
 62
9
  6
CONTINUOUS
 70
0
 71
3
 72
25
 73
21
 74
0
 42
0.0000001
 43
0.0000001
 44
0.0000000001
 40
0.0
 40
0.0
 40
0.0
 40
0.0
 40
0.2036814026
 40
0.3939034712
 40
0.5652580272
 40
0.7128708921
 40
0.7764456891
 40
0.8325907841
 40
0.8809240309
 40
0.9211340891
 40
0.9381183693
 40
0.9529958429
 40
0.9657561804
 40
0.9764071246
 40
0.984981047
 40
0.9915602132
 40
0.9941655452
 40
0.9963754764
 40
0.9982758209
 40
1.0
 40
1.0
 40
1.0
 40
1.0
 10
7.2016012591
 20
11.7650843375
 30
0.0
 10
7.2040114586
 20
11.7647847517
 30
0.0
 10
7.2086694633
 20
11.764179799
 30
0.0
 10
7.2153425782
 20
11.7632292007
 30
0.0
 10
7.2213406674
 20
11.7622851983
 30
0.0
 10
7.2258334321
 20
11.761493556
 30
0.0
 10
7.2289607965
 20
11.7608755151
 30
0.0
 10
7.2309199994
 20
11.7604539622
 30
0.0
 10
7.2325984733
 20
11.7600541307
 30
0.0
 10
7.2338136982
 20
11.7597262011
 30
0.0
 10
7.2346349125
 20
11.7594725589
 30
0.0
 10
7.2351385087
 20
11.7593004437
 30
0.0
 10
7.2355645388
 20
11.7591359397
 30
0.0
 10
7.2359127307
 20
11.758979443
 30
0.0
 10
7.2361826926
 20
11.7588313195
 30
0.0
 10
7.2363555708
 20
11.7587067383
 30
0.0
 10
7.2364498476
 20
11.7586083175
 30
0.0
 10
7.2364953129
 20
11.7585417971
 30
0.0
 10
7.2365208833
 20
11.7584762532
 30
0.0
 10
7.2365237111
 20
11.7584322107
 30
0.0
 10
7.2365214584
 20
11.7584117749
 30
0.0
  0
SPLINE
  5
2F6
100
AcDbEntity
  8
0
100
AcDbSpline
 62
9
  6
CONTINUOUS
 70
0
 71
3
 72
31
 73
27
 74
0
 42
0.0000001
 43
0.0000001
 44
0.0000000001
 40
0.0
 40
0.0
 40
0.0
 40
0.0
 40
0.0627219738
 40
0.0940788912
 40
0.1254277116
 40
0.1567695874
 40
0.1881038688
 40
0.2507363585
 40
0.2820454369
 40
0.313345706
 40
0.3446371801
 40
0.3759196979
 40
0.407193297
 40
0.4384580283
 40
0.5009506248
 40
0.563410251
 40
0.5946339437
 40
0.6258502818
 40
0.657059436
 40
0.6882620615
 40
0.7194585163
 40
0.7506493664
 40
0.8130052341
 40
0.8753458563
 40
0.9376754646
 40
1.0
 40
1.0
 40
1.0
 40
1.0
 10
15.2902928495
 20
3.7438057115
 30
0.0
 10
15.3157790655
 20
3.7343134329
 30
0.0
 10
15.3534837033
 20
3.7186085105
 30
0.0
 10
15.4024348462
 20
3.6948903461
 30
0.0
 10
15.4384441539
 20
3.6757292524
 30
0.0
 10
15.4736936127
 20
3.6552241009
 30
0.0
 10
15.5196092922
 20
3.6261551159
 30
0.0
 10
15.5638528993
 20
3.594535084
 30
0.0
 10
15.6061900721
 20
3.5605101077
 30
0.0
 10
15.6369429795
 20
3.5338101258
 30
0.0
 10
15.6666469868
 20
3.5059658657
 30
0.0
 10
15.6952593779
 20
3.4770171917
 30
0.0
 10
15.7227403375
 20
3.4470074296
 30
0.0
 10
15.7578118139
 20
3.4056512791
 30
0.0
 10
15.7986562279
 20
3.3515285657
 30
0.0
 10
15.8352957669
 20
3.2944968057
 30
0.0
 10
15.8619450656
 20
3.2473378086
 30
0.0
 10
15.8805716286
 20
3.2112436837
 30
0.0
 10
15.8977998353
 20
3.1744720303
 30
0.0
 10
15.9135977119
 20
3.1370729186
 30
0.0
 10
15.9279449944
 20
3.0991016272
 30
0.0
 10
15.9451136599
 20
3.047798118
 30
0.0
 10
15.9628870908
 20
2.9825099606
 30
0.0
 10
15.9782166716
 20
2.9027986018
 30
0.0
 10
15.9874601095
 20
2.8221702084
 30
0.0
 10
15.9895016938
 20
2.7680952397
 30
0.0
 10
15.9894767119
 20
2.7410710648
 30
0.0
  0
SPLINE
  5
2F7
100
AcDbEntity
  8
0
100
AcDbSpline
 62
9
  6
CONTINUOUS
 70
0
 71
3
 72
26
 73
22
 74
0
 42
0.0000001
 43
0.0000001
 44
0.0000000001
 40
0.0
 40
0.0
 40
0.0
 40
0.0
 40
0.0622959593
 40
0.1246221954
 40
0.1869752084
 40
0.2181655187
 40
0.2493623491
 40
0.2805664557
 40
0.311778972
 40
0.3742227433
 40
0.4367022275
 40
0.4992117596
 40
0.5617443421
 40
0.6242955283
 40
0.655582855
 40
0.6868760071
 40
0.7494718773
 40
0.8120891925
 40
0.8747208086
 40
0.9373591371
 40
1.0
 40
1.0
 40
1.0
 40
1.0
 10
15.7031534399
 20
1.9686240004
 30
0.0
 10
15.6935603892
 20
1.9510167064
 30
0.0
 10
15.6731764843
 20
1.9164286225
 30
0.0
 10
15.6391952706
 20
1.8667088552
 30
0.0
 10
15.6081530366
 20
1.8272434785
 30
0.0
 10
15.5817675074
 20
1.7969729882
 30
0.0
 10
15.5612147189
 20
1.7749413152
 30
0.0
 10
15.5399207457
 20
1.7536149992
 30
0.0
 10
15.5105699495
 20
1.7261531472
 30
0.0
 10
15.4721514085
 20
1.6936919416
 30
0.0
 10
15.4235355865
 20
1.6578970325
 30
0.0
 10
15.372620814
 20
1.6253992038
 30
0.0
 10
15.3196372988
 20
1.5963514027
 30
0.0
 10
15.2739471554
 20
1.5751439532
 30
0.0
 10
15.2365959903
 20
1.560058724
 30
0.0
 10
15.1987438342
 20
1.5462369787
 30
0.0
 10
15.150578027
 20
1.5313464899
 30
0.0
 10
15.0917131401
 20
1.5173577038
 30
0.0
 10
15.032035341
 20
1.5072967716
 30
0.0
 10
14.9718167626
 20
1.5012174265
 30
0.0
 10
14.9314805762
 20
1.4998546016
 30
0.0
 10
14.9113185426
 20
1.4998546016
 30
0.0
  0
SPLINE
  5
2F8
100
AcDbEntity
  8
0
100
AcDbSpline
 62
9
  6
CONTINUOUS
 70
0
 71
3
 72
36
 73
32
 74
0
 42
0.0000001
 43
0.0000001
 44
0.0000000001
 40
0.0
 40
0.0
 40
0.0
 40
0.0
 40
0.078347359
 40
0.1554302621
 40
0.2310834595
 40
0.2683172278
 40
0.3051242517
 40
0.3773456708
 40
0.4475164002
 40
0.4817509679
 40
0.5153683779
 40
0.5483242601
 40
0.5805751657
 40
0.6120690668
 40
0.642757366
 40
0.672604457
 40
0.7015879791
 40
0.7296969468
 40
0.7569355517
 40
0.7833325551
 40
0.8089423031
 40
0.833850418
 40
0.8581665538
 40
0.8701444924
 40
0.8820242232
 40
0.9055645438
 40
0.9172729537
 40
0.9289673324
 40
0.9523968098
 40
0.9760271397
 40
1.0
 40
1.0
 40
1.0
 40
1.0
 10
15.9250780695
 20
1.3668998685
 30
0.0
 10
15.9280138886
 20
1.3478066934
 30
0.0
 10
15.933736267
 20
1.3099126231
 30
0.0
 10
15.9417862102
 20
1.25350674
 30
0.0
 10
15.9478892952
 20
1.2070650006
 30
0.0
 10
15.952288723
 20
1.1704187305
 30
0.0
 10
15.9562851154
 20
1.1345776251
 30
0.0
 10
15.9605520902
 20
1.0905969112
 30
0.0
 10
15.9636969487
 20
1.0471545996
 30
0.0
 10
15.9653476444
 20
1.0131618843
 30
0.0
 10
15.9661113732
 20
0.9883166097
 30
0.0
 10
15.9663659921
 20
0.9639496672
 30
0.0
 10
15.966067888
 20
0.9401063233
 30
0.0
 10
15.9651635764
 20
0.9168370918
 30
0.0
 10
15.9635981181
 20
0.8941962023
 30
0.0
 10
15.9613182007
 20
0.8722372388
 30
0.0
 10
15.9582709029
 20
0.8510126049
 30
0.0
 10
15.9544039722
 20
0.8305745328
 30
0.0
 10
15.9496630152
 20
0.8109750439
 30
0.0
 10
15.9440016515
 20
0.7922621431
 30
0.0
 10
15.9373735664
 20
0.774478927
 30
0.0
 10
15.9297471131
 20
0.757660583
 30
0.0
 10
15.9224978292
 20
0.7444068823
 30
0.0
 10
15.9161805092
 20
0.7343447312
 30
0.0
 10
15.9095642624
 20
0.7247082447
 30
0.0
 10
15.9023900428
 20
0.7155462899
 30
0.0
 10
15.8946832615
 20
0.7069068941
 30
0.0
 10
15.8866336631
 20
0.6986237191
 30
0.0
 10
15.8758817265
 20
0.6888870934
 30
0.0
 10
15.8619559761
 20
0.6782357882
 30
0.0
 10
15.8520783549
 20
0.6718691813
 30
0.0
 10
15.8469909665
 20
0.6688598125
 30
0.0
  0
SPLINE
  5
2F9
100
AcDbEntity
  8
0
100
AcDbSpline
 62
9
  6
CONTINUOUS
 70
0
 71
3
 72
35
 73
31
 74
0
 42
0.0000001
 43
0.0000001
 44
0.0000000001
 40
0.0
 40
0.0
 40
0.0
 40
0.0
 40
0.0783474434
 40
0.1554312518
 40
0.2310840664
 40
0.2683171534
 40
0.305123284
 40
0.3773433071
 40
0.4475141419
 40
0.4817488862
 40
0.515366325
 40
0.5483221303
 40
0.5805729343
 40
0.6120669332
 40
0.6427557629
 40
0.6726036761
 40
0.7015879434
 40
0.7296971156
 40
0.7569349947
 40
0.7833310207
 40
0.8089405084
 40
0.8338487378
 40
0.8581648918
 40
0.8820178391
 40
0.9055588526
 40
0.91726765
 40
0.9289624247
 40
0.9523930673
 40
0.9760252566
 40
1.0
 40
1.0
 40
1.0
 40
1.0
 10
13.8975574722
 20
1.3668897952
 30
0.0
 10
13.8946217752
 20
1.3477975852
 30
0.0
 10
13.8888995861
 20
1.3099052326
 30
0.0
 10
13.8808498481
 20
1.2535021287
 30
0.0
 10
13.8747469082
 20
1.2070628385
 30
0.0
 10
13.8703477204
 20
1.1704189369
 30
0.0
 10
13.8663516605
 20
1.1345803967
 30
0.0
 10
13.8620850371
 20
1.0906024744
 30
0.0
 10
13.8589400251
 20
1.0471626979
 30
0.0
 10
13.8572890801
 20
1.0131716698
 30
0.0
 10
13.8565251623
 20
0.9883276479
 30
0.0
 10
13.8562703296
 20
0.9639619977
 30
0.0
 10
13.8565681877
 20
0.940119897
 30
0.0
 10
13.8574721336
 20
0.9168517214
 30
0.0
 10
13.8590369555
 20
0.8942116024
 30
0.0
 10
13.8613160082
 20
0.872253172
 30
0.0
 10
13.8643623411
 20
0.8510290734
 30
0.0
 10
13.8682283498
 20
0.830591851
 30
0.0
 10
13.8729688154
 20
0.8109936875
 30
0.0
 10
13.8786298815
 20
0.7922822265
 30
0.0
 10
13.8852568443
 20
0.7745000727
 30
0.0
 10
13.8928822519
 20
0.7576818608
 30
0.0
 10
13.9015355618
 20
0.7418580067
 30
0.0
 10
13.9112399081
 20
0.7270559643
 30
0.0
 10
13.9202342599
 20
0.7155671017
 30
0.0
 10
13.9279395034
 20
0.7069263737
 30
0.0
 10
13.9359874659
 20
0.6986418362
 30
0.0
 10
13.9467370584
 20
0.6889025344
 30
0.0
 10
13.9606583034
 20
0.6782449936
 30
0.0
 10
13.9705324078
 20
0.6718724073
 30
0.0
 10
13.9756180729
 20
0.6688598125
 30
0.0
  0
SPLINE
  5
2FA
100
AcDbEntity
  8
0
100
AcDbSpline
 62
9
  6
CONTINUOUS
 70
0
 71
3
 72
69
 73
65
 74
0
 42
0.0000001
 43
0.0000001
 44
0.0000000001
 40
0.0
 40
0.0
 40
0.0
 40
0.0
 40
0.0311248781
 40
0.0466931837
 40
0.0622633725
 40
0.0778358695
 40
0.0934109732
 40
0.1089892838
 40
0.1245713064
 40
0.1401573551
 40
0.1557479193
 40
0.1713432867
 40
0.1869436818
 40
0.2025493183
 40
0.218160472
 40
0.2337771941
 40
0.2493997093
 40
0.2650279825
 40
0.2806619625
 40
0.2963015545
 40
0.3119466225
 40
0.3275969454
 40
0.3432522808
 40
0.3589123811
 40
0.3745768796
 40
0.3902454977
 40
0.4059177079
 40
0.4215931525
 40
0.4372712142
 40
0.4529514918
 40
0.4686333833
 40
0.4843164203
 40
0.4999999999
 40
0.5156835803
 40
0.531366617
 40
0.5470485084
 40
0.5627287861
 40
0.5784068477
 40
0.5940822917
 40
0.6097545023
 40
0.6254231205
 40
0.6410876184
 40
0.6567477192
 40
0.6724030544
 40
0.6880533771
 40
0.7036984455
 40
0.7193380376
 40
0.7349720166
 40
0.7506002904
 40
0.7662228053
 40
0.7818395277
 40
0.7974506815
 40
0.8130563179
 40
0.8286567125
 40
0.8442520803
 40
0.8598426445
 40
0.8754286931
 40
0.8910107157
 40
0.9065890262
 40
0.9221641301
 40
0.9377366269
 40
0.9533068159
 40
0.9688751215
 40
1.0
 40
1.0
 40
1.0
 40
1.0
 10
15.9894767119
 20
2.7410710648
 30
0.0
 10
15.9894436526
 20
2.7060876945
 30
0.0
 10
15.986760584
 20
2.6535604748
 30
0.0
 10
15.9780399032
 20
2.5841053281
 30
0.0
 10
15.9689469772
 20
2.5323736503
 30
0.0
 10
15.9573235188
 20
2.4811458081
 30
0.0
 10
15.943190187
 20
2.4305425185
 30
0.0
 10
15.9265698503
 20
2.3806895094
 30
0.0
 10
15.9075035311
 20
2.3317065525
 30
0.0
 10
15.8860292881
 20
2.2837150252
 30
0.0
 10
15.8621876781
 20
2.2368377883
 30
0.0
 10
15.8360559056
 20
2.1911794786
 30
0.0
 10
15.8077110378
 20
2.1468412907
 30
0.0
 10
15.7772301947
 20
2.1039217843
 30
0.0
 10
15.7446797728
 20
2.0625262593
 30
0.0
 10
15.7101218361
 20
2.0227655574
 30
0.0
 10
15.6736216438
 20
1.984753203
 30
0.0
 10
15.6352761656
 20
1.9485752528
 30
0.0
 10
15.5951853291
 20
1.9143123014
 30
0.0
 10
15.5534527293
 20
1.8820386598
 30
0.0
 10
15.5101820482
 20
1.8518264963
 30
0.0
 10
15.4654777993
 20
1.8237458425
 30
0.0
 10
15.4194453842
 20
1.7978654308
 30
0.0
 10
15.3721928323
 20
1.7742503728
 30
0.0
 10
15.3238274173
 20
1.7529697362
 30
0.0
 10
15.2744610803
 20
1.7340885894
 30
0.0
 10
15.224214515
 20
1.7176539701
 30
0.0
 10
15.1732163139
 20
1.7036870524
 30
0.0
 10
15.121594011
 20
1.6921995593
 30
0.0
 10
15.069470274
 20
1.6832153453
 30
0.0
 10
15.0169664895
 20
1.6767675977
 30
0.0
 10
14.964206757
 20
1.6728888692
 30
0.0
 10
14.9113185406
 20
1.6715943067
 30
0.0
 10
14.8584303305
 20
1.6728889955
 30
0.0
 10
14.8056705932
 20
1.6767676391
 30
0.0
 10
14.7531667992
 20
1.6832153154
 30
0.0
 10
14.701043061
 20
1.6921995302
 30
0.0
 10
14.6494207747
 20
1.7036870964
 30
0.0
 10
14.5984225836
 20
1.7176540442
 30
0.0
 10
14.5481759947
 20
1.7340885829
 30
0.0
 10
14.498809593
 20
1.7529695652
 30
0.0
 10
14.4504442067
 20
1.7742502767
 30
0.0
 10
14.4031917215
 20
1.7978654647
 30
0.0
 10
14.3571593227
 20
1.8237459015
 30
0.0
 10
14.3124550426
 20
1.8518265039
 30
0.0
 10
14.2691843185
 20
1.8820386069
 30
0.0
 10
14.2274517131
 20
1.9143122443
 30
0.0
 10
14.1873609827
 20
1.9485753213
 30
0.0
 10
14.1490155603
 20
1.9847533245
 30
0.0
 10
14.1125152746
 20
2.0227655879
 30
0.0
 10
14.0779572625
 20
2.0625262265
 30
0.0
 10
14.0454068373
 20
2.1039217515
 30
0.0
 10
14.0149260641
 20
2.1468413077
 30
0.0
 10
13.9865812421
 20
2.1911795228
 30
0.0
 10
13.9604494089
 20
2.2368377948
 30
0.0
 10
13.9366076597
 20
2.2837149624
 30
0.0
 10
13.9151334359
 20
2.3317065014
 30
0.0
 10
13.8960672299
 20
2.380689503
 30
0.0
 10
13.8794470028
 20
2.4305425469
 30
0.0
 10
13.8653136304
 20
2.4811458229
 30
0.0
 10
13.8536900967
 20
2.5323736486
 30
0.0
 10
13.8445971376
 20
2.5841053217
 30
0.0
 10
13.8358764979
 20
2.6535604755
 30
0.0
 10
13.8331934593
 20
2.7060876941
 30
0.0
 10
13.8331603733
 20
2.7410710648
 30
0.0
  0
SPLINE
  5
2FB
100
AcDbEntity
  8
0
100
AcDbSpline
 62
7
  6
CONTINUOUS
 70
0
 71
3
 72
27
 73
23
 74
0
 42
0.0000001
 43
0.0000001
 44
0.0000000001
 40
0.0
 40
0.0
 40
0.0
 40
0.0
 40
0.062293097
 40
0.0934545662
 40
0.1246233408
 40
0.1869746256
 40
0.2493567405
 40
0.2805638968
 40
0.3117788622
 40
0.3742233293
 40
0.4366982234
 40
0.4992022789
 40
0.5617337587
 40
0.6242903814
 40
0.6868694895
 40
0.718170822
 40
0.7494765533
 40
0.8120911276
 40
0.8747171424
 40
0.9060377303
 40
0.9373617072
 40
1.0
 40
1.0
 40
1.0
 40
1.0
 10
14.1208796908
 20
1.9672164844
 30
0.0
 10
14.1304932506
 20
1.9496908
 30
0.0
 10
14.1458075001
 20
1.9238725646
 30
0.0
 10
14.1679196562
 20
1.8905452073
 30
0.0
 10
14.1911501026
 20
1.8579626113
 30
0.0
 10
14.2222316737
 20
1.8187112264
 30
0.0
 10
14.2558838795
 20
1.7816234311
 30
0.0
 10
14.2842559934
 20
1.7533492414
 30
0.0
 10
14.3135737454
 20
1.7260276609
 30
0.0
 10
14.3519266731
 20
1.6937268789
 30
0.0
 10
14.400450694
 20
1.6581207836
 30
0.0
 10
14.4512686903
 20
1.6258189599
 30
0.0
 10
14.5041517733
 20
1.5969674873
 30
0.0
 10
14.5588612379
 20
1.5716959162
 30
0.0
 10
14.6057723108
 20
1.5537136492
 30
0.0
 10
14.6439591656
 20
1.5412241282
 30
0.0
 10
14.6825517625
 20
1.5300097649
 30
0.0
 10
14.7314685305
 20
1.518408459
 30
0.0
 10
14.7810531132
 20
1.5100856819
 30
0.0
 10
14.8209859338
 20
1.5054162105
 30
0.0
 10
14.8610543421
 20
1.5020769524
 30
0.0
 10
14.8912185218
 20
1.5010732949
 30
0.0
 10
14.9113185426
 20
1.5010732949
 30
0.0
  0
SPLINE
  5
2FC
100
AcDbEntity
  8
0
100
AcDbSpline
 62
9
  6
CONTINUOUS
 70
0
 71
3
 72
31
 73
27
 74
0
 42
0.0000001
 43
0.0000001
 44
0.0000000001
 40
0.0
 40
0.0
 40
0.0
 40
0.0
 40
0.062324352
 40
0.1246537845
 40
0.1869942465
 40
0.2493499757
 40
0.2805407753
 40
0.3117371866
 40
0.3429397779
 40
0.3741489066
 40
0.4053652268
 40
0.4365889105
 40
0.4990485297
 40
0.5615411525
 40
0.592805919
 40
0.6240795618
 40
0.6553621305
 40
0.6866536615
 40
0.7179539932
 40
0.7492631368
 40
0.8118957492
 40
0.843230103
 40
0.8745720506
 40
0.9059209396
 40
0.9372779249
 40
1.0
 40
1.0
 40
1.0
 40
1.0
 10
13.8331603733
 20
2.7410710648
 30
0.0
 10
13.8331353736
 20
2.768115177
 30
0.0
 10
13.8351800083
 20
2.8222300775
 30
0.0
 10
13.8444370851
 20
2.9029172967
 30
0.0
 10
13.859789153
 20
2.982685461
 30
0.0
 10
13.8775885398
 20
3.0480184477
 30
0.0
 10
13.8947822047
 20
3.0993557572
 30
0.0
 10
13.909150343
 20
3.1373512654
 30
0.0
 10
13.9249710807
 20
3.1747733297
 30
0.0
 10
13.9422240005
 20
3.2115665956
 30
0.0
 10
13.960877043
 20
3.2476808981
 30
0.0
 10
13.9875639088
 20
3.2948647475
 30
0.0
 10
14.0242544598
 20
3.3519235288
 30
0.0
 10
14.0651548555
 20
3.4060670694
 30
0.0
 10
14.1002738197
 20
3.4474356849
 30
0.0
 10
14.1277916687
 20
3.4774526241
 30
0.0
 10
14.1564420564
 20
3.5064062362
 30
0.0
 10
14.186185014
 20
3.5342531571
 30
0.0
 10
14.216977628
 20
3.5609535489
 30
0.0
 10
14.2593685486
 20
3.594976043
 30
0.0
 10
14.3036669651
 20
3.6265889778
 30
0.0
 10
14.3496380809
 20
3.6556458684
 30
0.0
 10
14.3849293854
 20
3.6761393496
 30
0.0
 10
14.4209806955
 20
3.6952860287
 30
0.0
 10
14.4699877893
 20
3.718981344
 30
0.0
 10
14.5077341076
 20
3.7346652237
 30
0.0
 10
14.5332477218
 20
3.7441417513
 30
0.0
  0
SPLINE
  5
2FD
100
AcDbEntity
  8
0
100
AcDbSpline
 62
7
  6
CONTINUOUS
 70
0
 71
3
 72
27
 73
23
 74
0
 42
0.0000001
 43
0.0000001
 44
0.0000000001
 40
0.0
 40
0.0
 40
0.0
 40
0.0
 40
0.062293097
 40
0.0934545662
 40
0.1246233408
 40
0.1869746256
 40
0.2493567405
 40
0.2805638968
 40
0.3117788622
 40
0.3742233293
 40
0.4366982234
 40
0.4992022789
 40
0.5617337587
 40
0.6242903814
 40
0.6868694895
 40
0.718170822
 40
0.7494765533
 40
0.8120911276
 40
0.8747171424
 40
0.9060377303
 40
0.9373617072
 40
1.0
 40
1.0
 40
1.0
 40
1.0
 10
15.7017573944
 20
1.9672164844
 30
0.0
 10
15.6921438346
 20
1.9496908
 30
0.0
 10
15.6768295851
 20
1.9238725646
 30
0.0
 10
15.654717429
 20
1.8905452073
 30
0.0
 10
15.6314869826
 20
1.8579626113
 30
0.0
 10
15.6004054115
 20
1.8187112264
 30
0.0
 10
15.5667532057
 20
1.7816234311
 30
0.0
 10
15.5383810918
 20
1.7533492414
 30
0.0
 10
15.5090633398
 20
1.7260276609
 30
0.0
 10
15.4707104121
 20
1.6937268789
 30
0.0
 10
15.4221863912
 20
1.6581207836
 30
0.0
 10
15.3713683949
 20
1.6258189599
 30
0.0
 10
15.3184853119
 20
1.5969674873
 30
0.0
 10
15.2637758473
 20
1.5716959162
 30
0.0
 10
15.2168647744
 20
1.5537136492
 30
0.0
 10
15.1786779196
 20
1.5412241282
 30
0.0
 10
15.1400853227
 20
1.5300097649
 30
0.0
 10
15.0911685547
 20
1.518408459
 30
0.0
 10
15.041583972
 20
1.5100856819
 30
0.0
 10
15.0016511514
 20
1.5054162105
 30
0.0
 10
14.9615827431
 20
1.5020769524
 30
0.0
 10
14.9314185634
 20
1.5010732949
 30
0.0
 10
14.9113185426
 20
1.5010732949
 30
0.0
  0
SPLINE
  5
2FE
100
AcDbEntity
  8
0
100
AcDbSpline
 62
9
  6
CONTINUOUS
 70
0
 71
3
 72
24
 73
20
 74
0
 42
0.0000001
 43
0.0000001
 44
0.0000000001
 40
0.0
 40
0.0
 40
0.0
 40
0.0
 40
0.0627354989
 40
0.125442444
 40
0.1881131119
 40
0.2194421792
 40
0.2507613923
 40
0.3133576974
 40
0.3759155666
 40
0.4384367729
 40
0.5009231285
 40
0.5633775276
 40
0.6258037242
 40
0.6882055537
 40
0.7505873616
 40
0.8129534476
 40
0.8753063192
 40
0.9376578047
 40
1.0
 40
1.0
 40
1.0
 40
1.0
 10
14.5332477218
 20
3.7441417513
 30
0.0
 10
14.5402218834
 20
3.746730027
 30
0.0
 10
14.5539504178
 20
3.752512319
 30
0.0
 10
14.5737091975
 20
3.7629176249
 30
0.0
 10
14.5893737859
 20
3.7729583468
 30
0.0
 10
14.6013533289
 20
3.781757121
 30
0.0
 10
14.612944363
 20
3.7910477385
 30
0.0
 10
14.6266846659
 20
3.803550378
 30
0.0
 10
14.641874373
 20
3.8198472004
 30
0.0
 10
14.6556859106
 20
3.8373104975
 30
0.0
 10
14.6680631608
 20
3.855801793
 30
0.0
 10
14.6789604925
 20
3.8751882159
 30
0.0
 10
14.6883479756
 20
3.8953369379
 30
0.0
 10
14.6962072829
 20
3.9161192744
 30
0.0
 10
14.7025288891
 20
3.9374115481
 30
0.0
 10
14.7073099131
 20
3.959095042
 30
0.0
 10
14.7105528987
 20
3.9810573835
 30
0.0
 10
14.7122615808
 20
4.003187693
 30
0.0
 10
14.7123826416
 20
4.0179866839
 30
0.0
 10
14.7121897522
 20
4.0253764886
 30
0.0
  0
SPLINE
  5
2FF
100
AcDbEntity
  8
0
100
AcDbSpline
 62
9
  6
CONTINUOUS
 70
0
 71
3
 72
10
 73
6
 74
0
 42
0.0000001
 43
0.0000001
 44
0.0000000001
 40
0.0
 40
0.0
 40
0.0
 40
0.0
 40
0.2500000197
 40
0.5000000235
 40
1.0
 40
1.0
 40
1.0
 40
1.0
 10
14.7121897522
 20
4.0253764886
 30
0.0
 10
14.7075139032
 20
4.2045149133
 30
0.0
 10
14.6982058857
 20
4.5627928918
 30
0.0
 10
14.6797067596
 20
5.2793518384
 30
0.0
 10
14.665921841
 20
5.8167733378
 30
0.0
 10
14.656752072
 20
6.1750548446
 30
0.0
  0
SPLINE
  5
300
100
AcDbEntity
  8
0
100
AcDbSpline
 62
9
  6
CONTINUOUS
 70
0
 71
3
 72
29
 73
25
 74
0
 42
0.0000001
 43
0.0000001
 44
0.0000000001
 40
0.0
 40
0.0
 40
0.0
 40
0.0
 40
0.0900197995
 40
0.1602944165
 40
0.188479442
 40
0.2122878387
 40
0.2319416351
 40
0.2476882857
 40
0.2598560599
 40
0.2690103771
 40
0.2762589096
 40
0.283448475
 40
0.2923217859
 40
0.3037777503
 40
0.3181647592
 40
0.3356117505
 40
0.3561511857
 40
0.3797683191
 40
0.4360586953
 40
0.504037655
 40
0.5831591728
 40
0.6728747952
 40
0.7726317061
 40
1.0
 40
1.0
 40
1.0
 40
1.0
 10
15.1723641863
 20
6.2046598263
 30
0.0
 10
15.1728011678
 20
6.2045990144
 30
0.0
 10
15.1735779392
 20
6.2044807541
 30
0.0
 10
15.1744852654
 20
6.2043044415
 30
0.0
 10
15.1750666234
 20
6.204158519
 30
0.0
 10
15.1754030825
 20
6.2040574175
 30
0.0
 10
15.1756754366
 20
6.2039565998
 30
0.0
 10
15.1758864071
 20
6.2038561515
 30
0.0
 10
15.1760384162
 20
6.2037552958
 30
0.0
 10
15.1761361867
 20
6.2036518811
 30
0.0
 10
15.1761742989
 20
6.2035365924
 30
0.0
 10
15.1761400871
 20
6.203421713
 30
0.0
 10
15.1760501412
 20
6.2033184795
 30
0.0
 10
15.1759122276
 20
6.2032176427
 30
0.0
 10
15.1757248675
 20
6.2031171164
 30
0.0
 10
15.1754885895
 20
6.2030162919
 30
0.0
 10
15.1752039411
 20
6.2029151999
 30
0.0
 10
15.1747329235
 20
6.2027716191
 30
0.0
 10
15.1740290401
 20
6.2025970012
 30
0.0
 10
15.173052477
 20
6.2023963725
 30
0.0
 10
15.1719092824
 20
6.2021951028
 30
0.0
 10
15.1706083683
 20
6.201993395
 30
0.0
 10
15.1685848405
 20
6.2017118379
 30
0.0
 10
15.1669929093
 20
6.2015203668
 30
0.0
 10
15.1658856504
 20
6.2013948871
 30
0.0
  0
ENDSEC
  0
SECTION
  2
OBJECTS
  0
DICTIONARY
  5
C
100
AcDbDictionary
280
0
281
1
  3
ACAD_GROUP
350
D
  3
ACAD_MLINESTYLE
350
17
  3
ACAD_LAYOUT
350
1A
  3
ACAD_PLOTSETTINGS
350
19
  3
ACAD_PLOTSTYLENAME
350
E
  0
DICTIONARY
  5
D
102
{ACAD_REACTORS
330
C
102
}
100
AcDbDictionary
280
0
281
1
  0
ACDBDICTIONARYWDFLT
  5
E
102
{ACAD_REACTORS
330
C
102
}
100
AcDbDictionary
281
1
  3
Normal
350
F
100
AcDbDictionaryWithDefault
340
F
  0
DICTIONARY
  5
17
102
{ACAD_REACTORS
330
C
102
}
100
AcDbDictionary
280
0
281
1
  3
Standard
350
18
  0
DICTIONARY
  5
19
102
{ACAD_REACTORS
330
C
102
}
100
AcDbDictionary
281
1
  0
DICTIONARY
  5
1A
102
{ACAD_REACTORS
330
C
102
}
100
AcDbDictionary
281
1
  3
Model
350
301
  3
Layout1
350
302
  0
ACDBPLACEHOLDER
  5
F
102
{ACAD_REACTORS
330
E
102
}
  0
MLINESTYLE
  5
18
102
{ACAD_REACTORS
330
17
102
}
100
AcDbMlineStyle
  2
STANDARD
 70
0
  3

 62
256
 51
90.0
 52
90.0
 71
2
 49
0.5
 62
256
  6
BYLAYER
 49
-0.5
 62
256
  6
BYLAYER
  0
LAYOUT
  5
301
102
{ACAD_REACTORS
330
1A
102
}
100
AcDbPlotSettings
  1

  2
none_device
  4
ANSI_C_(22.00_x_17.00_Inches)
  6

 40
0.0
 41
0.0
 42
0.0
 43
0.0
 44
558.8
 45
431.8
 46
0.0
 47
0.0
 48
0.0
 49
0.0
140
0.0
141
0.0
142
1.0
143
1.0
 70
1024
 72
0
 73
0
 74
0
  7

 75
0
147
1.0
148
0.0
149
0.0
100
AcDbLayout
  1
Model
 70
0
 71
0
 10
0.0
 20
0.0
 11
22.0
 21
17.0
 12
0.0
 22
0.0
 32
0.0
 14
0.0
 24
0.0
 34
0.0
 15
0.0
 25
0.0
 35
0.0
146
0.0
 13
0.0
 23
0.0
 33
0.0
 16
1.0
 26
0.0
 36
0.0
 17
0.0
 27
1.0
 37
0.0
 76
0
330
205
345
0
346
0
  0
LAYOUT
  5
302
102
{ACAD_REACTORS
330
1A
102
}
100
AcDbPlotSettings
  1

  2
none_device
  4
ANSI_C_(22.00_x_17.00_Inches)
  6

 40
0.0
 41
0.0
 42
0.0
 43
0.0
 44
558.8
 45
431.8
 46
0.0
 47
0.0
 48
0.0
 49
0.0
140
0.0
141
0.0
142
1.0
143
1.0
 70
0
 72
0
 73
0
 74
0
  7

 75
0
147
1.0
148
0.0
149
0.0
100
AcDbLayout
  1
Layout1
 70
0
 71
1
 10
0.0
 20
0.0
 11
22.0
 21
17.0
 12
0.0
 22
0.0
 32
0.0
 14
0.0
 24
0.0
 34
0.0
 15
0.0
 25
0.0
 35
0.0
146
0.0
 13
0.0
 23
0.0
 33
0.0
 16
1.0
 26
0.0
 36
0.0
 17
0.0
 27
1.0
 37
0.0
 76
0
330
206
345
0
346
0
  0
ENDSEC
  0
EOF
