999
DXF file: E:\BT Custom\CADOUTPUT\_TOP.dxf
999
Pro/ENGINEER 2018400 by Parametric Technology Corporation
  0
SECTION
  2
HEADER
  9
$ACADVER
  1
AC1018
  9
$DWGCODEPAGE
  3
ANSI_1252
  9
$EXTMAX
 10
22.0
 20
17.0
 30
0.0
  9
$EXTMIN
 10
0.0
 20
0.0
 30
0.0
  9
$LIMMIN
 10
0.0
 20
0.0
  9
$LIMMAX
 10
22.0
 20
17.0
  9
$VIEWCTR
 10
11.0
 20
8.5
  9
$VIEWSIZE
 40
17.0
  9
$CLAYER
  8
0
  9
$LTSCALE
 40
1.21
  9
$CELTYPE
  6
BYLAYER
  9
$DIMSCALE
 40
1.0
  9
$DIMASZ
 40
0.1
  9
$DIMEXO
 40
0.0625
  9
$DIMDLI
 40
0.836
  9
$DIMEXE
 40
0.125
  9
$DIMCEN
 40
0.198
  9
$DIMLFAC
 40
1.0
  9
$DIMBLK
  1
_FILLED
  9
$DIMALT
 70
1
  9
$DIMALTD
 70
2
  9
$DIMALTTD
 70
2
  9
$DIMALTF
 40
25.4
  9
$DIMTXT
 40
0.08
  9
$DIMTOL
 70
1
  9
$DIMLIM
 70
0
  9
$DIMTFAC
 40
1.0
  9
$DIMTP
 40
0.001
  9
$DIMTM
 40
0.001
  9
$DIMGAP
 40
0.09
  9
$DIMDSEP
 70
46
  9
$AUNITS
 70
0
  9
$PDMODE
 70
3
  9
$PDSIZE
 40
0.06
  9
$HANDSEED
  5
26E
  9
$TILEMODE
 70
1
  9
$MEASUREMENT
 70
0
  9
$INSUNITS
 70
1
  0
ENDSEC
  0
SECTION
  2
CLASSES
  0
CLASS
  1
ACDBDICTIONARYWDFLT
  2
AcDbDictionaryWithDefault
  3
AutoCAD 2000
 90
0
 91
1
280
0
281
0
  0
CLASS
  1
ACDBPLACEHOLDER
  2
AcDbPlaceHolder
  3
AutoCAD 2000
 90
0
 91
1
280
0
281
0
  0
CLASS
  1
LAYOUT
  2
AcDbLayout
  3
AutoCAD 2000
 90
0
 91
0
280
0
281
0
  0
ENDSEC
  0
SECTION
  2
TABLES
  0
TABLE
  2
VPORT
  5
8
100
AcDbSymbolTable
 70
2
  0
VPORT
  5
1F4
100
AcDbSymbolTableRecord
100
AcDbViewportTableRecord
  2
*ACTIVE
 70
0
 10
0.0
 20
0.0
 11
1.0
 21
1.0
 12
11.0
 22
8.5
 13
0.0
 23
0.0
 14
1.0
 24
1.0
 15
0.0
 25
0.0
 16
0.0
 26
0.0
 36
1.0
 17
0.0
 27
0.0
 37
0.0
 40
17.0
 41
1.2941176471
 42
50.0
 43
0.0
 44
0.0
 50
0.0
 51
0.0
 71
0
 72
100
 73
1
 74
1
 75
0
 76
0
 77
0
 78
0
  0
ENDTAB
  0
TABLE
  2
LTYPE
  5
5
100
AcDbSymbolTable
 70
6
  0
LTYPE
  5
14
100
AcDbSymbolTableRecord
100
AcDbLinetypeTableRecord
  2
BYBLOCK
 70
0
  3

 72
65
 73
0
 40
0.0
  0
LTYPE
  5
15
100
AcDbSymbolTableRecord
100
AcDbLinetypeTableRecord
  2
BYLAYER
 70
0
  3

 72
65
 73
0
 40
0.0
  0
LTYPE
  5
16
100
AcDbSymbolTableRecord
100
AcDbLinetypeTableRecord
  2
CONTINUOUS
 70
64
  3
Solid line
 72
65
 73
0
 40
0.0
  0
LTYPE
  5
1F5
100
AcDbSymbolTableRecord
100
AcDbLinetypeTableRecord
  2
CENTER
 70
64
  3
____ _ ____ _ ____ _ ____ _ ____ _ ____ _ ____
 72
65
 73
4
 40
0.6
 49
0.375
 74
0
 49
-0.075
 74
0
 49
0.075
 74
0
 49
-0.075
 74
0
  0
LTYPE
  5
1F6
100
AcDbSymbolTableRecord
100
AcDbLinetypeTableRecord
  2
HIDDEN
 70
64
  3
- - - - - - - - - - - - - - - - - - - -
 72
65
 73
2
 40
0.2
 49
0.1
 74
0
 49
-0.1
 74
0
  0
LTYPE
  5
1F7
100
AcDbSymbolTableRecord
100
AcDbLinetypeTableRecord
  2
PHANTOM
 70
64
  3
_____ _ _ _____ _ _ _____ _ _ _____
 72
65
 73
6
 40
0.8
 49
0.45
 74
0
 49
-0.05
 74
0
 49
0.1
 74
0
 49
-0.05
 74
0
 49
0.1
 74
0
 49
-0.05
 74
0
  0
LTYPE
  5
1F8
100
AcDbSymbolTableRecord
100
AcDbLinetypeTableRecord
  2
DOT
 70
64
  3
. . . . . . . . . . . . . . . . . . . .
 72
65
 73
2
 40
0.2
 49
0.1
 74
0
 49
-0.1
 74
0
  0
LTYPE
  5
1F9
100
AcDbSymbolTableRecord
100
AcDbLinetypeTableRecord
  2
DASHED
 70
64
  3
- - - - - - - - - - - - - - - - - - - -
 72
65
 73
2
 40
0.2
 49
0.1
 74
0
 49
-0.1
 74
0
  0
ENDTAB
  0
TABLE
  2
LAYER
  5
2
100
AcDbSymbolTable
 70
36
  0
LAYER
  5
10
100
AcDbSymbolTableRecord
100
AcDbLayerTableRecord
  2
0
 70
0
 62
7
  6
CONTINUOUS
370
-3
390
F
  0
LAYER
  5
1FA
100
AcDbSymbolTableRecord
100
AcDbLayerTableRecord
  2
DEFAULT_1
 70
0
 62
7
  6
CENTER
370
-3
390
F
  0
LAYER
  5
1FB
100
AcDbSymbolTableRecord
100
AcDbLayerTableRecord
  2
DEFAULT_2
 70
0
 62
8
  6
HIDDEN
370
-3
390
F
  0
LAYER
  5
1FC
100
AcDbSymbolTableRecord
100
AcDbLayerTableRecord
  2
DEFAULT_3
 70
0
 62
7
  6
PHANTOM
370
-3
390
F
  0
LAYER
  5
1FD
100
AcDbSymbolTableRecord
100
AcDbLayerTableRecord
  2
ALL_FEATURES
 70
0
 62
7
  6
CONTINUOUS
370
-3
390
F
  0
LAYER
  5
1FE
100
AcDbSymbolTableRecord
100
AcDbLayerTableRecord
  2
AXES_FEATURES
 70
0
 62
7
  6
CONTINUOUS
370
-3
390
F
  0
LAYER
  5
1FF
100
AcDbSymbolTableRecord
100
AcDbLayerTableRecord
  2
DEFAULT_COORDINATE_SYSTEM
 70
0
 62
7
  6
CONTINUOUS
370
-3
390
F
  0
LAYER
  5
200
100
AcDbSymbolTableRecord
100
AcDbLayerTableRecord
  2
DEFAULT_DATUM_AXES
 70
0
 62
7
  6
CONTINUOUS
370
-3
390
F
  0
LAYER
  5
201
100
AcDbSymbolTableRecord
100
AcDbLayerTableRecord
  2
DEFAULT_DATUM_PLANES
 70
0
 62
7
  6
CONTINUOUS
370
-3
390
F
  0
LAYER
  5
202
100
AcDbSymbolTableRecord
100
AcDbLayerTableRecord
  2
DIMENSIONS
 70
0
 62
7
  6
CONTINUOUS
370
-3
390
F
  0
ENDTAB
  0
TABLE
  2
STYLE
  5
3
100
AcDbSymbolTable
 70
1
  0
STYLE
  5
11
100
AcDbSymbolTableRecord
100
AcDbTextStyleTableRecord
  2
STANDARD
 70
0
 40
0.0
 41
0.8
 50
0.0
 71
0
 42
0.2
  3
txt
  4

  0
STYLE
  5
203
100
AcDbSymbolTableRecord
100
AcDbTextStyleTableRecord
  2
TEXTSTYLE_1
 70
0
 40
0.0
 41
0.8
 50
0.0
 71
0
 42
0.2
  3
gdt
  4

  0
ENDTAB
  0
TABLE
  2
VIEW
  5
6
100
AcDbSymbolTable
 70
0
  0
ENDTAB
  0
TABLE
  2
UCS
  5
7
100
AcDbSymbolTable
 70
0
  0
ENDTAB
  0
TABLE
  2
APPID
  5
9
100
AcDbSymbolTable
 70
1
  0
APPID
  5
204
100
AcDbSymbolTableRecord
100
AcDbRegAppTableRecord
  2
ACAD
 70
0
  0
ENDTAB
  0
TABLE
  2
BLOCK_RECORD
  5
1
100
AcDbSymbolTable
 70
0
  0
BLOCK_RECORD
  5
205
100
AcDbSymbolTableRecord
100
AcDbBlockTableRecord
  2
*Model_Space
  0
BLOCK_RECORD
  5
206
100
AcDbSymbolTableRecord
100
AcDbBlockTableRecord
  2
*Paper_Space
  0
BLOCK_RECORD
  5
207
100
AcDbSymbolTableRecord
100
AcDbBlockTableRecord
  2
_FILLED
  0
ENDTAB
  0
TABLE
  2
DIMSTYLE
  5
A
100
AcDbSymbolTable
 70
1
100
AcDbDimStyleTable
 71
0
  0
DIMSTYLE
105
208
100
AcDbSymbolTableRecord
100
AcDbDimStyleTableRecord
  2
STANDARD
 70
0
  3

  4

 40
1.0
 41
0.1
 42
0.0625
 43
0.38
 44
0.125
 45
0.0
 46
0.0
 47
0.001
 48
0.001
140
0.08
141
0.09
142
0.0
143
25.4
144
1.0
145
0.0
146
1.0
147
0.09
 71
1.0
 72
0.0
 73
1
 74
1
 75
0
 76
0
 77
0
 78
4
 79
1
170
1
171
2
172
0
173
0
174
0
175
0
176
0
177
0
178
0
270
2
179
3
271
3
272
3
273
2
274
2
275
0
280
0
281
0
282
0
283
1
284
4
285
0
286
0
287
3
288
0
340
11
278
46
341
207
342
207
343
207
344
207
  0
ENDTAB
  0
ENDSEC
  0
SECTION
  2
BLOCKS
  0
BLOCK
  5
20
100
AcDbEntity
  8
0
100
AcDbBlockBegin
  2
*Model_Space
 70
0
 10
0.0
 20
0.0
 30
0.0
  3
*Model_Space
  1

  0
ENDBLK
  5
21
100
AcDbEntity
  8
0
100
AcDbBlockEnd
  0
BLOCK
  5
1C
100
AcDbEntity
  8
0
100
AcDbBlockBegin
  2
*Paper_Space
 70
0
 10
0.0
 20
0.0
 30
0.0
  3
*Paper_Space
  1

  0
ENDBLK
  5
1D
100
AcDbEntity
  8
0
100
AcDbBlockEnd
  0
BLOCK
  5
209
100
AcDbEntity
  8
0
100
AcDbBlockBegin
  2
_FILLED
 70
64
 10
0.0
 20
0.0
  3
_FILLED
  1

  0
SOLID
  5
20A
100
AcDbEntity
  8
0
  6
BYBLOCK
 62
0
100
AcDbTrace
 10
0.0
 20
0.0
 11
-1.0
 21
0.2
 12
-1.0
 22
-0.2
 13
-1.0
 23
-0.2
  0
ENDBLK
  5
20B
100
AcDbEntity
  8
0
  6
BYBLOCK
 62
0
100
AcDbBlockEnd
  0
ENDSEC
  0
SECTION
  2
ENTITIES
  0
LINE
  5
20C
100
AcDbEntity
  8
0
100
AcDbLine
 62
7
  6
CONTINUOUS
 10
9.4853159685
 20
11.6837987381
 11
9.4853159535
 21
3.5169441063
  0
LINE
  5
20D
100
AcDbEntity
  8
0
100
AcDbLine
 62
7
  6
CONTINUOUS
 10
10.6248060801
 20
3.5169441063
 11
10.6248060458
 21
11.6838665903
  0
LINE
  5
20E
100
AcDbEntity
  8
0
100
AcDbLine
 62
9
  6
CONTINUOUS
 10
12.7071556353
 20
11.4291004433
 11
12.7071556353
 21
11.9382340217
  0
LINE
  5
20F
100
AcDbEntity
  8
0
100
AcDbLine
 62
9
  6
CONTINUOUS
 10
12.7364497154
 20
11.4291004433
 11
12.7364497154
 21
11.9382340217
  0
LWPOLYLINE
  5
210
100
AcDbEntity
  8
0
100
AcDbPolyline
 62
7
  6
CONTINUOUS
 90
63
 70
0
 10
13.1285613902
 20
10.5755098682
 10
13.1393415353
 20
10.5768784425
 10
13.1501441927
 20
10.5809691678
 10
13.1595403492
 20
10.5870968743
 10
13.167611583
 20
10.594684752
 10
13.174729452
 20
10.6035328747
 10
13.1812520211
 20
10.6137204672
 10
13.1874279085
 20
10.6254421543
 10
13.1934101001
 20
10.6389213844
 10
13.1992928721
 20
10.654393577
 10
13.2051364183
 20
10.6721053083
 10
13.2109741975
 20
10.6923063012
 10
13.21682037
 20
10.7152481459
 10
13.2226925152
 20
10.7412441013
 10
13.2286209646
 20
10.7707430264
 10
13.234622724
 20
10.8042656842
 10
13.2406760805
 20
10.8422610303
 10
13.2466452734
 20
10.884464923
 10
13.2523764114
 20
10.9302001702
 10
13.2577425521
 20
10.9785393998
 10
13.2626903704
 20
11.0288539494
 10
13.2672322386
 20
11.0810837492
 10
13.2713792079
 20
11.1352434762
 10
13.2751336192
 20
11.1913509367
 10
13.2784808071
 20
11.2492343085
 10
13.281402145
 20
11.3086348014
 10
13.2838834839
 20
11.3692783141
 10
13.2859206675
 20
11.4309120252
 10
13.2875130144
 20
11.4933585609
 10
13.2886570292
 20
11.5564558125
 10
13.2893464858
 20
11.6200377096
 10
13.2895756573
 20
11.6838766572
 10
13.2893434689
 20
11.7477147539
 10
13.2886509931
 20
11.8112941413
 10
13.2875040151
 20
11.8743874317
 10
13.2859087704
 20
11.936828428
 10
13.2838687364
 20
11.99845471
 10
13.2813845989
 20
12.0590885965
 10
13.2784605747
 20
12.1184774364
 10
13.2751108555
 20
12.176348013
 10
13.2713539969
 20
12.2324421099
 10
13.267204579
 20
12.2865886867
 10
13.2626602719
 20
12.3388050547
 10
13.257710097
 20
12.3891049756
 10
13.2523418312
 20
12.4374269864
 10
13.2466091326
 20
12.4831402431
 10
13.2406390462
 20
12.5253191373
 10
13.2345854586
 20
12.5632884381
 10
13.2285837866
 20
12.5967866501
 10
13.2226554462
 20
12.6262636473
 10
13.2167833774
 20
12.6522397879
 10
13.2109372501
 20
12.6751634934
 10
13.2050995678
 20
12.6953477881
 10
13.1992560592
 20
12.7130442913
 10
13.1933731105
 20
12.7285026853
 10
13.1873903911
 20
12.7419694691
 10
13.1812133508
 20
12.7536801675
 10
13.1746885143
 20
12.7638582798
 10
13.1675666101
 20
12.7726981218
 10
13.1594889463
 20
12.7802778853
 10
13.1500844075
 20
12.7863954972
 10
13.1392741279
 20
12.7904720787
 10
13.1285626257
 20
12.7918239606
  0
LINE
  5
211
100
AcDbEntity
  8
0
100
AcDbLine
 62
7
  6
CONTINUOUS
 10
13.1285330992
 20
10.5755095576
 11
13.1285613906
 21
10.5755097781
  0
LWPOLYLINE
  5
212
100
AcDbEntity
  8
0
100
AcDbPolyline
 62
7
  6
CONTINUOUS
 90
4
 70
0
 10
12.7127950824
 20
11.3997316813
 10
12.8089631889
 20
11.4198173258
 10
12.8971719287
 20
11.4383368021
 10
12.9768587316
 20
11.4551937511
  0
LINE
  5
213
100
AcDbEntity
  8
0
100
AcDbLine
 62
7
  6
CONTINUOUS
 10
12.7127940011
 20
11.399731457
 11
12.7128120784
 21
11.3997352298
  0
LINE
  5
214
100
AcDbEntity
  8
0
100
AcDbLine
 62
7
  6
CONTINUOUS
 10
12.7128120784
 20
11.3997352298
 11
12.71088455
 21
11.3993974867
  0
LWPOLYLINE
  5
215
100
AcDbEntity
  8
0
100
AcDbPolyline
 62
7
  6
CONTINUOUS
 90
24
 70
0
 10
10.6248060801
 20
10.7413308773
 10
10.6347825632
 20
10.7421524525
 10
10.6561738076
 20
10.7437738898
 10
10.6808627809
 20
10.7455011706
 10
10.7087467457
 20
10.747308583
 10
10.7396529238
 20
10.7491732249
 10
10.7735531912
 20
10.7510863768
 10
10.8105620171
 20
10.7530490669
 10
10.8508059855
 20
10.7550625677
 10
10.8943566846
 20
10.7571251416
 10
10.9411470043
 20
10.759228602
 10
10.99106352
 20
10.7613629867
 10
11.0440340142
 20
10.7635196369
 10
11.1000671645
 20
10.765691107
 10
11.1591911323
 20
10.7678668979
 10
11.2214233272
 20
10.7700325211
 10
11.286724182
 20
10.7721695016
 10
11.3549975141
 20
10.7742542616
 10
11.4261327448
 20
10.7762572245
 10
11.4999346318
 20
10.7781397485
 10
11.576186547
 20
10.7798542749
 10
11.6549977342
 20
10.7813482238
 10
11.7365839425
 20
10.7825513973
 10
11.8212147847
 20
10.7833681746
  0
LINE
  5
216
100
AcDbEntity
  8
0
100
AcDbLine
 62
7
  6
CONTINUOUS
 10
11.9160850511
 20
10.7836669139
 11
11.8212147847
 21
10.7833681746
  0
LWPOLYLINE
  5
217
100
AcDbEntity
  8
0
100
AcDbPolyline
 62
7
  6
CONTINUOUS
 90
3
 70
0
 10
13.1193649587
 20
10.5763641377
 10
13.1229007897
 20
10.5758147958
 10
13.1285330992
 20
10.5755095576
  0
LWPOLYLINE
  5
218
100
AcDbEntity
  8
0
100
AcDbPolyline
 62
7
  6
CONTINUOUS
 90
4
 70
0
 10
12.1478400393
 20
10.7653695017
 10
12.4338254255
 20
10.7098358357
 10
12.768940968
 20
10.6446453606
 10
13.1193650673
 20
10.5763641073
  0
LINE
  5
219
100
AcDbEntity
  8
0
100
AcDbLine
 62
9
  6
CONTINUOUS
 10
12.7364497154
 20
11.4291004433
 11
12.7071556353
 21
11.4291004433
  0
LINE
  5
21A
100
AcDbEntity
  8
0
100
AcDbLine
 62
9
  6
CONTINUOUS
 10
12.2233489495
 20
11.6836669139
 11
11.8673516492
 21
11.6836669139
  0
LINE
  5
21B
100
AcDbEntity
  8
0
100
AcDbLine
 62
9
  6
CONTINUOUS
 10
10.8310941839
 20
11.6836669139
 11
11.7964771806
 21
11.6836669139
  0
LWPOLYLINE
  5
21C
100
AcDbEntity
  8
0
100
AcDbPolyline
 62
7
  6
CONTINUOUS
 90
8
 70
0
 10
12.4837249842
 20
11.394998383
 10
12.5130179248
 20
11.3915000268
 10
12.5435091163
 20
11.3894639239
 10
12.5751640663
 20
11.3888350358
 10
12.6079500958
 20
11.3895767405
 10
12.6418710074
 20
11.3916585601
 10
12.6769512896
 20
11.3950538115
 10
12.7108862215
 20
11.3993977243
  0
LINE
  5
21D
100
AcDbEntity
  8
0
100
AcDbLine
 62
9
  6
CONTINUOUS
 10
12.7071556353
 20
11.9382340217
 11
12.7364497154
 21
11.9382340217
  0
LWPOLYLINE
  5
21E
100
AcDbEntity
  8
0
100
AcDbPolyline
 62
7
  6
CONTINUOUS
 90
43
 70
0
 10
12.7108880526
 20
11.9679364801
 10
12.676766905
 20
11.9723037586
 10
12.6416820402
 20
11.9756960629
 10
12.6077531175
 20
11.9777740541
 10
12.5749579727
 20
11.9785100803
 10
12.5432960954
 20
11.9778732149
 10
12.5128012844
 20
11.9758268094
 10
12.4835065683
 20
11.9723154984
 10
12.4554453238
 20
11.9672419234
 10
12.4287702049
 20
11.9604743335
 10
12.4036994475
 20
11.9519299206
 10
12.3805681989
 20
11.941715543
 10
12.3595203157
 20
11.930112338
 10
12.3403260619
 20
11.9172723192
 10
12.3226458994
 20
11.9031602582
 10
12.3062057486
 20
11.8876084776
 10
12.2907970787
 20
11.8704143607
 10
12.2765509531
 20
11.8516547355
 10
12.2636940716
 20
11.8315421771
 10
12.2524109729
 20
11.8103062939
 10
12.2428438657
 20
11.7881945692
 10
12.235090641
 20
11.7654129595
 10
12.2292223713
 20
11.7421605052
 10
12.2252909603
 20
11.7186539393
 10
12.2233287656
 20
11.6950452258
 10
12.2233707102
 20
11.6713996861
 10
12.2254044572
 20
11.6477847258
 10
12.2294000037
 20
11.6242775745
 10
12.2353352212
 20
11.6010368483
 10
12.2431563106
 20
11.578280563
 10
12.2527812274
 20
11.5562167519
 10
12.2641035898
 20
11.5350570263
 10
12.2769754609
 20
11.515040512
 10
12.2912072744
 20
11.4963893539
 10
12.3065807314
 20
11.4793147334
 10
12.3229842544
 20
11.4638722674
 10
12.3406112176
 20
11.4498410337
 10
12.3597443826
 20
11.4370717024
 10
12.3807597799
 20
11.4255230804
 10
12.4039050476
 20
11.4153380252
 10
12.4289778093
 20
11.4068008484
 10
12.4556570368
 20
11.4000582908
 10
12.4837249842
 20
11.394998383
  0
LINE
  5
21F
100
AcDbEntity
  8
0
100
AcDbLine
 62
7
  6
CONTINUOUS
 10
12.7128375882
 20
11.9675938911
 11
12.7108864073
 21
11.9679367149
  0
LWPOLYLINE
  5
220
100
AcDbEntity
  8
0
100
AcDbPolyline
 62
7
  6
CONTINUOUS
 90
3
 70
0
 10
12.9766427079
 20
11.9124378505
 10
12.8970070116
 20
11.9291448158
 10
12.7127901018
 20
11.9676038212
  0
LWPOLYLINE
  5
221
100
AcDbEntity
  8
0
100
AcDbPolyline
 62
7
  6
CONTINUOUS
 90
4
 70
0
 10
13.1193650674
 20
12.7909697204
 10
12.7689408321
 20
12.7226884407
 10
12.4338253613
 20
12.6574979795
 10
12.1478400393
 20
12.601964326
  0
LWPOLYLINE
  5
222
100
AcDbEntity
  8
0
100
AcDbPolyline
 62
7
  6
CONTINUOUS
 90
32
 70
0
 10
11.9160850511
 20
12.5836669139
 10
11.8211936607
 20
12.5839657959
 10
11.7365432495
 20
12.5847829326
 10
11.6549389827
 20
12.5859865994
 10
11.5761109344
 20
12.5874811231
 10
11.4998432909
 20
12.5891962724
 10
11.4260268795
 20
12.5910794427
 10
11.3548788343
 20
12.5930830453
 10
11.2865942083
 20
12.5951684308
 10
11.2212836224
 20
12.597306014
 10
11.159043245
 20
12.5994722128
 10
11.099912609
 20
12.6016485449
 10
11.0438743694
 20
12.6038205158
 10
10.9909005061
 20
12.605977622
 10
10.9409826323
 20
12.608112408
 10
10.8941938606
 20
12.6102161713
 10
10.850648226
 20
12.6122789084
 10
10.8104126696
 20
12.6142924196
 10
10.7734137178
 20
12.6162550442
 10
10.7395231664
 20
12.6181681349
 10
10.7086255923
 20
12.6200327812
 10
10.6807519884
 20
12.62184008
 10
10.6560771207
 20
12.6235669445
 10
10.6347043028
 20
12.6251875292
 10
10.6166413292
 20
12.6266755075
 10
10.6015275943
 20
12.6280314253
 10
10.5886433877
 20
12.6292940606
 10
10.5778797302
 20
12.6304505275
 10
10.5694904823
 20
12.6314422015
 10
10.5636785813
 20
12.6321994892
 10
10.5605514069
 20
12.632647958
 10
10.5600050404
 20
12.6327325872
  0
LWPOLYLINE
  5
223
100
AcDbEntity
  8
0
100
AcDbPolyline
 62
7
  6
CONTINUOUS
 90
3
 70
0
 10
13.1285335598
 20
12.7918242663
 10
13.1228551194
 20
12.79151371
 10
13.1193649107
 20
12.7909696812
  0
LINE
  5
224
100
AcDbEntity
  8
0
100
AcDbLine
 62
7
  6
CONTINUOUS
 10
13.1285335595
 20
12.791824188
 11
13.1285626257
 21
12.7918239606
  0
ARC
  5
225
100
AcDbEntity
  8
0
100
AcDbCircle
 62
9
  6
CONTINUOUS
 10
-1.8753813538
 20
81.6598707982
 40
71.7346974217
100
AcDbArc
 50
281.7529792127
 51
281.9683986176
  0
ARC
  5
226
100
AcDbEntity
  8
0
100
AcDbCircle
 62
7
  6
CONTINUOUS
 10
10.0550610168
 20
11.6836669139
 40
1.25
100
AcDbArc
 50
297.133632518
 51
312.1253698616
  0
ARC
  5
227
100
AcDbEntity
  8
0
100
AcDbCircle
 62
7
  6
CONTINUOUS
 10
10.0550610168
 20
11.6836669139
 40
1.25
100
AcDbArc
 50
47.8746148412
 51
242.866367482
  0
ARC
  5
228
100
AcDbEntity
  8
0
100
AcDbCircle
 62
9
  6
CONTINUOUS
 10
10.2381986148
 20
11.5071773377
 40
0.8862085362
100
AcDbArc
 50
295.8659047133
 51
300.8228572614
  0
ARC
  5
229
100
AcDbEntity
  8
0
100
AcDbCircle
 62
7
  6
CONTINUOUS
 10
11.9160854371
 20
11.6836753945
 40
0.8124915194
100
AcDbArc
 50
82.4913222084
 51
90.0000272196
  0
ARC
  5
22A
100
AcDbEntity
  8
0
100
AcDbCircle
 62
7
  6
CONTINUOUS
 10
11.9160854402
 20
11.6836583115
 40
0.8124913976
100
AcDbArc
 50
269.9999725625
 51
277.5085113655
  0
ARC
  5
22B
100
AcDbEntity
  8
0
100
AcDbCircle
 62
7
  6
CONTINUOUS
 10
10.0656375028
 20
11.6836673943
 40
0.5803215492
100
AcDbArc
 50
178.0301865031
 51
179.9870245601
  0
ARC
  5
22C
100
AcDbEntity
  8
0
100
AcDbCircle
 62
7
  6
CONTINUOUS
 10
10.0444852986
 20
11.6836674092
 40
0.5803207814
100
AcDbArc
 50
0.0196770867
 51
1.9698146335
  0
ARC
  5
22D
100
AcDbEntity
  8
0
100
AcDbCircle
 62
9
  6
CONTINUOUS
 10
10.0583542437
 20
3.5736587511
 40
0.5664518365
100
AcDbArc
 50
354.2735437926
 51
0.000825653
  0
ARC
  5
22E
100
AcDbEntity
  8
0
100
AcDbCircle
 62
9
  6
CONTINUOUS
 10
10.0420708219
 20
3.5058607179
 40
0.5586194138
100
AcDbArc
 50
175.5144025729
 51
178.8573465271
  0
ARC
  5
22F
100
AcDbEntity
  8
0
100
AcDbCircle
 62
9
  6
CONTINUOUS
 10
10.0680512118
 20
3.5058607179
 40
0.5586194138
100
AcDbArc
 50
1.1426534729
 51
4.485597427
  0
ARC
  5
230
100
AcDbEntity
  8
0
100
AcDbCircle
 62
9
  6
CONTINUOUS
 10
10.0418530618
 20
3.505862068
 40
0.5584016701
100
AcDbArc
 50
178.8570394612
 51
179.9998968919
  0
ARC
  5
231
100
AcDbEntity
  8
0
100
AcDbCircle
 62
9
  6
CONTINUOUS
 10
10.0682689718
 20
3.505862068
 40
0.5584016701
100
AcDbArc
 50
0.0001031081
 51
1.1429605388
  0
SPLINE
  5
232
100
AcDbEntity
  8
0
100
AcDbSpline
 62
7
  6
CONTINUOUS
 70
0
 71
3
 72
37
 73
33
 74
0
 42
0.0000001
 43
0.0000001
 44
0.0000000001
 40
0.0
 40
0.0
 40
0.0
 40
0.0
 40
0.086400444
 40
0.1721146492
 40
0.2564789884
 40
0.2979497208
 40
0.3388336608
 40
0.3790478496
 40
0.4185166589
 40
0.4571695236
 40
0.4949396304
 40
0.5317609931
 40
0.5675689672
 40
0.6023003487
 40
0.6358907602
 40
0.6682801929
 40
0.6994197556
 40
0.7292731554
 40
0.7578132046
 40
0.7850157236
 40
0.8108619602
 40
0.8353400246
 40
0.8584448875
 40
0.8801845916
 40
0.9005867223
 40
0.9197097879
 40
0.9376381732
 40
0.9544787426
 40
0.9703666629
 40
0.9854698014
 40
0.9927934089
 40
1.0
 40
1.0
 40
1.0
 40
1.0
 10
11.8673516492
 20
11.6836669139
 30
0.0
 10
11.8673516492
 20
11.6548130786
 30
0.0
 10
11.8682400726
 20
11.5973305851
 30
0.0
 10
11.8721946451
 20
11.5117570326
 30
0.0
 10
11.8776629788
 20
11.4413076426
 30
0.0
 10
11.8833404239
 20
11.3859191009
 30
0.0
 10
11.8882038196
 20
11.3452744663
 30
0.0
 10
11.8936912383
 20
11.3053841049
 30
0.0
 10
11.8997868516
 20
11.2663359518
 30
0.0
 10
11.9064739746
 20
11.228213036
 30
0.0
 10
11.9137339177
 20
11.1910953823
 30
0.0
 10
11.9215498148
 20
11.1550621868
 30
0.0
 10
11.9299047164
 20
11.120192594
 30
0.0
 10
11.9387805637
 20
11.0865664151
 30
0.0
 10
11.9481616968
 20
11.0542644354
 30
0.0
 10
11.9580318264
 20
11.0233649601
 30
0.0
 10
11.9683687698
 20
10.9939376096
 30
0.0
 10
11.9791469403
 20
10.9660423378
 30
0.0
 10
11.9903374801
 20
10.9397323382
 30
0.0
 10
12.0019156033
 20
10.9150603081
 30
0.0
 10
12.0138561028
 20
10.8920789419
 30
0.0
 10
12.0261329361
 20
10.8708407295
 30
0.0
 10
12.0387228296
 20
10.8513995456
 30
0.0
 10
12.0516016956
 20
10.8338068207
 30
0.0
 10
12.0647479526
 20
10.8181082062
 30
0.0
 10
12.0781318091
 20
10.8043327623
 30
0.0
 10
12.0917226067
 20
10.7924986838
 30
0.0
 10
12.1054969342
 20
10.7826278956
 30
0.0
 10
12.1194276625
 20
10.7747451469
 30
0.0
 10
12.131271626
 20
10.7698047438
 30
0.0
 10
12.1407449328
 20
10.7669215603
 30
0.0
 10
12.145477412
 20
10.7658279178
 30
0.0
 10
12.147840041
 20
10.7653695846
 30
0.0
  0
SPLINE
  5
233
100
AcDbEntity
  8
0
100
AcDbSpline
 62
7
  6
CONTINUOUS
 70
0
 71
3
 72
31
 73
27
 74
0
 42
0.0000001
 43
0.0000001
 44
0.0000000001
 40
0.0
 40
0.0
 40
0.0
 40
0.0
 40
0.0624564651
 40
0.1249464008
 40
0.1874668353
 40
0.2499932037
 40
0.2812586514
 40
0.3125158452
 40
0.3437636976
 40
0.3750031454
 40
0.4062377156
 40
0.4374736071
 40
0.46871612
 40
0.499967687
 40
0.5624780365
 40
0.625005609
 40
0.687521525
 40
0.7187768984
 40
0.7500229372
 40
0.7812610464
 40
0.7968795342
 40
0.8124978361
 40
0.8437347144
 40
0.874978911
 40
0.9374760677
 40
1.0
 40
1.0
 40
1.0
 40
1.0
 10
10.0550610168
 20
12.2536669139
 30
0.0
 10
10.0364328799
 20
12.2536669139
 30
0.0
 10
9.9991408776
 20
12.2517737835
 30
0.0
 10
9.9437676204
 20
12.243428603
 30
0.0
 10
9.8894425
 20
12.2297514472
 30
0.0
 10
9.8454630518
 20
12.2140447904
 30
0.0
 10
9.811329131
 20
12.1989839523
 30
0.0
 10
9.7863100914
 20
12.186458146
 30
0.0
 10
9.7619423322
 20
12.1727249266
 30
0.0
 10
9.7382898252
 20
12.1578053296
 30
0.0
 10
9.7154188486
 20
12.1417188395
 30
0.0
 10
9.6933921552
 20
12.1244933642
 30
0.0
 10
9.6722479033
 20
12.1061873004
 30
0.0
 10
9.6452894097
 20
12.0804148177
 30
0.0
 10
9.6139896046
 20
12.0457629263
 30
0.0
 10
9.580619978
 20
12.0007642419
 30
0.0
 10
9.5565446889
 20
11.9607512983
 30
0.0
 10
9.5396980518
 20
11.9274728248
 30
0.0
 10
9.528305623
 20
11.9019278856
 30
0.0
 10
9.519881869
 20
11.880198393
 30
0.0
 10
9.5138062392
 20
11.86258123
 30
0.0
 10
9.5081795112
 20
11.8448160629
 30
0.0
 10
9.5019888174
 20
11.8223485783
 30
0.0
 10
9.4938847677
 20
11.7859514139
 30
0.0
 10
9.4871263822
 20
11.7397584231
 30
0.0
 10
9.4853202039
 20
11.7024469972
 30
0.0
 10
9.4853159685
 20
11.6837987381
 30
0.0
  0
SPLINE
  5
234
100
AcDbEntity
  8
0
100
AcDbSpline
 62
7
  6
CONTINUOUS
 70
0
 71
3
 72
30
 73
26
 74
0
 42
0.0000001
 43
0.0000001
 44
0.0000000001
 40
0.0
 40
0.0
 40
0.0
 40
0.0
 40
0.0628166419
 40
0.1256528632
 40
0.1884927997
 40
0.2513000833
 40
0.3140358683
 40
0.345377978
 40
0.3766959331
 40
0.4079923001
 40
0.4392725692
 40
0.470541786
 40
0.5018023137
 40
0.5642777047
 40
0.6267016908
 40
0.6890493466
 40
0.7201981942
 40
0.7513239076
 40
0.7824289374
 40
0.7979764834
 40
0.8135211116
 40
0.844603194
 40
0.875684091
 40
0.9378355345
 40
1.0
 40
1.0
 40
1.0
 40
1.0
 10
10.0550610168
 20
2.9535025908
 30
0.0
 10
10.0364306782
 20
2.9535025908
 30
0.0
 10
9.9991388695
 20
2.9553740644
 30
0.0
 10
9.9437637336
 20
2.9636235752
 30
0.0
 10
9.8894333017
 20
2.9771458027
 30
0.0
 10
9.8366709717
 20
2.995772237
 30
0.0
 10
9.7944081458
 20
3.0154247831
 30
0.0
 10
9.7619097813
 20
3.0335324144
 30
0.0
 10
9.7382548032
 20
3.0482841528
 30
0.0
 10
9.7153821312
 20
3.0641894395
 30
0.0
 10
9.6933537192
 20
3.0812210452
 30
0.0
 10
9.6722080538
 20
3.0993210495
 30
0.0
 10
9.6452556782
 20
3.1247962024
 30
0.0
 10
9.6139618649
 20
3.1590474407
 30
0.0
 10
9.5805900215
 20
3.2035390081
 30
0.0
 10
9.5565083101
 20
3.2431112
 30
0.0
 10
9.539659968
 20
3.2760224186
 30
0.0
 10
9.5282697751
 20
3.301279351
 30
0.0
 10
9.519847523
 20
3.3227658543
 30
0.0
 10
9.5137736675
 20
3.3401857141
 30
0.0
 10
9.5081499045
 20
3.357748817
 30
0.0
 10
9.5019628322
 20
3.3799610929
 30
0.0
 10
9.4938652683
 20
3.4159435597
 30
0.0
 10
9.4871146328
 20
3.4616136395
 30
0.0
 10
9.4853159535
 20
3.498507192
 30
0.0
 10
9.4853159535
 20
3.5169441063
 30
0.0
  0
LINE
  5
235
100
AcDbEntity
  8
0
100
AcDbLine
 62
7
  6
CONTINUOUS
 10
9.0503410545
 20
3.0243864699
 11
9.0503413205
 21
3.0251090786
  0
SPLINE
  5
236
100
AcDbEntity
  8
0
100
AcDbSpline
 62
7
  6
CONTINUOUS
 70
0
 71
3
 72
27
 73
23
 74
0
 42
0.0000001
 43
0.0000001
 44
0.0000000001
 40
0.0
 40
0.0
 40
0.0
 40
0.0
 40
0.0623183585
 40
0.0934830845
 40
0.1246489691
 40
0.1869825304
 40
0.2493311235
 40
0.280516151
 40
0.3117066725
 40
0.3740990078
 40
0.4365193909
 40
0.4989714079
 40
0.5614581786
 40
0.623982312
 40
0.6865458684
 40
0.717846506
 40
0.7491575036
 40
0.8118037508
 40
0.8744920573
 40
0.9058554668
 40
0.9372292102
 40
1.0
 40
1.0
 40
1.0
 40
1.0
 10
9.0503413205
 20
3.0251090786
 30
0.0
 10
9.0503560531
 20
3.0451222873
 30
0.0
 10
9.0512965089
 20
3.0751538084
 30
0.0
 10
9.054382502
 20
3.1150694752
 30
0.0
 10
9.0586871294
 20
3.1548783694
 30
0.0
 10
9.0663472676
 20
3.2043718625
 30
0.0
 10
9.0770166907
 20
3.2533113535
 30
0.0
 10
9.0873325037
 20
3.2920203259
 30
0.0
 10
9.0988282083
 20
3.3304099867
 30
0.0
 10
9.1153917932
 20
3.3777281194
 30
0.0
 10
9.1386966288
 20
3.4332075772
 30
0.0
 10
9.1653485671
 20
3.4871939361
 30
0.0
 10
9.1952499022
 20
3.539488942
 30
0.0
 10
9.2282904602
 20
3.5899009068
 30
0.0
 10
9.2583380713
 20
3.6301859269
 30
0.0
 10
9.2838150014
 20
3.6612879902
 30
0.0
 10
9.3102390964
 20
3.6916248618
 30
0.0
 10
9.344990225
 20
3.7280436267
 30
0.0
 10
9.3818899495
 20
3.762308004
 30
0.0
 10
9.4126206013
 20
3.7883566803
 30
0.0
 10
9.4441421009
 20
3.813483081
 30
0.0
 10
9.468631259
 20
3.8312548158
 30
0.0
 10
9.4852951565
 20
3.8425985385
 30
0.0
  0
SPLINE
  5
237
100
AcDbEntity
  8
0
100
AcDbSpline
 62
7
  6
CONTINUOUS
 70
0
 71
3
 72
27
 73
23
 74
0
 42
0.0000001
 43
0.0000001
 44
0.0000000001
 40
0.0
 40
0.0
 40
0.0
 40
0.0
 40
0.0627707894
 40
0.0941445326
 40
0.1255079419
 40
0.188196248
 40
0.2508424947
 40
0.2821534922
 40
0.3134541296
 40
0.3760176858
 40
0.438541819
 40
0.5010285895
 40
0.5634806064
 40
0.6259009896
 40
0.688293325
 40
0.7194838467
 40
0.7506688743
 40
0.8130174678
 40
0.8753510296
 40
0.9065169144
 40
0.9376816408
 40
1.0
 40
1.0
 40
1.0
 40
1.0
 10
10.6248273626
 20
3.842598208
 30
0.0
 10
10.6414912433
 20
3.8312544827
 30
0.0
 10
10.6659803761
 20
3.8134827448
 30
0.0
 10
10.6975018428
 20
3.7883563427
 30
0.0
 10
10.728232462
 20
3.7623076664
 30
0.0
 10
10.7651321468
 20
3.728043292
 30
0.0
 10
10.7998832373
 20
3.6916245336
 30
0.0
 10
10.8263073031
 20
3.6612876693
 30
0.0
 10
10.8517842047
 20
3.6301856146
 30
0.0
 10
10.8818317818
 20
3.5899006077
 30
0.0
 10
10.9148723019
 20
3.5394886623
 30
0.0
 10
10.9447736025
 20
3.4871936791
 30
0.0
 10
10.9714255096
 20
3.4332073458
 30
0.0
 10
10.9947303178
 20
3.3777279163
 30
0.0
 10
11.0112938831
 20
3.330409809
 30
0.0
 10
11.022789574
 20
3.2920201694
 30
0.0
 10
11.0331053748
 20
3.2533112188
 30
0.0
 10
11.0437747851
 20
3.204371756
 30
0.0
 10
11.0514349141
 20
3.154878292
 30
0.0
 10
11.0557395364
 20
3.1150694214
 30
0.0
 10
11.0588255258
 20
3.0751537784
 30
0.0
 10
11.0597659806
 20
3.0451222753
 30
0.0
 10
11.0597807132
 20
3.0251090786
 30
0.0
  0
LINE
  5
238
100
AcDbEntity
  8
0
100
AcDbLine
 62
7
  6
CONTINUOUS
 10
11.0597807132
 20
3.0251090786
 11
11.0597809791
 21
3.0243864699
  0
SPLINE
  5
239
100
AcDbEntity
  8
0
100
AcDbSpline
 62
7
  6
CONTINUOUS
 70
0
 71
3
 72
71
 73
67
 74
0
 42
0.0000001
 43
0.0000001
 44
0.0000000001
 40
0.0
 40
0.0
 40
0.0
 40
0.0
 40
0.0155380142
 40
0.0310773219
 40
0.0466178904
 40
0.0621611185
 40
0.07770757
 40
0.0932580641
 40
0.1088133105
 40
0.1243739796
 40
0.1399406939
 40
0.1555140138
 40
0.1710944363
 40
0.1866823888
 40
0.2022782259
 40
0.2178822262
 40
0.2334945897
 40
0.2491154355
 40
0.2647448002
 40
0.2803826383
 40
0.296028823
 40
0.3116831485
 40
0.3273453302
 40
0.3430150081
 40
0.3586917496
 40
0.3743750556
 40
0.3900643647
 40
0.4057590584
 40
0.4214584663
 40
0.4371618726
 40
0.452868524
 40
0.4685776366
 40
0.4842884037
 40
0.5000000021
 40
0.5157116006
 40
0.5314223676
 40
0.5471314802
 40
0.5628381315
 40
0.5785415378
 40
0.5942409455
 40
0.6099356391
 40
0.6256249481
 40
0.6413082539
 40
0.6569849953
 40
0.6726546729
 40
0.6883168545
 40
0.7039711797
 40
0.7196173643
 40
0.7352552021
 40
0.7508845667
 40
0.7665054123
 40
0.7821177755
 40
0.7977217756
 40
0.8133176125
 40
0.8289055648
 40
0.8444859872
 40
0.8600593069
 40
0.875626021
 40
0.8911866899
 40
0.9067419362
 40
0.9222924303
 40
0.9378388817
 40
0.9533821097
 40
0.9689226782
 40
0.9844619858
 40
1.0
 40
1.0
 40
1.0
 40
1.0
 10
11.0597809791
 20
3.0243864699
 30
0.0
 10
11.0597809791
 20
3.0081319779
 30
0.0
 10
11.0589735226
 20
2.9756158623
 30
0.0
 10
11.0553433957
 20
2.9269645443
 30
0.0
 10
11.0493025523
 20
2.8785466825
 30
0.0
 10
11.0408661311
 20
2.8304810631
 30
0.0
 10
11.0300541294
 20
2.7828827568
 30
0.0
 10
11.0168927916
 20
2.7358667936
 30
0.0
 10
11.0014138587
 20
2.6895464357
 30
0.0
 10
10.9836547447
 20
2.6440333376
 30
0.0
 10
10.963658333
 20
2.5994371811
 30
0.0
 10
10.9414728841
 20
2.5558654326
 30
0.0
 10
10.9171519194
 20
2.5134230894
 30
0.0
 10
10.8907541204
 20
2.4722124096
 30
0.0
 10
10.8623432165
 20
2.4323326384
 30
0.0
 10
10.8319877565
 20
2.3938798109
 30
0.0
 10
10.7997609569
 20
2.3569465185
 30
0.0
 10
10.7657405223
 20
2.3216216912
 30
0.0
 10
10.730008461
 20
2.2879903885
 30
0.0
 10
10.6926509443
 20
2.2561335297
 30
0.0
 10
10.6537580322
 20
2.2261277584
 30
0.0
 10
10.6134234576
 20
2.1980452648
 30
0.0
 10
10.5717444051
 20
2.1719536126
 30
0.0
 10
10.5288212731
 20
2.1479155942
 30
0.0
 10
10.4847574726
 20
2.1259890103
 30
0.0
 10
10.4396591522
 20
2.1062265587
 30
0.0
 10
10.3936349248
 20
2.0886757488
 30
0.0
 10
10.3467956161
 20
2.0733787796
 30
0.0
 10
10.299253999
 20
2.0603724527
 30
0.0
 10
10.2511245376
 20
2.0496880466
 30
0.0
 10
10.2025231128
 20
2.0413512034
 30
0.0
 10
10.1535667245
 20
2.0353819482
 30
0.0
 10
10.1043732189
 20
2.0317946287
 30
0.0
 10
10.0550610101
 20
2.0305978853
 30
0.0
 10
10.0057488013
 20
2.0317946295
 30
0.0
 10
9.9565552959
 20
2.0353819496
 30
0.0
 10
9.9075989078
 20
2.0413512053
 30
0.0
 10
9.8589974833
 20
2.0496880491
 30
0.0
 10
9.8108680223
 20
2.0603724557
 30
0.0
 10
9.7633264058
 20
2.0733787832
 30
0.0
 10
9.7164870976
 20
2.0886757529
 30
0.0
 10
9.6704628708
 20
2.1062265631
 30
0.0
 10
9.625364551
 20
2.125989015
 30
0.0
 10
9.5813007512
 20
2.1479155991
 30
0.0
 10
9.53837762
 20
2.1719536177
 30
0.0
 10
9.4966985682
 20
2.19804527
 30
0.0
 10
9.4563639944
 20
2.2261277636
 30
0.0
 10
9.4174710831
 20
2.2561335348
 30
0.0
 10
9.3801135671
 20
2.2879903934
 30
0.0
 10
9.3443815065
 20
2.3216216959
 30
0.0
 10
9.3103610726
 20
2.356946523
 30
0.0
 10
9.2781342737
 20
2.3938798151
 30
0.0
 10
9.2477788143
 20
2.4323326422
 30
0.0
 10
9.2193679109
 20
2.4722124131
 30
0.0
 10
9.1929701123
 20
2.5134230924
 30
0.0
 10
9.1686491482
 20
2.5558654353
 30
0.0
 10
9.1464636996
 20
2.5994371834
 30
0.0
 10
9.1264672882
 20
2.6440333395
 30
0.0
 10
9.1087081744
 20
2.6895464371
 30
0.0
 10
9.0932292417
 20
2.7358667948
 30
0.0
 10
9.080067904
 20
2.7828827576
 30
0.0
 10
9.0692559024
 20
2.8304810636
 30
0.0
 10
9.0608194813
 20
2.8785466828
 30
0.0
 10
9.0547786379
 20
2.9269645445
 30
0.0
 10
9.051148511
 20
2.9756158624
 30
0.0
 10
9.0503410545
 20
3.008131978
 30
0.0
 10
9.0503410545
 20
3.0243864699
 30
0.0
  0
SPLINE
  5
23A
100
AcDbEntity
  8
0
100
AcDbSpline
 62
7
  6
CONTINUOUS
 70
0
 71
3
 72
31
 73
27
 74
0
 42
0.0000001
 43
0.0000001
 44
0.0000000001
 40
0.0
 40
0.0
 40
0.0
 40
0.0
 40
0.0310737949
 40
0.0621493689
 40
0.0932284338
 40
0.1243126702
 40
0.186484045
 40
0.2486950313
 40
0.2798283319
 40
0.3109753788
 40
0.3421372151
 40
0.3733147558
 40
0.435700845
 40
0.4981564888
 40
0.5606830193
 40
0.6232790347
 40
0.6546112172
 40
0.6859589975
 40
0.7173215116
 40
0.7486977062
 40
0.8114677244
 40
0.8742769089
 40
0.9057017225
 40
0.9371311802
 40
0.9685658508
 40
1.0
 40
1.0
 40
1.0
 40
1.0
 10
10.6170609827
 20
3.5131625858
 30
0.0
 10
10.6170609827
 20
3.5040735438
 30
0.0
 10
10.6166094814
 20
3.4858916764
 30
0.0
 10
10.6145793854
 20
3.4586876028
 30
0.0
 10
10.6112010229
 20
3.4316134847
 30
0.0
 10
10.6049113228
 20
3.3957811817
 30
0.0
 10
10.5937215775
 20
3.3516235624
 30
0.0
 10
10.5782096978
 20
3.3087777091
 30
0.0
 10
10.5633045504
 20
3.2755408664
 30
0.0
 10
10.5508967641
 20
3.2511749659
 30
0.0
 10
10.5372942699
 20
3.2274403555
 30
0.0
 10
10.5176084994
 20
3.1967109258
 30
0.0
 10
10.4901709401
 20
3.1601442426
 30
0.0
 10
10.4530715311
 20
3.119687739
 30
0.0
 10
10.4121408312
 20
3.0830204274
 30
0.0
 10
10.3751676369
 20
3.0559187501
 30
0.0
 10
10.3440971997
 20
3.0364709489
 30
0.0
 10
10.3200867045
 20
3.0230258593
 30
0.0
 10
10.2954377059
 20
3.0107618792
 30
0.0
 10
10.2618016315
 20
2.996023659
 30
0.0
 10
10.2184468389
 20
2.9806901085
 30
0.0
 10
10.1737941862
 20
2.9696362324
 30
0.0
 10
10.1375549272
 20
2.9634209346
 30
0.0
 10
10.1101668936
 20
2.9600817675
 30
0.0
 10
10.0826476525
 20
2.9580753979
 30
0.0
 10
10.0642554619
 20
2.9576290214
 30
0.0
 10
10.0550610168
 20
2.9576290214
 30
0.0
  0
SPLINE
  5
23B
100
AcDbEntity
  8
0
100
AcDbSpline
 62
7
  6
CONTINUOUS
 70
0
 71
3
 72
31
 73
27
 74
0
 42
0.0000001
 43
0.0000001
 44
0.0000000001
 40
0.0
 40
0.0
 40
0.0
 40
0.0
 40
0.0310737949
 40
0.0621493689
 40
0.0932284337
 40
0.1243126701
 40
0.1864840449
 40
0.2486950312
 40
0.2798283318
 40
0.3109753785
 40
0.3421372148
 40
0.3733147555
 40
0.4357008447
 40
0.4981564883
 40
0.560683019
 40
0.6232790342
 40
0.6546112166
 40
0.6859589969
 40
0.7173215111
 40
0.7486977058
 40
0.8114677236
 40
0.8742769083
 40
0.9057017222
 40
0.93713118
 40
0.9685658508
 40
1.0
 40
1.0
 40
1.0
 40
1.0
 10
9.4930610509
 20
3.5131625858
 30
0.0
 10
9.4930610509
 20
3.5040735438
 30
0.0
 10
9.4935125522
 20
3.4858916764
 30
0.0
 10
9.4955426482
 20
3.4586876028
 30
0.0
 10
9.4989210107
 20
3.4316134848
 30
0.0
 10
9.5052107109
 20
3.3957811818
 30
0.0
 10
9.5164004561
 20
3.3516235625
 30
0.0
 10
9.5319123357
 20
3.3087777092
 30
0.0
 10
9.5468174831
 20
3.2755408666
 30
0.0
 10
9.5592252694
 20
3.2511749662
 30
0.0
 10
9.5728277636
 20
3.2274403558
 30
0.0
 10
9.592513534
 20
3.196710926
 30
0.0
 10
9.6199510934
 20
3.1601442428
 30
0.0
 10
9.6570505023
 20
3.1196877392
 30
0.0
 10
9.6979812021
 20
3.0830204277
 30
0.0
 10
9.7349543964
 20
3.0559187504
 30
0.0
 10
9.7660248335
 20
3.0364709492
 30
0.0
 10
9.7900353287
 20
3.0230258595
 30
0.0
 10
9.8146843273
 20
3.0107618794
 30
0.0
 10
9.8483204017
 20
2.9960236592
 30
0.0
 10
9.8916751942
 20
2.9806901087
 30
0.0
 10
9.9363278469
 20
2.9696362325
 30
0.0
 10
9.9725671062
 20
2.9634209347
 30
0.0
 10
9.9999551399
 20
2.9600817675
 30
0.0
 10
10.027474381
 20
2.9580753979
 30
0.0
 10
10.0458665717
 20
2.9576290214
 30
0.0
 10
10.0550610168
 20
2.9576290214
 30
0.0
  0
SPLINE
  5
23C
100
AcDbEntity
  8
0
100
AcDbSpline
 62
7
  6
CONTINUOUS
 70
0
 71
3
 72
30
 73
26
 74
0
 42
0.0000001
 43
0.0000001
 44
0.0000000001
 40
0.0
 40
0.0
 40
0.0
 40
0.0
 40
0.0621644655
 40
0.124315909
 40
0.155396806
 40
0.1864788884
 40
0.2020235166
 40
0.2175710626
 40
0.2486760924
 40
0.2798018058
 40
0.3109506534
 40
0.3732983092
 40
0.4357222953
 40
0.4981976863
 40
0.529458214
 40
0.5607274308
 40
0.5920076999
 40
0.6233040669
 40
0.654622022
 40
0.6859641317
 40
0.7486999167
 40
0.8115072003
 40
0.8743471368
 40
0.9371833581
 40
1.0
 40
1.0
 40
1.0
 40
1.0
 10
10.6248060801
 20
3.5169441063
 30
0.0
 10
10.6248060801
 20
3.498507192
 30
0.0
 10
10.6230074008
 20
3.4616136395
 30
0.0
 10
10.6162567653
 20
3.4159435597
 30
0.0
 10
10.6081592014
 20
3.3799610929
 30
0.0
 10
10.6019721291
 20
3.357748817
 30
0.0
 10
10.5963483662
 20
3.3401857141
 30
0.0
 10
10.5902745107
 20
3.3227658543
 30
0.0
 10
10.5818522586
 20
3.301279351
 30
0.0
 10
10.5704620656
 20
3.2760224186
 30
0.0
 10
10.5536137236
 20
3.2431112
 30
0.0
 10
10.5295320122
 20
3.2035390081
 30
0.0
 10
10.4961601687
 20
3.1590474407
 30
0.0
 10
10.4648663555
 20
3.1247962024
 30
0.0
 10
10.4379139798
 20
3.0993210495
 30
0.0
 10
10.4167683145
 20
3.0812210452
 30
0.0
 10
10.3947399024
 20
3.0641894395
 30
0.0
 10
10.3718672305
 20
3.0482841528
 30
0.0
 10
10.3482122523
 20
3.0335324144
 30
0.0
 10
10.3157138878
 20
3.0154247831
 30
0.0
 10
10.2734510619
 20
2.995772237
 30
0.0
 10
10.2206887319
 20
2.9771458027
 30
0.0
 10
10.1663583
 20
2.9636235752
 30
0.0
 10
10.1109831641
 20
2.9553740644
 30
0.0
 10
10.0736913554
 20
2.9535025908
 30
0.0
 10
10.0550610168
 20
2.9535025908
 30
0.0
  0
SPLINE
  5
23D
100
AcDbEntity
  8
0
100
AcDbSpline
 62
7
  6
CONTINUOUS
 70
0
 71
3
 72
31
 73
27
 74
0
 42
0.0000001
 43
0.0000001
 44
0.0000000001
 40
0.0
 40
0.0
 40
0.0
 40
0.0
 40
0.0625239189
 40
0.1250210407
 40
0.1562652198
 40
0.1875020878
 40
0.2031203888
 40
0.2187388792
 40
0.2499770008
 40
0.2812230564
 40
0.3124784463
 40
0.3749943865
 40
0.437521961
 40
0.5000322957
 40
0.5312838523
 40
0.5625263567
 40
0.5937622443
 40
0.6249968171
 40
0.6562362717
 40
0.6874841322
 40
0.7187413332
 40
0.7500067862
 40
0.8125331612
 40
0.875053596
 40
0.9375435316
 40
1.0
 40
1.0
 40
1.0
 40
1.0
 10
10.6248060458
 20
11.6838665903
 30
0.0
 10
10.6247996309
 20
11.7025134317
 30
0.0
 10
10.6229893652
 20
11.7398218018
 30
0.0
 10
10.616226549
 20
11.7860105403
 30
0.0
 10
10.6081193636
 20
11.8224040912
 30
0.0
 10
10.6019268824
 20
11.8448692416
 30
0.0
 10
10.5962988227
 20
11.8626325026
 30
0.0
 10
10.5902219494
 20
11.8802477472
 30
0.0
 10
10.5817968162
 20
11.9019748189
 30
0.0
 10
10.5704030005
 20
11.9275168314
 30
0.0
 10
10.5535548597
 20
11.9607913923
 30
0.0
 10
10.5294783175
 20
12.0007994515
 30
0.0
 10
10.496108106
 20
12.0457924062
 30
0.0
 10
10.464808521
 20
12.0804397043
 30
0.0
 10
10.4378505929
 20
12.106208672
 30
0.0
 10
10.416706952
 20
12.1245121911
 30
0.0
 10
10.3946810444
 20
12.1417352249
 30
0.0
 10
10.3718110281
 20
12.1578193968
 30
0.0
 10
10.3481596638
 20
12.1727368394
 30
0.0
 10
10.3237932085
 20
12.1864680653
 30
0.0
 10
10.298775621
 20
12.1989920456
 30
0.0
 10
10.2646438131
 20
12.2140506783
 30
0.0
 10
10.220667304
 20
12.2297550188
 30
0.0
 10
10.1663460601
 20
12.2434301417
 30
0.0
 10
10.1109769169
 20
12.2517740705
 30
0.0
 10
10.0736877432
 20
12.2536669139
 30
0.0
 10
10.0550610168
 20
12.2536669139
 30
0.0
  0
SPLINE
  5
23E
100
AcDbEntity
  8
0
100
AcDbSpline
 62
7
  6
CONTINUOUS
 70
0
 71
3
 72
37
 73
33
 74
0
 42
0.0000001
 43
0.0000001
 44
0.0000000001
 40
0.0
 40
0.0
 40
0.0
 40
0.0
 40
0.0072065911
 40
0.0145301986
 40
0.0296333371
 40
0.0455212574
 40
0.0623618268
 40
0.0802902121
 40
0.0994132777
 40
0.1198154084
 40
0.1415551125
 40
0.1646599754
 40
0.1891380398
 40
0.2149842764
 40
0.2421867954
 40
0.2707268446
 40
0.3005802444
 40
0.3317198071
 40
0.3641092398
 40
0.3976996513
 40
0.4324310328
 40
0.468239007
 40
0.5050603696
 40
0.5428304764
 40
0.5814833411
 40
0.6209521504
 40
0.6611663392
 40
0.7020502792
 40
0.7435210116
 40
0.8278853508
 40
0.913599556
 40
1.0
 40
1.0
 40
1.0
 40
1.0
 10
12.147840041
 20
12.6019642432
 30
0.0
 10
12.145477412
 20
12.6015059099
 30
0.0
 10
12.1407449328
 20
12.6004122675
 30
0.0
 10
12.131271626
 20
12.597529084
 30
0.0
 10
12.1194276625
 20
12.5925886808
 30
0.0
 10
12.1054969342
 20
12.5847059322
 30
0.0
 10
12.0917226067
 20
12.574835144
 30
0.0
 10
12.0781318091
 20
12.5630010655
 30
0.0
 10
12.0647479526
 20
12.5492256216
 30
0.0
 10
12.0516016956
 20
12.5335270071
 30
0.0
 10
12.0387228296
 20
12.5159342821
 30
0.0
 10
12.0261329361
 20
12.4964930983
 30
0.0
 10
12.0138561028
 20
12.4752548858
 30
0.0
 10
12.0019156033
 20
12.4522735197
 30
0.0
 10
11.9903374801
 20
12.4276014896
 30
0.0
 10
11.9791469403
 20
12.40129149
 30
0.0
 10
11.9683687698
 20
12.3733962181
 30
0.0
 10
11.9580318264
 20
12.3439688677
 30
0.0
 10
11.9481616968
 20
12.3130693924
 30
0.0
 10
11.9387805637
 20
12.2807674126
 30
0.0
 10
11.9299047164
 20
12.2471412337
 30
0.0
 10
11.9215498148
 20
12.212271641
 30
0.0
 10
11.9137339177
 20
12.1762384454
 30
0.0
 10
11.9064739746
 20
12.1391207917
 30
0.0
 10
11.8997868516
 20
12.100997876
 30
0.0
 10
11.8936912383
 20
12.0619497228
 30
0.0
 10
11.8882038196
 20
12.0220593614
 30
0.0
 10
11.8833404239
 20
11.9814147268
 30
0.0
 10
11.8776629788
 20
11.9260261851
 30
0.0
 10
11.8721946451
 20
11.8555767951
 30
0.0
 10
11.8682400726
 20
11.7700032426
 30
0.0
 10
11.8673516492
 20
11.7125207492
 30
0.0
 10
11.8673516492
 20
11.6836669139
 30
0.0
  0
SPLINE
  5
23F
100
AcDbEntity
  8
0
100
AcDbSpline
 62
7
  6
CONTINUOUS
 70
0
 71
3
 72
25
 73
21
 74
0
 42
0.0000001
 43
0.0000001
 44
0.0000000001
 40
0.0
 40
0.0
 40
0.0
 40
0.0
 40
0.0146695337
 40
0.0295268731
 40
0.0447528761
 40
0.0605155077
 40
0.0942039918
 40
0.1316190219
 40
0.1734761064
 40
0.2202735327
 40
0.2723557455
 40
0.329959827
 40
0.3932429506
 40
0.462310522
 40
0.5372273235
 40
0.6180256611
 40
0.7047179822
 40
0.7972955955
 40
0.8957342967
 40
1.0
 40
1.0
 40
1.0
 40
1.0
 10
11.9160850511
 20
10.7836669957
 30
0.0
 10
11.9165963743
 20
10.7836669957
 30
0.0
 10
11.9176265211
 20
10.7837263594
 30
0.0
 10
11.9191666445
 20
10.7839927414
 30
0.0
 10
11.9207051113
 20
10.7844362403
 30
0.0
 10
11.9227988271
 20
10.7852812842
 30
0.0
 10
11.9254270146
 20
10.7868189242
 30
0.0
 10
11.9284844248
 20
10.7893186469
 30
0.0
 10
11.931521571
 20
10.7925070424
 30
0.0
 10
11.934540804
 20
10.7963813443
 30
0.0
 10
11.9375435497
 20
10.8009403769
 30
0.0
 10
11.9405289192
 20
10.8061823355
 30
0.0
 10
11.9434957272
 20
10.8121044233
 30
0.0
 10
11.9464418555
 20
10.8187031513
 30
0.0
 10
11.9493651125
 20
10.825974137
 30
0.0
 10
11.9522633846
 20
10.83391223
 30
0.0
 10
11.9551341821
 20
10.8425116886
 30
0.0
 10
11.9579752824
 20
10.8517660881
 30
0.0
 10
11.960784452
 20
10.8616683938
 30
0.0
 10
11.9625829416
 20
10.8685016142
 30
0.0
 10
11.9634787976
 20
10.8720237682
 30
0.0
  0
SPLINE
  5
240
100
AcDbEntity
  8
0
100
AcDbSpline
 62
7
  6
CONTINUOUS
 70
0
 71
3
 72
25
 73
21
 74
0
 42
0.0000001
 43
0.0000001
 44
0.0000000001
 40
0.0
 40
0.0
 40
0.0
 40
0.0
 40
0.0146691373
 40
0.0295260893
 40
0.0447517223
 40
0.0605140079
 40
0.0942018892
 40
0.1316164523
 40
0.1734732081
 40
0.2202704368
 40
0.2723525742
 40
0.3299566912
 40
0.3932399505
 40
0.4623077492
 40
0.5372248588
 40
0.6180235771
 40
0.7047163442
 40
0.7972944581
 40
0.8957337081
 40
1.0
 40
1.0
 40
1.0
 40
1.0
 10
11.9160850511
 20
12.5836668321
 30
0.0
 10
11.9165963938
 20
12.5836668321
 30
0.0
 10
11.9176265805
 20
12.5836074637
 30
0.0
 10
11.919166763
 20
12.5833410612
 30
0.0
 10
11.9207052886
 20
12.5828975283
 30
0.0
 10
11.922799087
 20
12.5820524186
 30
0.0
 10
11.9254273772
 20
12.5805146582
 30
0.0
 10
11.928484901
 20
12.5780147451
 30
0.0
 10
11.9315221592
 20
12.5748261081
 30
0.0
 10
11.9345415029
 20
12.5709515135
 30
0.0
 10
11.9375443578
 20
12.5663921371
 30
0.0
 10
11.9405298348
 20
12.5611497838
 30
0.0
 10
11.9434967485
 20
12.5552272509
 30
0.0
 10
11.9464429802
 20
12.5486280279
 30
0.0
 10
11.949366338
 20
12.5413564982
 30
0.0
 10
11.9522647082
 20
12.5334178129
 30
0.0
 10
11.9551356006
 20
12.5248177146
 30
0.0
 10
11.9579767925
 20
12.5155626291
 30
0.0
 10
11.9607860502
 20
12.505659592
 30
0.0
 10
11.9625845943
 20
12.4988258689
 30
0.0
 10
11.9634804771
 20
12.4953034563
 30
0.0
  0
LINE
  5
241
100
AcDbEntity
  8
0
100
AcDbLine
 62
9
  6
CONTINUOUS
 10
12.7364497154
 20
11.9382340217
 11
13.0002469862
 21
11.8830795998
  0
SPLINE
  5
242
100
AcDbEntity
  8
0
100
AcDbSpline
 62
9
  6
CONTINUOUS
 70
0
 71
3
 72
33
 73
29
 74
0
 42
0.0000001
 43
0.0000001
 44
0.0000000001
 40
0.0
 40
0.0
 40
0.0
 40
0.0
 40
0.003679189
 40
0.0073241076
 40
0.0110049008
 40
0.0147896807
 40
0.022901438
 40
0.0320853863
 40
0.0426291751
 40
0.0547253881
 40
0.0685017401
 40
0.0840444099
 40
0.1014130348
 40
0.1206475941
 40
0.141775944
 40
0.1648161215
 40
0.1897777014
 40
0.2166656881
 40
0.2454792709
 40
0.2762141209
 40
0.3433859161
 40
0.4179927689
 40
0.4997814589
 40
0.588367637
 40
0.6832850033
 40
0.7839789953
 40
0.8897936782
 40
1.0
 40
1.0
 40
1.0
 40
1.0
 10
13.0002469862
 20
11.8830795998
 30
0.0
 10
13.0004722378
 20
11.8830323259
 30
0.0
 10
13.0009276256
 20
11.8829681204
 30
0.0
 10
13.0016182494
 20
11.8829686152
 30
0.0
 10
13.0023086028
 20
11.8830668781
 30
0.0
 10
13.0032485872
 20
11.8833335911
 30
0.0
 10
13.004435951
 20
11.8839363013
 30
0.0
 10
13.00580567
 20
11.885025289
 30
0.0
 10
13.0071613595
 20
11.8864912469
 30
0.0
 10
13.0085057929
 20
11.8883350591
 30
0.0
 10
13.0098405153
 20
11.8905587198
 30
0.0
 10
13.0111649068
 20
11.8931639366
 30
0.0
 10
13.0124776476
 20
11.896151742
 30
0.0
 10
13.0137771851
 20
11.8995224613
 30
0.0
 10
13.0150616622
 20
11.9032758733
 30
0.0
 10
13.0163291669
 20
11.9074111905
 30
0.0
 10
13.0175778012
 20
11.9119271384
 30
0.0
 10
13.0188054962
 20
11.9168219873
 30
0.0
 10
13.02001028
 20
11.9220936266
 30
0.0
 10
13.0216313832
 20
11.9298537255
 30
0.0
 10
13.0235670259
 20
11.9404725177
 30
0.0
 10
13.0257042278
 20
11.954295273
 30
0.0
 10
13.0276994352
 20
11.9694913266
 30
0.0
 10
13.0295381172
 20
11.9859859453
 30
0.0
 10
13.0312037815
 20
12.0036870656
 30
0.0
 10
13.032681055
 20
12.0224860836
 30
0.0
 10
13.0339578526
 20
12.042258193
 30
0.0
 10
13.0346549956
 20
12.0557542291
 30
0.0
 10
13.0349695727
 20
12.0626412208
 30
0.0
  0
SPLINE
  5
243
100
AcDbEntity
  8
0
100
AcDbSpline
 62
9
  6
CONTINUOUS
 70
0
 71
3
 72
42
 73
38
 74
0
 42
0.0000001
 43
0.0000001
 44
0.0000000001
 40
0.0
 40
0.0
 40
0.0
 40
0.0
 40
0.1042895179
 40
0.2050220454
 40
0.3016424874
 40
0.393646879
 40
0.4805082144
 40
0.5218433362
 40
0.5617025062
 40
0.6000330191
 40
0.6367860194
 40
0.6719194753
 40
0.7053944951
 40
0.7371732822
 40
0.7672186254
 40
0.7954930668
 40
0.8219591344
 40
0.846578467
 40
0.8693222725
 40
0.890177731
 40
0.9091445995
 40
0.9179245816
 40
0.9262388214
 40
0.9340910329
 40
0.9414860049
 40
0.9484298739
 40
0.9549304397
 40
0.9609976161
 40
0.9666441348
 40
0.9718863827
 40
0.9767454892
 40
0.9812486919
 40
0.9854309506
 40
0.9893366534
 40
0.993020884
 40
0.9965499335
 40
1.0
 40
1.0
 40
1.0
 40
1.0
 10
13.0349695727
 20
12.0626412208
 30
0.0
 10
13.036118051
 20
12.0877551062
 30
0.0
 10
13.0386340493
 20
12.1371149777
 30
0.0
 10
13.0431453857
 20
12.2096906818
 30
0.0
 10
13.0483126973
 20
12.2792536547
 30
0.0
 10
13.0540941804
 20
12.3454124421
 30
0.0
 10
13.0594838279
 20
12.3982223816
 30
0.0
 10
13.0641098549
 20
12.438469503
 30
0.0
 10
13.0676569995
 20
12.4670635183
 30
0.0
 10
13.0713337407
 20
12.4945271544
 30
0.0
 10
13.075134783
 20
12.5208233954
 30
0.0
 10
13.0790538095
 20
12.5459183599
 30
0.0
 10
13.0830844598
 20
12.5697804704
 30
0.0
 10
13.0872205784
 20
12.5923787748
 30
0.0
 10
13.0914558827
 20
12.6136820319
 30
0.0
 10
13.0957843086
 20
12.6336581548
 30
0.0
 10
13.1001993498
 20
12.652273713
 30
0.0
 10
13.1046957548
 20
12.6694954761
 30
0.0
 10
13.1092678479
 20
12.6852943215
 30
0.0
 10
13.1139080281
 20
12.6996478237
 30
0.0
 10
13.1179224293
 20
12.7106586892
 30
0.0
 10
13.1211807336
 20
12.7187186832
 30
0.0
 10
13.1235740816
 20
12.7242362882
 30
0.0
 10
13.1259794399
 20
12.7293824571
 30
0.0
 10
13.1283960397
 20
12.7341559948
 30
0.0
 10
13.1308230502
 20
12.7385557448
 30
0.0
 10
13.1332597064
 20
12.7425805582
 30
0.0
 10
13.1357053344
 20
12.7462292834
 30
0.0
 10
13.1381593705
 20
12.7495007872
 30
0.0
 10
13.1406214277
 20
12.7523939502
 30
0.0
 10
13.1430914052
 20
12.7549075776
 30
0.0
 10
13.1455695425
 20
12.7570402477
 30
0.0
 10
13.1480564254
 20
12.7587900758
 30
0.0
 10
13.1505526409
 20
12.7601543132
 30
0.0
 10
13.1530585426
 20
12.7611291423
 30
0.0
 10
13.155572028
 20
12.7617097789
 30
0.0
 10
13.1572582532
 20
12.7618313446
 30
0.0
 10
13.158089906
 20
12.7618250832
 30
0.0
  0
SPLINE
  5
244
100
AcDbEntity
  8
0
100
AcDbSpline
 62
9
  6
CONTINUOUS
 70
0
 71
3
 72
87
 73
83
 74
0
 42
0.0000001
 43
0.0000001
 44
0.0000000001
 40
0.0
 40
0.0
 40
0.0
 40
0.0
 40
0.0007322142
 40
0.0014724836
 40
0.0030034789
 40
0.0046453534
 40
0.0064384931
 40
0.0084135713
 40
0.0105930931
 40
0.0129933574
 40
0.015626238
 40
0.0185004014
 40
0.0216221769
 40
0.02499615
 40
0.0286256542
 40
0.0325128955
 40
0.0366587432
 40
0.0410633881
 40
0.0457266123
 40
0.0506479254
 40
0.055826583
 40
0.0612611139
 40
0.0669485398
 40
0.0790683139
 40
0.0921574562
 40
0.1061865853
 40
0.121128872
 40
0.1369584218
 40
0.1536460997
 40
0.1711523184
 40
0.1894337064
 40
0.2084453037
 40
0.2281415817
 40
0.2484764693
 40
0.2694032574
 40
0.290874379
 40
0.3128417374
 40
0.3580612097
 40
0.3812032304
 40
0.4046243627
 40
0.4520845081
 40
0.5000000002
 40
0.5479154937
 40
0.5953756423
 40
0.6187967691
 40
0.6419387866
 40
0.6871582898
 40
0.7091256386
 40
0.7305967379
 40
0.7515235181
 40
0.7718584169
 40
0.7915547107
 40
0.8105663052
 40
0.8288476571
 40
0.8463538591
 40
0.8630415657
 40
0.8788711451
 40
0.8938134332
 40
0.9078425387
 40
0.9209316665
 40
0.9330514655
 40
0.9387389155
 40
0.9441734654
 40
0.949352128
 40
0.9542734326
 40
0.9589366387
 40
0.9633412604
 40
0.9674870861
 40
0.9713743136
 40
0.9750038172
 40
0.9783777996
 40
0.9814995881
 40
0.984373763
 40
0.9870066515
 40
0.9894069188
 40
0.9915864387
 40
0.9935615126
 40
0.9953546482
 40
0.9969965206
 40
0.9985275159
 40
0.9992677856
 40
1.0
 40
1.0
 40
1.0
 40
1.0
 10
13.158089906
 20
12.7618250832
 30
0.0
 10
13.1586278404
 20
12.761820943
 30
0.0
 10
13.1597100423
 20
12.7617569855
 30
0.0
 10
13.1618915532
 20
12.7614051116
 30
0.0
 10
13.1646482984
 20
12.7605264899
 30
0.0
 10
13.1678930443
 20
12.7588258756
 30
0.0
 10
13.1711166448
 20
12.7564805087
 30
0.0
 10
13.1743214085
 20
12.7534974216
 30
0.0
 10
13.177510462
 20
12.7498803862
 30
0.0
 10
13.1806849593
 20
12.7456315163
 30
0.0
 10
13.1838447165
 20
12.7407522668
 30
0.0
 10
13.1869887722
 20
12.7352441432
 30
0.0
 10
13.1901156963
 20
12.7291088783
 30
0.0
 10
13.1932238651
 20
12.7223485075
 30
0.0
 10
13.1963113944
 20
12.7149653903
 30
0.0
 10
13.1993762186
 20
12.7069626546
 30
0.0
 10
13.2024167749
 20
12.6983444712
 30
0.0
 10
13.2054311917
 20
12.6891155169
 30
0.0
 10
13.2084175836
 20
12.6792805511
 30
0.0
 10
13.2113739982
 20
12.6688442779
 30
0.0
 10
13.2142983422
 20
12.6578117357
 30
0.0
 10
13.2171885392
 20
12.6461893731
 30
0.0
 10
13.2210777776
 20
12.629562254
 30
0.0
 10
13.2258184936
 20
12.6073612088
 30
0.0
 10
13.2312360822
 20
12.5790452612
 30
0.0
 10
13.236483585
 20
12.5485910229
 30
0.0
 10
13.2415470167
 20
12.5160667179
 30
0.0
 10
13.2464115005
 20
12.4815385689
 30
0.0
 10
13.2510618357
 20
12.445081293
 30
0.0
 10
13.2554886966
 20
12.4067824143
 30
0.0
 10
13.2596820695
 20
12.366740257
 30
0.0
 10
13.26363276
 20
12.325056995
 30
0.0
 10
13.2673316903
 20
12.2818363025
 30
0.0
 10
13.2707700955
 20
12.2371827807
 30
0.0
 10
13.2739393832
 20
12.1912022553
 30
0.0
 10
13.2768315417
 20
12.1440018053
 30
0.0
 10
13.2803403945
 20
12.0789598223
 30
0.0
 10
13.2832102464
 20
12.012655764
 30
0.0
 10
13.2854738124
 20
11.9452616709
 30
0.0
 10
13.2873581184
 20
11.8762089925
 30
0.0
 10
13.2889324106
 20
11.788942063
 30
0.0
 10
13.2895630286
 20
11.6836669127
 30
0.0
 10
13.2889323996
 20
11.5783917602
 30
0.0
 10
13.2873581264
 20
11.4911248311
 30
0.0
 10
13.2854738072
 20
11.4220721569
 30
0.0
 10
13.2832102328
 20
11.354678048
 30
0.0
 10
13.2803404189
 20
11.2883739746
 30
0.0
 10
13.2768315552
 20
11.2233319929
 30
0.0
 10
13.2739393778
 20
11.1761315734
 30
0.0
 10
13.2707700866
 20
11.1301510623
 30
0.0
 10
13.2673316887
 20
11.0854975259
 30
0.0
 10
13.2636327679
 20
11.0422768147
 30
0.0
 10
13.2596820809
 20
11.0005935694
 30
0.0
 10
13.2554886866
 20
10.9605514553
 30
0.0
 10
13.2510618136
 20
10.9222525959
 30
0.0
 10
13.2464114962
 20
10.8857952871
 30
0.0
 10
13.2415470251
 20
10.8512670919
 30
0.0
 10
13.2364835943
 20
10.8187427812
 30
0.0
 10
13.231236079
 20
10.7882885723
 30
0.0
 10
13.2258184793
 20
10.7599726368
 30
0.0
 10
13.2210777701
 20
10.7377715644
 30
0.0
 10
13.2171885436
 20
10.7211443913
 30
0.0
 10
13.2142983525
 20
10.7095219907
 30
0.0
 10
13.2113740093
 20
10.6984894364
 30
0.0
 10
13.2084175926
 20
10.6880531803
 30
0.0
 10
13.2054311974
 20
10.6782182537
 30
0.0
 10
13.2024167761
 20
10.6689893498
 30
0.0
 10
13.1993762148
 20
10.6603712142
 30
0.0
 10
13.1963113862
 20
10.6523685088
 30
0.0
 10
13.1932238578
 20
10.6449853955
 30
0.0
 10
13.1901156922
 20
10.6382250059
 30
0.0
 10
13.1869887718
 20
10.6320897112
 30
0.0
 10
13.1838447181
 20
10.6265815591
 30
0.0
 10
13.1806849623
 20
10.6217022889
 30
0.0
 10
13.1775104662
 20
10.6174534096
 30
0.0
 10
13.1743214113
 20
10.6138363782
 30
0.0
 10
13.1711166452
 20
10.6108533043
 30
0.0
 10
13.1678930426
 20
10.6085079535
 30
0.0
 10
13.1646482963
 20
10.6068073506
 30
0.0
 10
13.1618915526
 20
10.6059287307
 30
0.0
 10
13.1597100424
 20
10.6055768509
 30
0.0
 10
13.1586278406
 20
10.6055128881
 30
0.0
 10
13.158089906
 20
10.6055087446
 30
0.0
  0
SPLINE
  5
245
100
AcDbEntity
  8
0
100
AcDbSpline
 62
9
  6
CONTINUOUS
 70
0
 71
3
 72
42
 73
38
 74
0
 42
0.0000001
 43
0.0000001
 44
0.0000000001
 40
0.0
 40
0.0
 40
0.0
 40
0.0
 40
0.0034483138
 40
0.0069756877
 40
0.0106583833
 40
0.0145627352
 40
0.0187438511
 40
0.0232461281
 40
0.0281045253
 40
0.0333462737
 40
0.0389924935
 40
0.0450595613
 40
0.0515601986
 40
0.0585043092
 40
0.0658996848
 40
0.073752455
 40
0.0820674024
 40
0.0908482352
 40
0.1098172077
 40
0.1306752569
 40
0.1534220243
 40
0.1780445311
 40
0.2045138931
 40
0.2327916956
 40
0.2628404111
 40
0.2946225304
 40
0.3281008145
 40
0.3632374368
 40
0.3999934387
 40
0.438326698
 40
0.4781882266
 40
0.5195251667
 40
0.6063878694
 40
0.6983900739
 40
0.7950044535
 40
0.895726502
 40
1.0
 40
1.0
 40
1.0
 40
1.0
 10
13.158089906
 20
10.6055087446
 30
0.0
 10
13.1572576361
 20
10.6055024787
 30
0.0
 10
13.1555701269
 20
10.6056242386
 30
0.0
 10
13.1530547568
 20
10.6062057625
 30
0.0
 10
13.1505469939
 20
10.6071820608
 30
0.0
 10
13.1480489424
 20
10.6085483351
 30
0.0
 10
13.1455602441
 20
10.610300759
 30
0.0
 10
13.1430803082
 20
10.6124365793
 30
0.0
 10
13.1406085468
 20
10.6149539089
 30
0.0
 10
13.1381447197
 20
10.6178513247
 30
0.0
 10
13.1356889286
 20
10.6211276303
 30
0.0
 10
13.1332415619
 20
10.624781704
 30
0.0
 10
13.1308031851
 20
10.6288124103
 30
0.0
 10
13.128374474
 20
10.6332185949
 30
0.0
 10
13.1259561956
 20
10.6379991071
 30
0.0
 10
13.1235491832
 20
10.6431527886
 30
0.0
 10
13.1211542075
 20
10.6486784421
 30
0.0
 10
13.1178936986
 20
10.6567502243
 30
0.0
 10
13.1138766513
 20
10.6677771463
 30
0.0
 10
13.1092335342
 20
10.6821514644
 30
0.0
 10
13.1046586572
 20
10.6979731066
 30
0.0
 10
13.10015962
 20
10.715219538
 30
0.0
 10
13.0957421175
 20
10.7338615388
 30
0.0
 10
13.0914114168
 20
10.7538657985
 30
0.0
 10
13.0871740362
 20
10.775198813
 30
0.0
 10
13.0830360506
 20
10.7978284285
 30
0.0
 10
13.0790037602
 20
10.8217233438
 30
0.0
 10
13.0750833379
 20
10.8468525425
 30
0.0
 10
13.0712811556
 20
10.8731843647
 30
0.0
 10
13.067603544
 20
10.9006848189
 30
0.0
 10
13.0640558026
 20
10.9293167529
 30
0.0
 10
13.0594293905
 20
10.9696161735
 30
0.0
 10
13.0540399624
 20
11.0224931062
 30
0.0
 10
13.0482597987
 20
11.0887337086
 30
0.0
 10
13.04309503
 20
11.1583798109
 30
0.0
 10
13.0385875918
 20
11.231038995
 30
0.0
 10
13.0360749162
 20
11.2804545201
 30
0.0
 10
13.0349283122
 20
11.3055960931
 30
0.0
  0
SPLINE
  5
246
100
AcDbEntity
  8
0
100
AcDbSpline
 62
9
  6
CONTINUOUS
 70
0
 71
3
 72
33
 73
29
 74
0
 42
0.0000001
 43
0.0000001
 44
0.0000000001
 40
0.0
 40
0.0
 40
0.0
 40
0.0
 40
0.1101208876
 40
0.215881606
 40
0.3165558497
 40
0.4114876422
 40
0.5001125058
 40
0.5819591562
 40
0.656638355
 40
0.723876887
 40
0.7546442094
 40
0.7834880482
 40
0.8104002545
 40
0.8353773624
 40
0.8584242762
 40
0.8795508891
 40
0.8987761153
 40
0.9161290379
 40
0.9316509023
 40
0.9454025461
 40
0.9574714733
 40
0.9679870473
 40
0.9771439913
 40
0.9852328997
 40
0.9890090457
 40
0.992683394
 40
0.9963238639
 40
1.0
 40
1.0
 40
1.0
 40
1.0
 10
13.0349283122
 20
11.3055960931
 30
0.0
 10
13.0346159041
 20
11.3124540188
 30
0.0
 10
13.0339236691
 20
11.3258948704
 30
0.0
 10
13.0326560482
 20
11.3455890587
 30
0.0
 10
13.0311892922
 20
11.3643198663
 30
0.0
 10
13.0295353846
 20
11.3819625032
 30
0.0
 10
13.0277090256
 20
11.3984077869
 30
0.0
 10
13.0257264244
 20
11.413562726
 30
0.0
 10
13.0236026245
 20
11.4273511002
 30
0.0
 10
13.02167789
 20
11.4379448575
 30
0.0
 10
13.0200657367
 20
11.445687099
 30
0.0
 10
13.0188674992
 20
11.4509466368
 30
0.0
 10
13.0176462898
 20
11.4558296448
 30
0.0
 10
13.0164039958
 20
11.4603335667
 30
0.0
 10
13.0151427689
 20
11.464456527
 30
0.0
 10
13.0138645134
 20
11.4681973074
 30
0.0
 10
13.0125711618
 20
11.4715552591
 30
0.0
 10
13.0112645947
 20
11.4745303549
 30
0.0
 10
13.0099463865
 20
11.477123126
 30
0.0
 10
13.0086178556
 20
11.4793347845
 30
0.0
 10
13.0072796169
 20
11.4811672099
 30
0.0
 10
13.0059300976
 20
11.4826225307
 30
0.0
 10
13.0045664656
 20
11.4837017811
 30
0.0
 10
13.0033843365
 20
11.4842967398
 30
0.0
 10
13.0024488192
 20
11.4845581441
 30
0.0
 10
13.0017616757
 20
11.48465313
 30
0.0
 10
13.0010743268
 20
11.4846510733
 30
0.0
 10
13.0006211929
 20
11.4845857774
 30
0.0
 10
13.0003970285
 20
11.4845381235
 30
0.0
  0
SPLINE
  5
247
100
AcDbEntity
  8
0
100
AcDbSpline
 62
9
  6
CONTINUOUS
 70
0
 71
3
 72
67
 73
63
 74
0
 42
0.0000001
 43
0.0000001
 44
0.0000000001
 40
0.0
 40
0.0
 40
0.0
 40
0.0
 40
0.0312446421
 40
0.0624908135
 40
0.0937369636
 40
0.1093601364
 40
0.124983833
 40
0.1406077453
 40
0.156231381
 40
0.1718555856
 40
0.1874798415
 40
0.2031038031
 40
0.2187286585
 40
0.2343531231
 40
0.2421661742
 40
0.249979834
 40
0.2656051638
 40
0.2734183102
 40
0.2812322034
 40
0.2968581568
 40
0.3124841592
 40
0.3281101505
 40
0.343736269
 40
0.359362381
 40
0.3749887267
 40
0.3906152007
 40
0.4062418101
 40
0.4218685477
 40
0.4374955761
 40
0.4531226048
 40
0.4687497635
 40
0.4999914099
 40
0.5156189271
 40
0.5312464195
 40
0.5468739164
 40
0.5625014166
 40
0.5781291328
 40
0.5937566853
 40
0.6015715765
 40
0.6093864338
 40
0.6172011395
 40
0.6250157817
 40
0.640643603
 40
0.6562711649
 40
0.6718986778
 40
0.6875261576
 40
0.7187679574
 40
0.7500092512
 40
0.7812493389
 40
0.7968760407
 40
0.8125028222
 40
0.8281291997
 40
0.8437554739
 40
0.8593817354
 40
0.8750077511
 40
0.8906339138
 40
0.9062597598
 40
0.9374998128
 40
0.9531249939
 40
0.9687506123
 40
0.9843750013
 40
1.0
 40
1.0
 40
1.0
 40
1.0
 10
12.7071556353
 20
11.4291004433
 30
0.0
 10
12.6968271372
 20
11.4276355094
 30
0.0
 10
12.6761330314
 20
11.4249546218
 30
0.0
 10
12.6449906548
 20
11.421807642
 30
0.0
 10
12.6189651831
 20
11.4200207282
 30
0.0
 10
12.598116697
 20
11.4191643741
 30
0.0
 10
12.582470197
 20
11.418825974
 30
0.0
 10
12.5668197614
 20
11.4188130108
 30
0.0
 10
12.5511726002
 20
11.4191500892
 30
0.0
 10
12.5355375837
 20
11.4198596148
 30
0.0
 10
12.5199256661
 20
11.4209723815
 30
0.0
 10
12.5043507481
 20
11.4225247065
 30
0.0
 10
12.4888298729
 20
11.4245504437
 30
0.0
 10
12.4759596702
 20
11.4266796678
 30
0.0
 10
12.4657175218
 20
11.4286749346
 30
0.0
 10
12.4555172824
 20
11.4308751386
 30
0.0
 10
12.4453900227
 20
11.4334065938
 30
0.0
 10
12.4353673488
 20
11.4363126613
 30
0.0
 10
12.4254245823
 20
11.4394819687
 30
0.0
 10
12.4131633549
 20
11.44395273
 30
0.0
 10
12.398795714
 20
11.4501848116
 30
0.0
 10
12.3848402846
 20
11.4572939563
 30
0.0
 10
12.3713646493
 20
11.4652761563
 30
0.0
 10
12.3584321864
 20
11.4741119309
 30
0.0
 10
12.3461020356
 20
11.4837708762
 30
0.0
 10
12.334428123
 20
11.4942134778
 30
0.0
 10
12.3234492741
 20
11.5053841935
 30
0.0
 10
12.3131954847
 20
11.5172234227
 30
0.0
 10
12.3036785791
 20
11.5296618476
 30
0.0
 10
12.2949163823
 20
11.5426437248
 30
0.0
 10
12.2842715037
 20
11.5606004699
 30
0.0
 10
12.2752092817
 20
11.5794581249
 30
0.0
 10
12.2678316182
 20
11.5989858314
 30
0.0
 10
12.2631562984
 20
11.6139342409
 30
0.0
 10
12.2593666391
 20
11.6291307572
 30
0.0
 10
12.2564856115
 20
11.6445259825
 30
0.0
 10
12.254535987
 20
11.6600666373
 30
0.0
 10
12.2537106204
 20
11.6730943468
 30
0.0
 10
12.2535407702
 20
11.683530473
 30
0.0
 10
12.2536581719
 20
11.6913584827
 30
0.0
 10
12.2540214026
 20
11.6991788686
 30
0.0
 10
12.2548325137
 20
11.7095847637
 30
0.0
 10
12.2564485803
 20
11.7225377995
 30
0.0
 10
12.2593194434
 20
11.7379344897
 30
0.0
 10
12.2630979038
 20
11.7531344669
 30
0.0
 10
12.2693117513
 20
11.7730641214
 30
0.0
 10
12.2792343096
 20
11.7972511614
 30
0.0
 10
12.2944009916
 20
11.824698026
 30
0.0
 10
12.3096350487
 20
11.8459477478
 30
0.0
 10
12.3232856524
 20
11.8617424776
 30
0.0
 10
12.3342478434
 20
11.8729299994
 30
0.0
 10
12.3459057125
 20
11.8833905941
 30
0.0
 10
12.3582280644
 20
11.8930597525
 30
0.0
 10
12.3711519902
 20
11.9019077572
 30
0.0
 10
12.3846161151
 20
11.9099090274
 30
0.0
 10
12.3985591366
 20
11.9170430225
 30
0.0
 10
12.4176986486
 20
11.9253792117
 30
0.0
 10
12.4375517418
 20
11.9319591611
 30
0.0
 10
12.457791549
 20
11.9370418041
 30
0.0
 10
12.473126522
 20
11.9401937146
 30
0.0
 10
12.4885685429
 20
11.9427585782
 30
0.0
 10
12.4989157922
 20
11.9441137907
 30
0.0
 10
12.5040981451
 20
11.9447125576
 30
0.0
  0
SPLINE
  5
248
100
AcDbEntity
  8
0
100
AcDbSpline
 62
9
  6
CONTINUOUS
 70
0
 71
3
 72
27
 73
23
 74
0
 42
0.0000001
 43
0.0000001
 44
0.0000000001
 40
0.0
 40
0.0
 40
0.0
 40
0.0
 40
0.1049652303
 40
0.2060907523
 40
0.3943923469
 40
0.4805450101
 40
0.5607948622
 40
0.6348103292
 40
0.702333005
 40
0.7631823711
 40
0.8172465186
 40
0.8644705169
 40
0.8855160863
 40
0.9048551922
 40
0.9224961247
 40
0.9384489332
 40
0.9527276482
 40
0.9653515135
 40
0.9763455861
 40
0.9857447551
 40
0.9936013359
 40
1.0
 40
1.0
 40
1.0
 40
1.0
 10
12.9927336335
 20
11.2956054512
 30
0.0
 10
12.9925088608
 20
11.3011911999
 30
0.0
 10
12.9920261069
 20
11.3121567659
 30
0.0
 10
12.9909391013
 20
11.3331334026
 30
0.0
 10
12.9896673818
 20
11.3530968655
 30
0.0
 10
12.9882050003
 20
11.3719313525
 30
0.0
 10
12.9870874041
 20
11.3846869756
 30
0.0
 10
12.9859282763
 20
11.3964422749
 30
0.0
 10
12.9847397719
 20
11.4071556681
 30
0.0
 10
12.9835312986
 20
11.4167968685
 30
0.0
 10
12.9823116039
 20
11.4253459194
 30
0.0
 10
12.9812562694
 20
11.4317759057
 30
0.0
 10
12.980402786
 20
11.436363236
 30
0.0
 10
12.9797887944
 20
11.4393921316
 30
0.0
 10
12.979176775
 20
11.4421442098
 30
0.0
 10
12.9785673427
 20
11.4446201761
 30
0.0
 10
12.9779611399
 20
11.4468209628
 30
0.0
 10
12.9773587765
 20
11.4487478262
 30
0.0
 10
12.9767609336
 20
11.4504022163
 30
0.0
 10
12.9761680494
 20
11.451786413
 30
0.0
 10
12.9755808259
 20
11.4529024764
 30
0.0
 10
12.9751507115
 20
11.4535322358
 30
0.0
 10
12.9749317519
 20
11.453793366
 30
0.0
  0
SPLINE
  5
249
100
AcDbEntity
  8
0
100
AcDbSpline
 62
9
  6
CONTINUOUS
 70
0
 71
3
 72
11
 73
7
 74
0
 42
0.0000001
 43
0.0000001
 44
0.0000000001
 40
0.0
 40
0.0
 40
0.0
 40
0.0
 40
0.2972369599
 40
0.5587184249
 40
0.7902371056
 40
1.0
 40
1.0
 40
1.0
 40
1.0
 10
12.9749317519
 20
11.453793366
 30
0.0
 10
12.9748311314
 20
11.4539133656
 30
0.0
 10
12.9746312038
 20
11.4541303916
 30
0.0
 10
12.9743110236
 20
11.4543988156
 30
0.0
 10
12.9739902248
 20
11.4545876689
 30
0.0
 10
12.9737673215
 20
11.4546618715
 30
0.0
 10
12.97365888
 20
11.4546831837
 30
0.0
  0
LINE
  5
24A
100
AcDbEntity
  8
0
100
AcDbLine
 62
9
  6
CONTINUOUS
 10
11.0592281374
 20
3.0250928439
 11
11.0592278954
 21
3.0244039988
  0
SPLINE
  5
24B
100
AcDbEntity
  8
0
100
AcDbSpline
 62
9
  6
CONTINUOUS
 70
0
 71
3
 72
71
 73
67
 74
0
 42
0.0000001
 43
0.0000001
 44
0.0000000001
 40
0.0
 40
0.0
 40
0.0
 40
0.0
 40
0.0155343987
 40
0.0310700815
 40
0.0466071218
 40
0.0621469346
 40
0.0776901177
 40
0.0932375222
 40
0.108789886
 40
0.1243479067
 40
0.1399122313
 40
0.1554834423
 40
0.1710620561
 40
0.1866485162
 40
0.2022431902
 40
0.2178463669
 40
0.233458253
 40
0.2490789709
 40
0.2647085573
 40
0.2803469634
 40
0.2959940562
 40
0.3116496199
 40
0.3273133577
 40
0.3429848938
 40
0.3586637776
 40
0.3743494892
 40
0.3900414439
 40
0.4057389981
 40
0.4214414544
 40
0.4371480681
 40
0.4528580558
 40
0.4685706024
 40
0.484284869
 40
0.5
 40
0.515715131
 40
0.5314293976
 40
0.5471419442
 40
0.5628519319
 40
0.5785585456
 40
0.5942610019
 40
0.6099585561
 40
0.6256505108
 40
0.6413362224
 40
0.6570151062
 40
0.6726866423
 40
0.6883503801
 40
0.7040059438
 40
0.7196530366
 40
0.7352914427
 40
0.7509210291
 40
0.766541747
 40
0.7821536331
 40
0.7977568098
 40
0.8133514838
 40
0.8289379439
 40
0.8445165577
 40
0.8600877687
 40
0.8756520933
 40
0.891210114
 40
0.9067624778
 40
0.9223098823
 40
0.9378530654
 40
0.9533928782
 40
0.9689299185
 40
0.9844656013
 40
1.0
 40
1.0
 40
1.0
 40
1.0
 10
11.0592278954
 20
3.0244039988
 30
0.0
 10
11.0592164925
 20
3.0081712346
 30
0.0
 10
11.0583875914
 20
2.9756991626
 30
0.0
 10
11.0547293637
 20
2.9271152652
 30
0.0
 10
11.0486645721
 20
2.8787658367
 30
0.0
 10
11.0402083503
 20
2.8307692561
 30
0.0
 10
11.0293806901
 20
2.7832402696
 30
0.0
 10
11.0162077993
 20
2.7362935708
 30
0.0
 10
11.0007213536
 20
2.6900420993
 30
0.0
 10
10.9829586862
 20
2.6445971988
 30
0.0
 10
10.9629625776
 20
2.6000682537
 30
0.0
 10
10.9407811669
 20
2.5565624493
 30
0.0
 10
10.9164678386
 20
2.5141845187
 30
0.0
 10
10.8900811202
 20
2.4730364761
 30
0.0
 10
10.8616845782
 20
2.4332173406
 30
0.0
 10
10.8313465896
 20
2.3948229403
 30
0.0
 10
10.7991401914
 20
2.3579456791
 30
0.0
 10
10.7651429043
 20
2.3226743191
 30
0.0
 10
10.7294365485
 20
2.2890937716
 30
0.0
 10
10.6921071065
 20
2.2572848256
 30
0.0
 10
10.6532444512
 20
2.2273240109
 30
0.0
 10
10.6129421299
 20
2.1992834199
 30
0.0
 10
10.571297145
 20
2.173230534
 30
0.0
 10
10.5284097167
 20
2.1492280762
 30
0.0
 10
10.4843830822
 20
2.1273337913
 30
0.0
 10
10.4393232225
 20
2.1076003304
 30
0.0
 10
10.3933385886
 20
2.090075166
 30
0.0
 10
10.3465398497
 20
2.0748004681
 30
0.0
 10
10.2990396275
 20
2.061813016
 30
0.0
 10
10.2509522397
 20
2.0511440719
 30
0.0
 10
10.202393426
 20
2.0428192656
 30
0.0
 10
10.1534800485
 20
2.0368586137
 30
0.0
 10
10.1043298184
 20
2.033276458
 30
0.0
 10
10.0550610168
 20
2.0320814359
 30
0.0
 10
10.0057922152
 20
2.033276458
 30
0.0
 10
9.9566419852
 20
2.0368586137
 30
0.0
 10
9.9077286076
 20
2.0428192656
 30
0.0
 10
9.8591697939
 20
2.0511440719
 30
0.0
 10
9.8110824062
 20
2.061813016
 30
0.0
 10
9.7635821839
 20
2.0748004681
 30
0.0
 10
9.716783445
 20
2.090075166
 30
0.0
 10
9.6707988111
 20
2.1076003304
 30
0.0
 10
9.6257389515
 20
2.1273337913
 30
0.0
 10
9.5817123169
 20
2.1492280762
 30
0.0
 10
9.5388248886
 20
2.173230534
 30
0.0
 10
9.4971799037
 20
2.1992834199
 30
0.0
 10
9.4568775824
 20
2.2273240109
 30
0.0
 10
9.4180149271
 20
2.2572848256
 30
0.0
 10
9.3806854851
 20
2.2890937716
 30
0.0
 10
9.3449791294
 20
2.3226743191
 30
0.0
 10
9.3109818422
 20
2.3579456791
 30
0.0
 10
9.278775444
 20
2.3948229403
 30
0.0
 10
9.2484374554
 20
2.4332173406
 30
0.0
 10
9.2200409135
 20
2.4730364762
 30
0.0
 10
9.193654195
 20
2.5141845187
 30
0.0
 10
9.1693408667
 20
2.5565624493
 30
0.0
 10
9.1471594561
 20
2.6000682537
 30
0.0
 10
9.1271633474
 20
2.6445971988
 30
0.0
 10
9.10940068
 20
2.6900420993
 30
0.0
 10
9.0939142343
 20
2.7362935708
 30
0.0
 10
9.0807413435
 20
2.7832402696
 30
0.0
 10
9.0699136833
 20
2.8307692561
 30
0.0
 10
9.0614574615
 20
2.8787658367
 30
0.0
 10
9.05539267
 20
2.9271152652
 30
0.0
 10
9.0517344422
 20
2.9756991627
 30
0.0
 10
9.0509055411
 20
3.0081712346
 30
0.0
 10
9.0508941382
 20
3.0244039989
 30
0.0
  0
LINE
  5
24C
100
AcDbEntity
  8
0
100
AcDbLine
 62
9
  6
CONTINUOUS
 10
9.0508941382
 20
3.0244039989
 11
9.0508938962
 21
3.0250928439
  0
SPLINE
  5
24D
100
AcDbEntity
  8
0
100
AcDbSpline
 62
9
  6
CONTINUOUS
 70
0
 71
3
 72
47
 73
43
 74
0
 42
0.0000001
 43
0.0000001
 44
0.0000000001
 40
0.0
 40
0.0
 40
0.0
 40
0.0
 40
0.0155376606
 40
0.0310771857
 40
0.0466176419
 40
0.0621609344
 40
0.0932489541
 40
0.1243567571
 40
0.1399245539
 40
0.155499237
 40
0.1710813237
 40
0.1866712577
 40
0.2178666049
 40
0.2490967551
 40
0.2803623488
 40
0.3116626663
 40
0.3429956584
 40
0.3743580263
 40
0.4057453565
 40
0.4371522837
 40
0.4685727041
 40
0.5
 40
0.5314272959
 40
0.5628477163
 40
0.5942546435
 40
0.6256419737
 40
0.6570043416
 40
0.6883373337
 40
0.7196376512
 40
0.7509032449
 40
0.7821333951
 40
0.8133287423
 40
0.8289186763
 40
0.844500763
 40
0.8600754461
 40
0.8756432429
 40
0.9067510459
 40
0.9378390656
 40
0.9533823581
 40
0.9689228143
 40
0.9844623394
 40
1.0
 40
1.0
 40
1.0
 40
1.0
 10
10.6266706419
 20
3.5058630729
 30
0.0
 10
10.6266706419
 20
3.4966188504
 30
0.0
 10
10.6262112996
 20
3.4781259819
 30
0.0
 10
10.6241466268
 20
3.4504567608
 30
0.0
 10
10.6207104415
 20
3.4229194854
 30
0.0
 10
10.6143132312
 20
3.3864745951
 30
0.0
 10
10.6029321117
 20
3.3415619114
 30
0.0
 10
10.5871550105
 20
3.2979834249
 30
0.0
 10
10.5719949633
 20
3.2641782897
 30
0.0
 10
10.5593750863
 20
3.2393957215
 30
0.0
 10
10.5455399802
 20
3.2152552679
 30
0.0
 10
10.5255175454
 20
3.184000455
 30
0.0
 10
10.4976108234
 20
3.1468083657
 30
0.0
 10
10.4598774668
 20
3.1056604682
 30
0.0
 10
10.4182450741
 20
3.0683650497
 30
0.0
 10
10.3731163847
 20
3.0352842999
 30
0.0
 10
10.3249258079
 20
3.0067354281
 30
0.0
 10
10.2741374778
 20
2.982993392
 30
0.0
 10
10.2212404294
 20
2.9642863919
 30
0.0
 10
10.1667439177
 20
2.9507942396
 30
0.0
 10
10.1111724812
 20
2.942646817
 30
0.0
 10
10.0550610168
 20
2.9399221713
 30
0.0
 10
9.9989495524
 20
2.942646817
 30
0.0
 10
9.9433781159
 20
2.9507942396
 30
0.0
 10
9.8888816042
 20
2.9642863919
 30
0.0
 10
9.8359845558
 20
2.982993392
 30
0.0
 10
9.7851962257
 20
3.0067354281
 30
0.0
 10
9.7370056489
 20
3.0352842999
 30
0.0
 10
9.6918769595
 20
3.0683650497
 30
0.0
 10
9.6502445668
 20
3.1056604682
 30
0.0
 10
9.6125112102
 20
3.1468083657
 30
0.0
 10
9.5846044882
 20
3.184000455
 30
0.0
 10
9.5645820534
 20
3.2152552679
 30
0.0
 10
9.5507469474
 20
3.2393957215
 30
0.0
 10
9.5381270703
 20
3.2641782897
 30
0.0
 10
9.5229670232
 20
3.2979834249
 30
0.0
 10
9.5071899219
 20
3.3415619114
 30
0.0
 10
9.4958088024
 20
3.3864745951
 30
0.0
 10
9.4894115921
 20
3.4229194854
 30
0.0
 10
9.4859754068
 20
3.4504567608
 30
0.0
 10
9.483910734
 20
3.4781259819
 30
0.0
 10
9.4834513917
 20
3.4966188504
 30
0.0
 10
9.4834513917
 20
3.5058630729
 30
0.0
  0
SPLINE
  5
24E
100
AcDbEntity
  8
0
100
AcDbSpline
 62
9
  6
CONTINUOUS
 70
0
 71
3
 72
27
 73
23
 74
0
 42
0.0000001
 43
0.0000001
 44
0.0000000001
 40
0.0
 40
0.0
 40
0.0
 40
0.0
 40
0.0623108431
 40
0.0934719678
 40
0.1246342833
 40
0.1869610006
 40
0.2493033546
 40
0.2804855506
 40
0.3116734652
 40
0.3740613434
 40
0.4364784317
 40
0.4989284729
 40
0.5614147231
 40
0.6239399044
 40
0.6865061656
 40
0.7178088015
 40
0.7491222336
 40
0.811774665
 40
0.8744709242
 40
0.9058389732
 40
0.9372177908
 40
1.0
 40
1.0
 40
1.0
 40
1.0
 10
9.0508938962
 20
3.0250928439
 30
0.0
 10
9.0508938962
 20
3.0450965012
 30
0.0
 10
9.0518123306
 20
3.0751144267
 30
0.0
 10
9.0548691477
 20
3.115013281
 30
0.0
 10
9.0591447843
 20
3.1548064044
 30
0.0
 10
9.0667690769
 20
3.2042819667
 30
0.0
 10
9.0774032823
 20
3.2532056291
 30
0.0
 10
9.0876914043
 20
3.2919033002
 30
0.0
 10
9.099159861
 20
3.3302828699
 30
0.0
 10
9.115690192
 20
3.3775901858
 30
0.0
 10
9.13895649
 20
3.4330591751
 30
0.0
 10
9.1655715429
 20
3.4870377345
 30
0.0
 10
9.1954378472
 20
3.5393274984
 30
0.0
 10
9.2284454153
 20
3.5897366355
 30
0.0
 10
9.2584671742
 20
3.6300208957
 30
0.0
 10
9.2839245603
 20
3.6611233806
 30
0.0
 10
9.3103302677
 20
3.6914617464
 30
0.0
 10
9.3450599925
 20
3.7278834912
 30
0.0
 10
9.3819399338
 20
3.7621516569
 30
0.0
 10
9.4126560273
 20
3.7882040442
 30
0.0
 10
9.4441642532
 20
3.8133349001
 30
0.0
 10
9.4686441192
 20
3.8311101018
 30
0.0
 10
9.4853021254
 20
3.8424562047
 30
0.0
  0
SPLINE
  5
24F
100
AcDbEntity
  8
0
100
AcDbSpline
 62
9
  6
CONTINUOUS
 70
0
 71
3
 72
27
 73
23
 74
0
 42
0.0000001
 43
0.0000001
 44
0.0000000001
 40
0.0
 40
0.0
 40
0.0
 40
0.0
 40
0.0627822092
 40
0.0941610268
 40
0.1255290758
 40
0.188225335
 40
0.2508777664
 40
0.2821911985
 40
0.3134938344
 40
0.3760600956
 40
0.4385852769
 40
0.5010715271
 40
0.5635215683
 40
0.6259386566
 40
0.6883265348
 40
0.7195144494
 40
0.7506966454
 40
0.8130389994
 40
0.8753657167
 40
0.9065280322
 40
0.9376891569
 40
1.0
 40
1.0
 40
1.0
 40
1.0
 10
10.6248199083
 20
3.8424562047
 30
0.0
 10
10.6414779144
 20
3.8311101018
 30
0.0
 10
10.6659577805
 20
3.8133349001
 30
0.0
 10
10.6974660063
 20
3.7882040442
 30
0.0
 10
10.7281820998
 20
3.7621516569
 30
0.0
 10
10.7650620411
 20
3.7278834912
 30
0.0
 10
10.7997917659
 20
3.6914617464
 30
0.0
 10
10.8261974733
 20
3.6611233806
 30
0.0
 10
10.8516548594
 20
3.6300208957
 30
0.0
 10
10.8816766183
 20
3.5897366355
 30
0.0
 10
10.9146841865
 20
3.5393274984
 30
0.0
 10
10.9445504907
 20
3.4870377345
 30
0.0
 10
10.9711655436
 20
3.4330591751
 30
0.0
 10
10.9944318416
 20
3.3775901858
 30
0.0
 10
11.0109621726
 20
3.3302828699
 30
0.0
 10
11.0224306293
 20
3.2919033002
 30
0.0
 10
11.0327187514
 20
3.2532056291
 30
0.0
 10
11.0433529568
 20
3.2042819667
 30
0.0
 10
11.0509772493
 20
3.1548064044
 30
0.0
 10
11.055252886
 20
3.115013281
 30
0.0
 10
11.0583097031
 20
3.0751144267
 30
0.0
 10
11.0592281374
 20
3.0450965012
 30
0.0
 10
11.0592281374
 20
3.0250928439
 30
0.0
  0
SPLINE
  5
250
100
AcDbEntity
  8
0
100
AcDbSpline
 62
9
  6
CONTINUOUS
 70
0
 71
3
 72
22
 73
18
 74
0
 42
0.0000001
 43
0.0000001
 44
0.0000000001
 40
0.0
 40
0.0
 40
0.0
 40
0.0
 40
0.0731672925
 40
0.1489330196
 40
0.3044356623
 40
0.4590490329
 40
0.5336921194
 40
0.6053575282
 40
0.6732249957
 40
0.7365554782
 40
0.7947192618
 40
0.8472347739
 40
0.8938109167
 40
0.9344285068
 40
0.9526285426
 40
0.9695338177
 40
1.0
 40
1.0
 40
1.0
 40
1.0
 10
12.9927321672
 20
11.2955948952
 30
0.0
 10
12.9938258418
 20
11.295465257
 30
0.0
 10
12.9960588928
 20
11.2952566523
 30
0.0
 10
13.0006371146
 20
11.2950345913
 30
0.0
 10
13.0064517721
 20
11.2951222309
 30
0.0
 10
13.0122241045
 20
11.2956731716
 30
0.0
 10
13.0166969024
 20
11.2963963142
 30
0.0
 10
13.0198534041
 20
11.2970580257
 30
0.0
 10
13.0228077408
 20
11.297835802
 30
0.0
 10
13.0255197001
 20
11.2987189318
 30
0.0
 10
13.027952648
 20
11.2996951519
 30
0.0
 10
13.030074628
 20
11.3007512692
 30
0.0
 10
13.0318578778
 20
11.3018734006
 30
0.0
 10
13.0330862924
 20
11.302887834
 30
0.0
 10
13.0338613102
 20
11.3037263343
 30
0.0
 10
13.0344547262
 20
11.3045157418
 30
0.0
 10
13.0347854393
 20
11.3051600242
 30
0.0
 10
13.0349273663
 20
11.3055960931
 30
0.0
  0
SPLINE
  5
251
100
AcDbEntity
  8
0
100
AcDbSpline
 62
9
  6
CONTINUOUS
 70
0
 71
3
 72
97
 73
93
 74
0
 42
0.0000001
 43
0.0000001
 44
0.0000000001
 40
0.0
 40
0.0
 40
0.0
 40
0.0
 40
0.0288468045
 40
0.0432662588
 40
0.0576764429
 40
0.08645377
 40
0.1151544617
 40
0.1294679472
 40
0.1437494688
 40
0.1721926318
 40
0.200444138
 40
0.228450843
 40
0.2561500893
 40
0.283468648
 40
0.3103238866
 40
0.3366286016
 40
0.3622997873
 40
0.3872588485
 40
0.4114255011
 40
0.4347208718
 40
0.4570689507
 40
0.4784315464
 40
0.4987931296
 40
0.5181423489
 40
0.5364646228
 40
0.5537440279
 40
0.5699698757
 40
0.577686668
 40
0.5851415185
 40
0.5992737239
 40
0.61238521
 40
0.6244951758
 40
0.6356226192
 40
0.6408244304
 40
0.6457890769
 40
0.6505198754
 40
0.6550201285
 40
0.6592931226
 40
0.6633425027
 40
0.6671723632
 40
0.6707871384
 40
0.6741918508
 40
0.6773923778
 40
0.6803955548
 40
0.6832091527
 40
0.6858423507
 40
0.6883061281
 40
0.6906133358
 40
0.6927786815
 40
0.6948195747
 40
0.6967564855
 40
0.6986126195
 40
0.7004131051
 40
0.7021849853
 40
0.703956273
 40
0.7057544066
 40
0.7076044331
 40
0.7095288449
 40
0.7115473033
 40
0.7136764408
 40
0.7159295278
 40
0.7183172494
 40
0.7208483134
 40
0.7235297688
 40
0.7263671435
 40
0.7293648227
 40
0.7325264215
 40
0.7358549369
 40
0.7393529048
 40
0.743022595
 40
0.746866072
 40
0.7508852369
 40
0.7550819002
 40
0.7640145505
 40
0.7687552474
 40
0.7736813111
 40
0.784097592
 40
0.7952832486
 40
0.8072575721
 40
0.8200405429
 40
0.8336540617
 40
0.8481235229
 40
0.8634800082
 40
0.8797617775
 40
0.8970164346
 40
0.9060281421
 40
0.9153075791
 40
0.9248642169
 40
0.9347082654
 40
0.95528092
 40
0.9770482536
 40
1.0
 40
1.0
 40
1.0
 40
1.0
 10
10.8310941839
 20
11.6836669139
 30
0.0
 10
10.831092895
 20
11.7026818936
 30
0.0
 10
10.8300756077
 20
11.7312153862
 30
0.0
 10
10.8266931089
 20
11.7690889811
 30
0.0
 10
10.8219727382
 20
11.8067746639
 30
0.0
 10
10.8135850214
 20
11.8534556792
 30
0.0
 10
10.8019400942
 20
11.8993663046
 30
0.0
 10
10.7907379364
 20
11.9354414915
 30
0.0
 10
10.7783384505
 20
11.9709429068
 30
0.0
 10
10.7606151224
 20
12.0142854736
 30
0.0
 10
10.7359573119
 20
12.0644256582
 30
0.0
 10
10.7081990275
 20
12.1123518968
 30
0.0
 10
10.6776488489
 20
12.1578066282
 30
0.0
 10
10.6446598228
 20
12.200565983
 30
0.0
 10
10.6096246713
 20
12.2404463617
 30
0.0
 10
10.5729634637
 20
12.2773171009
 30
0.0
 10
10.5351059435
 20
12.3111043872
 30
0.0
 10
10.4964839951
 20
12.3417925179
 30
0.0
 10
10.4575271828
 20
12.3694225097
 30
0.0
 10
10.4186547908
 20
12.3940850213
 30
0.0
 10
10.3802502941
 20
12.4159333651
 30
0.0
 10
10.3426298352
 20
12.4351575402
 30
0.0
 10
10.3060431088
 20
12.4519788344
 30
0.0
 10
10.2706982549
 20
12.4666322665
 30
0.0
 10
10.236778139
 20
12.4793567824
 30
0.0
 10
10.2044417417
 20
12.4903922186
 30
0.0
 10
10.1785063255
 20
12.4985059795
 30
0.0
 10
10.1586579495
 20
12.5043702556
 30
0.0
 10
10.140082805
 20
12.5096703581
 30
0.0
 10
10.1180146442
 20
12.5156848381
 30
0.0
 10
10.0929121237
 20
12.5222271248
 30
0.0
 10
10.0696944171
 20
12.528145362
 30
0.0
 10
10.0515328247
 20
12.5327912323
 30
0.0
 10
10.037956823
 20
12.5363566788
 30
0.0
 10
10.0284744963
 20
12.5389094015
 30
0.0
 10
10.0194595184
 20
12.5414181254
 30
0.0
 10
10.0109102245
 20
12.5438979891
 30
0.0
 10
10.0028246769
 20
12.5463618508
 30
0.0
 10
9.9952012119
 20
12.5488228162
 30
0.0
 10
9.9880384483
 20
12.5512941603
 30
0.0
 10
9.9813342467
 20
12.553786122
 30
0.0
 10
9.9750864131
 20
12.5563084031
 30
0.0
 10
9.9692929168
 20
12.5588709351
 30
0.0
 10
9.9639518764
 20
12.5614831864
 30
0.0
 10
9.9590603406
 20
12.5641517413
 30
0.0
 10
9.9546155696
 20
12.5668834285
 30
0.0
 10
9.9506151744
 20
12.5696852435
 30
0.0
 10
9.947057123
 20
12.5725633593
 30
0.0
 10
9.9439388627
 20
12.5755220519
 30
0.0
 10
9.9412587616
 20
12.578565733
 30
0.0
 10
9.9390160622
 20
12.5816984505
 30
0.0
 10
9.9372107202
 20
12.5849226771
 30
0.0
 10
9.9358425165
 20
12.588238721
 30
0.0
 10
9.9349114871
 20
12.591645475
 30
0.0
 10
9.934416794
 20
12.5951407001
 30
0.0
 10
9.9343561461
 20
12.5987212464
 30
0.0
 10
9.9347262951
 20
12.6023837715
 30
0.0
 10
9.9355237845
 20
12.6061251764
 30
0.0
 10
9.9367452115
 20
12.6099429953
 30
0.0
 10
9.9383872473
 20
12.6138349702
 30
0.0
 10
9.9404477763
 20
12.617798132
 30
0.0
 10
9.9429250668
 20
12.6218287955
 30
0.0
 10
9.9458175626
 20
12.6259230155
 30
0.0
 10
9.9491236007
 20
12.6300768065
 30
0.0
 10
9.9528426432
 20
12.6342850283
 30
0.0
 10
9.9569747954
 20
12.6385414987
 30
0.0
 10
9.9615199242
 20
12.6428399893
 30
0.0
 10
9.9664778435
 20
12.6471743304
 30
0.0
 10
9.9718489859
 20
12.6515377809
 30
0.0
 10
9.9776351771
 20
12.6559219217
 30
0.0
 10
9.9838379781
 20
12.6603185642
 30
0.0
 10
9.9904590649
 20
12.6647195575
 30
0.0
 10
10.0000480059
 20
12.6707074604
 30
0.0
 10
10.0102967217
 20
12.6765274586
 30
0.0
 10
10.0211771044
 20
12.6821799471
 30
0.0
 10
10.0330725242
 20
12.6879921042
 30
0.0
 10
10.0490628969
 20
12.6950869044
 30
0.0
 10
10.0696962046
 20
12.703114909
 30
0.0
 10
10.0921520918
 20
12.7106948139
 30
0.0
 10
10.1164637925
 20
12.7177020472
 30
0.0
 10
10.1426650639
 20
12.7239963503
 30
0.0
 10
10.1707893379
 20
12.7294271576
 30
0.0
 10
10.2008741345
 20
12.7338196934
 30
0.0
 10
10.2329591048
 20
12.7369825974
 30
0.0
 10
10.2609825542
 20
12.7383901381
 30
0.0
 10
10.2844133138
 20
12.7386993016
 30
0.0
 10
10.3027704877
 20
12.7384742352
 30
0.0
 10
10.3216639518
 20
12.7377483482
 30
0.0
 10
10.3479599024
 20
12.7360321434
 30
0.0
 10
10.3821819115
 20
12.7323673535
 30
0.0
 10
10.4246715321
 20
12.725381384
 30
0.0
 10
10.4534526539
 20
12.7189190278
 30
0.0
 10
10.4681125366
 20
12.7151802648
 30
0.0
  0
SPLINE
  5
252
100
AcDbEntity
  8
0
100
AcDbSpline
 62
9
  6
CONTINUOUS
 70
0
 71
3
 72
22
 73
18
 74
0
 42
0.0000001
 43
0.0000001
 44
0.0000000001
 40
0.0
 40
0.0
 40
0.0
 40
0.0
 40
0.0731442161
 40
0.1488807307
 40
0.3043153706
 40
0.4588627305
 40
0.5334789785
 40
0.6051242438
 40
0.6729800324
 40
0.736308897
 40
0.7944824868
 40
0.8470203445
 40
0.8936321343
 40
0.9342987657
 40
0.952527993
 40
0.9694650986
 40
1.0
 40
1.0
 40
1.0
 40
1.0
 10
12.9927836948
 20
12.0726603269
 30
0.0
 10
12.9938769624
 20
12.0727902413
 30
0.0
 10
12.9961091334
 20
12.0729993126
 30
0.0
 10
13.0006854177
 20
12.0732219536
 30
0.0
 10
13.0064975193
 20
12.0731343834
 30
0.0
 10
13.0122672445
 20
12.0725826584
 30
0.0
 10
13.0167380409
 20
12.0718583895
 30
0.0
 10
13.0198933425
 20
12.0711955822
 30
0.0
 10
13.0228467413
 20
12.0704164679
 30
0.0
 10
13.025558072
 20
12.0695317659
 30
0.0
 10
13.0279907365
 20
12.0685537472
 30
0.0
 10
13.0301127999
 20
12.0674956159
 30
0.0
 10
13.0318965109
 20
12.0663712714
 30
0.0
 10
13.033125486
 20
12.0653548915
 30
0.0
 10
13.033901186
 20
12.0645148088
 30
0.0
 10
13.0344955335
 20
12.0637236835
 30
0.0
 10
13.0348270066
 20
12.0630781599
 30
0.0
 10
13.034969569
 20
12.0626412208
 30
0.0
  0
SPLINE
  5
253
100
AcDbEntity
  8
0
100
AcDbSpline
 62
9
  6
CONTINUOUS
 70
0
 71
3
 72
44
 73
40
 74
0
 42
0.0000001
 43
0.0000001
 44
0.0000000001
 40
0.0
 40
0.0
 40
0.0
 40
0.0
 40
0.09588157
 40
0.1908556447
 40
0.2840259703
 40
0.3744971361
 40
0.4613976002
 40
0.5032635586
 40
0.5439468516
 40
0.5833530146
 40
0.6213878649
 40
0.6579575911
 40
0.6929688696
 40
0.7263342741
 40
0.7579881218
 40
0.787870769
 40
0.8159236145
 40
0.8420894887
 40
0.8663132226
 40
0.8885425095
 40
0.8988943275
 40
0.9087299915
 40
0.9180453466
 40
0.9268401055
 40
0.9351154655
 40
0.9428734602
 40
0.9501172017
 40
0.9568512111
 40
0.9630818774
 40
0.9688181005
 40
0.9740722058
 40
0.9788612497
 40
0.9832088838
 40
0.9871479625
 40
0.9907239992
 40
0.9939991975
 40
0.9970558251
 40
0.9985353378
 40
1.0
 40
1.0
 40
1.0
 40
1.0
 10
11.7964771812
 20
11.6836669139
 30
0.0
 10
11.7964771812
 20
11.7130716543
 30
0.0
 10
11.7968301988
 20
11.7716034337
 30
0.0
 10
11.7984010559
 20
11.8586957161
 30
0.0
 10
11.8009914832
 20
11.944103921
 30
0.0
 10
11.8045801286
 20
12.0269978754
 30
0.0
 10
11.8084325777
 20
12.0941253844
 30
0.0
 10
11.8120097253
 20
12.1459690321
 30
0.0
 10
11.814883977
 20
12.1832598735
 30
0.0
 10
11.8179754479
 20
12.2193542793
 30
0.0
 10
11.8212767993
 20
12.2541631516
 30
0.0
 10
11.8247805955
 20
12.2875973898
 30
0.0
 10
11.8284794875
 20
12.3195695477
 30
0.0
 10
11.8323674019
 20
12.3500001132
 30
0.0
 10
11.8364323487
 20
12.378820058
 30
0.0
 10
11.840662901
 20
12.4059685377
 30
0.0
 10
11.8450478185
 20
12.431386366
 30
0.0
 10
11.8495756448
 20
12.4550146151
 30
0.0
 10
11.8542350228
 20
12.4767942403
 30
0.0
 10
11.8583082704
 20
12.4937347589
 30
0.0
 10
11.861644904
 20
12.506308369
 30
0.0
 10
11.8641142163
 20
12.5150132668
 30
0.0
 10
11.8666091746
 20
12.5232130092
 30
0.0
 10
11.8691278429
 20
12.5309035874
 30
0.0
 10
11.8716684839
 20
12.5380822905
 30
0.0
 10
11.874229472
 20
12.5447466883
 30
0.0
 10
11.876809189
 20
12.5508944118
 30
0.0
 10
11.8794060513
 20
12.5565231727
 30
0.0
 10
11.88201854
 20
12.561630791
 30
0.0
 10
11.8846452583
 20
12.5662152258
 30
0.0
 10
11.8872850388
 20
12.5702746025
 30
0.0
 10
11.8899371057
 20
12.5738072083
 30
0.0
 10
11.8926014038
 20
12.5768113765
 30
0.0
 10
11.8952788138
 20
12.5792851216
 30
0.0
 10
11.8979719237
 20
12.581225157
 30
0.0
 10
11.9006828039
 20
12.5826254022
 30
0.0
 10
11.9029852228
 20
12.5833410379
 30
0.0
 10
11.9048067911
 20
12.5836205566
 30
0.0
 10
11.9057104119
 20
12.5836669139
 30
0.0
 10
11.9061595911
 20
12.5836669139
 30
0.0
  0
SPLINE
  5
254
100
AcDbEntity
  8
0
100
AcDbSpline
 62
7
  6
CONTINUOUS
 70
0
 71
3
 72
43
 73
39
 74
0
 42
0.0000001
 43
0.0000001
 44
0.0000000001
 40
0.0
 40
0.0
 40
0.0
 40
0.0
 40
0.0958833243
 40
0.1908552944
 40
0.2840184519
 40
0.3744892234
 40
0.4614129929
 40
0.5032876886
 40
0.5439719563
 40
0.5833707187
 40
0.6213922002
 40
0.6579481148
 40
0.6929544677
 40
0.7263313185
 40
0.7580032784
 40
0.7879002437
 40
0.8159572009
 40
0.8421151945
 40
0.8663220522
 40
0.8885327606
 40
0.8988783439
 40
0.9087121409
 40
0.9180315474
 40
0.9268345985
 40
0.9351202082
 40
0.9428888075
 40
0.9501420833
 40
0.9568833164
 40
0.9631183554
 40
0.9688558199
 40
0.9741079253
 40
0.9788922896
 40
0.983233446
 40
0.987165243
 40
0.9907346069
 40
0.9940050817
 40
0.9970595707
 40
1.0
 40
1.0
 40
1.0
 40
1.0
 10
11.8064026421
 20
11.6836669139
 30
0.0
 10
11.8064026421
 20
11.7130728222
 30
0.0
 10
11.8067514132
 20
11.7716057565
 30
0.0
 10
11.8083182898
 20
11.8586976983
 30
0.0
 10
11.8109123697
 20
11.9441046946
 30
0.0
 10
11.8145082253
 20
12.027004912
 30
0.0
 10
11.818355554
 20
12.0941438443
 30
0.0
 10
11.8219297265
 20
12.1459989709
 30
0.0
 10
11.8248030038
 20
12.1832914066
 30
0.0
 10
11.8278950785
 20
12.2193804533
 30
0.0
 10
11.8311984507
 20
12.2541792378
 30
0.0
 10
11.8347050923
 20
12.2876040027
 30
0.0
 10
11.8384063276
 20
12.3195743191
 30
0.0
 10
11.8422930788
 20
12.3500132948
 30
0.0
 10
11.8463558013
 20
12.3788477684
 30
0.0
 10
11.8505843223
 20
12.406008508
 30
0.0
 10
11.8549681778
 20
12.4314303796
 30
0.0
 10
11.8594963083
 20
12.4550526693
 30
0.0
 10
11.8641572957
 20
12.4768188724
 30
0.0
 10
11.8682327575
 20
12.4937460906
 30
0.0
 10
11.8715703875
 20
12.506311253
 30
0.0
 10
11.8740405271
 20
12.5150148157
 30
0.0
 10
11.8765355019
 20
12.5232180887
 30
0.0
 10
11.8790538398
 20
12.5309162376
 30
0.0
 10
11.8815940791
 20
12.5381047294
 30
0.0
 10
11.8841545555
 20
12.5447794656
 30
0.0
 10
11.8867336901
 20
12.5509366894
 30
0.0
 10
11.8893300894
 20
12.556572956
 30
0.0
 10
11.8919421743
 20
12.5616853575
 30
0.0
 10
11.8945685356
 20
12.5662714374
 30
0.0
 10
11.8972082089
 20
12.57032907
 30
0.0
 10
11.8998603834
 20
12.5738567414
 30
0.0
 10
11.9025249141
 20
12.5768533365
 30
0.0
 10
11.9052030205
 20
12.5793174144
 30
0.0
 10
11.9078967348
 20
12.5812466969
 30
0.0
 10
11.9106092096
 20
12.5826364735
 30
0.0
 10
11.9133397653
 20
12.5834776437
 30
0.0
 10
11.9151832677
 20
12.5836668321
 30
0.0
 10
11.9160850511
 20
12.5836668321
 30
0.0
  0
SPLINE
  5
255
100
AcDbEntity
  8
0
100
AcDbSpline
 62
7
  6
CONTINUOUS
 70
0
 71
3
 72
42
 73
38
 74
0
 42
0.0000001
 43
0.0000001
 44
0.0000000001
 40
0.0
 40
0.0
 40
0.0
 40
0.0
 40
0.0958834112
 40
0.190855387
 40
0.2840186499
 40
0.3744894857
 40
0.4614133156
 40
0.5439716339
 40
0.5833704663
 40
0.6213919159
 40
0.6579478847
 40
0.6929542976
 40
0.7263310836
 40
0.7580031453
 40
0.7879001145
 40
0.8159570247
 40
0.8421151503
 40
0.8663219323
 40
0.8885326578
 40
0.8988782198
 40
0.908712152
 40
0.9180314899
 40
0.9268344817
 40
0.9351202266
 40
0.9428887853
 40
0.9501419703
 40
0.9568833276
 40
0.9631183708
 40
0.9688557282
 40
0.9741079247
 40
0.9788923281
 40
0.9832333793
 40
0.9871652252
 40
0.9907346456
 40
0.9940050585
 40
0.9970595572
 40
1.0
 40
1.0
 40
1.0
 40
1.0
 10
11.8170662096
 20
11.6836669139
 30
0.0
 10
11.8170662096
 20
11.6571199073
 30
0.0
 10
11.8173810735
 20
11.6042776876
 30
0.0
 10
11.8187956071
 20
11.5256530063
 30
0.0
 10
11.821137527
 20
11.4485495087
 30
0.0
 10
11.8243836353
 20
11.3737088907
 30
0.0
 10
11.8285018612
 20
11.3018518514
 30
0.0
 10
11.8326881608
 20
11.2441683831
 30
0.0
 10
11.8364690515
 20
11.2000366457
 30
0.0
 10
11.8394513371
 20
11.1686210677
 30
0.0
 10
11.8426170329
 20
11.1384459315
 30
0.0
 10
11.8459584082
 20
11.1095838434
 30
0.0
 10
11.8494673216
 20
11.0821042099
 30
0.0
 10
11.8531350224
 20
11.0560730897
 30
0.0
 10
11.8569524401
 20
11.0315529782
 30
0.0
 10
11.8609101247
 20
11.0086026757
 30
0.0
 10
11.8649979572
 20
10.9872769973
 30
0.0
 10
11.8692058529
 20
10.9676269592
 30
0.0
 10
11.8728850446
 20
10.9523454652
 30
0.0
 10
11.8758982336
 20
10.9410019005
 30
0.0
 10
11.8781281537
 20
10.9331444912
 30
0.0
 10
11.8803805963
 20
10.9257387718
 30
0.0
 10
11.8826541381
 20
10.9187890719
 30
0.0
 10
11.8849473342
 20
10.9122994294
 30
0.0
 10
11.8872588928
 20
10.9062736346
 30
0.0
 10
11.8895873458
 20
10.9007150658
 30
0.0
 10
11.8919312412
 20
10.8956267285
 30
0.0
 10
11.8942893637
 20
10.8910113553
 30
0.0
 10
11.8966604776
 20
10.8868712062
 30
0.0
 10
11.8990434488
 20
10.8832080225
 30
0.0
 10
11.9014377255
 20
10.8800232711
 30
0.0
 10
11.9038433167
 20
10.8773181196
 30
0.0
 10
11.9062610049
 20
10.8750935743
 30
0.0
 10
11.9086927636
 20
10.873351731
 30
0.0
 10
11.9111416217
 20
10.8720972478
 30
0.0
 10
11.9136066685
 20
10.8713378507
 30
0.0
 10
11.9152709379
 20
10.8711669139
 30
0.0
 10
11.9160850511
 20
10.8711669139
 30
0.0
  0
SPLINE
  5
256
100
AcDbEntity
  8
0
100
AcDbSpline
 62
9
  6
CONTINUOUS
 70
0
 71
3
 72
20
 73
16
 74
0
 42
0.0000001
 43
0.0000001
 44
0.0000000001
 40
0.0
 40
0.0
 40
0.0
 40
0.0
 40
0.0637746573
 40
0.127536601
 40
0.1912502213
 40
0.2548959023
 40
0.3184467815
 40
0.3818718147
 40
0.5081791524
 40
0.633557541
 40
0.6958022125
 40
0.7576683019
 40
0.8190948384
 40
0.8800141924
 40
1.0
 40
1.0
 40
1.0
 40
1.0
 10
10.8310941839
 20
11.6836669139
 30
0.0
 10
10.8310933293
 20
11.6711223372
 30
0.0
 10
10.8305025883
 20
11.6460317329
 30
0.0
 10
10.8278518029
 20
11.6084928334
 30
0.0
 10
10.8234448841
 20
11.5711440723
 30
0.0
 10
10.8173024315
 20
11.534083864
 30
0.0
 10
10.8094502347
 20
11.4974052091
 30
0.0
 10
10.796763455
 20
11.4492109255
 30
0.0
 10
10.7768398535
 20
11.3904184568
 30
0.0
 10
10.7517158942
 20
11.3339109075
 30
0.0
 10
10.7287813498
 20
11.290509244
 30
0.0
 10
10.7103012686
 20
11.2590242639
 30
0.0
 10
10.6905923038
 20
11.2286036028
 30
0.0
 10
10.6629513578
 20
11.189756465
 30
0.0
 10
10.6404743404
 20
11.1620979737
 30
0.0
 10
10.624836551
 20
11.1444207116
 30
0.0
  0
SPLINE
  5
257
100
AcDbEntity
  8
0
100
AcDbSpline
 62
9
  6
CONTINUOUS
 70
0
 71
3
 72
29
 73
25
 74
0
 42
0.0000001
 43
0.0000001
 44
0.0000000001
 40
0.0
 40
0.0
 40
0.0
 40
0.0
 40
0.062130343
 40
0.0931995909
 40
0.1242692922
 40
0.1553445675
 40
0.186432393
 40
0.2175382467
 40
0.2486651271
 40
0.3109678802
 40
0.3733481847
 40
0.4357848941
 40
0.4982588437
 40
0.5295161176
 40
0.5607835776
 40
0.592065495
 40
0.62336694
 40
0.6546906897
 40
0.6860372057
 40
0.7487755616
 40
0.8115722991
 40
0.8743923218
 40
0.9372053987
 40
1.0
 40
1.0
 40
1.0
 40
1.0
 10
10.6219792608
 20
3.5171386378
 30
0.0
 10
10.6202562359
 20
3.4999698508
 30
0.0
 10
10.6164862808
 20
3.474312913
 30
0.0
 10
10.6090973147
 20
3.4405919798
 30
0.0
 10
10.6023721239
 20
3.4155822089
 30
0.0
 10
10.5944619622
 20
3.3909169485
 30
0.0
 10
10.5853779535
 20
3.3666487561
 30
0.0
 10
10.575156633
 20
3.3428214516
 30
0.0
 10
10.560053097
 20
3.311695757
 30
0.0
 10
10.5384859723
 20
3.2741054534
 30
0.0
 10
10.5085990479
 20
3.2315068269
 30
0.0
 10
10.4749544545
 20
3.1917466167
 30
0.0
 10
10.44399915
 20
3.1612737477
 30
0.0
 10
10.4176277986
 20
3.1386817883
 30
0.0
 10
10.3970675328
 20
3.1226656111
 30
0.0
 10
10.3757638273
 20
3.1076318489
 30
0.0
 10
10.3537649998
 20
3.0936063331
 30
0.0
 10
10.3311254186
 20
3.0806039294
 30
0.0
 10
10.3001526532
 20
3.0646530821
 30
0.0
 10
10.2600929904
 20
3.0473569473
 30
0.0
 10
10.2103410985
 20
3.0309795511
 30
0.0
 10
10.1593019278
 20
3.0191027468
 30
0.0
 10
10.1074055391
 20
3.0118650663
 30
0.0
 10
10.0725005267
 20
3.0102253984
 30
0.0
 10
10.0550610168
 20
3.0102253984
 30
0.0
  0
SPLINE
  5
258
100
AcDbEntity
  8
0
100
AcDbSpline
 62
9
  6
CONTINUOUS
 70
0
 71
3
 72
30
 73
26
 74
0
 42
0.0000001
 43
0.0000001
 44
0.0000000001
 40
0.0
 40
0.0
 40
0.0
 40
0.0
 40
0.0628166419
 40
0.1256528632
 40
0.1884927997
 40
0.2513000833
 40
0.3140358683
 40
0.345377978
 40
0.3766959331
 40
0.4079923001
 40
0.4392725692
 40
0.470541786
 40
0.5018023137
 40
0.5642777047
 40
0.6267016908
 40
0.6890493466
 40
0.7201981942
 40
0.7513239076
 40
0.7824289374
 40
0.7979764834
 40
0.8135211116
 40
0.844603194
 40
0.875684091
 40
0.9378355345
 40
1.0
 40
1.0
 40
1.0
 40
1.0
 10
10.0550610168
 20
3.0102253984
 30
0.0
 10
10.0364306782
 20
3.0102253984
 30
0.0
 10
9.9991388695
 20
3.012096872
 30
0.0
 10
9.9437637336
 20
3.0203463828
 30
0.0
 10
9.8894333017
 20
3.0338686103
 30
0.0
 10
9.8366709717
 20
3.0524950446
 30
0.0
 10
9.7944081458
 20
3.0721475907
 30
0.0
 10
9.7619097813
 20
3.090255222
 30
0.0
 10
9.7382548032
 20
3.1050069603
 30
0.0
 10
9.7153821312
 20
3.1209122471
 30
0.0
 10
9.6933537192
 20
3.1379438528
 30
0.0
 10
9.6722080538
 20
3.1560438571
 30
0.0
 10
9.6452556782
 20
3.18151901
 30
0.0
 10
9.6139618649
 20
3.2157702483
 30
0.0
 10
9.5805900215
 20
3.2602618157
 30
0.0
 10
9.5565083101
 20
3.2998340076
 30
0.0
 10
9.539659968
 20
3.3327452261
 30
0.0
 10
9.5282697751
 20
3.3580021586
 30
0.0
 10
9.519847523
 20
3.3794886619
 30
0.0
 10
9.5137736675
 20
3.3969085217
 30
0.0
 10
9.5081499045
 20
3.4144716246
 30
0.0
 10
9.5019628322
 20
3.4366839005
 30
0.0
 10
9.4938652683
 20
3.4726663672
 30
0.0
 10
9.4871146328
 20
3.5183364471
 30
0.0
 10
9.4853159535
 20
3.5552299996
 30
0.0
 10
9.4853159535
 20
3.5736669139
 30
0.0
  0
SPLINE
  5
259
100
AcDbEntity
  8
0
100
AcDbSpline
 62
9
  6
CONTINUOUS
 70
0
 71
3
 72
34
 73
30
 74
0
 42
0.0000001
 43
0.0000001
 44
0.0000000001
 40
0.0
 40
0.0
 40
0.0
 40
0.0
 40
0.0001491438
 40
0.0004189599
 40
0.0013849879
 40
0.002939321
 40
0.0050855519
 40
0.0078235765
 40
0.0111524442
 40
0.0150710588
 40
0.0195782267
 40
0.0303496023
 40
0.0434451176
 40
0.0588388742
 40
0.0764998265
 40
0.0963822454
 40
0.1184367532
 40
0.1426137743
 40
0.1688563062
 40
0.2272713311
 40
0.2931289239
 40
0.3657898877
 40
0.4445634021
 40
0.5286906777
 40
0.6173651258
 40
0.7097232014
 40
0.8048971766
 40
0.902001697
 40
1.0
 40
1.0
 40
1.0
 40
1.0
 10
12.710884574
 20
11.3993974948
 30
0.0
 10
12.7108860477
 20
11.3993977064
 30
0.0
 10
12.7108891878
 20
11.3994012685
 30
0.0
 10
12.7108939973
 20
11.3994138941
 30
0.0
 10
12.7108992834
 20
11.3994417203
 30
0.0
 10
12.7109041368
 20
11.399487846
 30
0.0
 10
12.710907757
 20
11.399552138
 30
0.0
 10
12.7109095104
 20
11.3996340842
 30
0.0
 10
12.7109089293
 20
11.3997337916
 30
0.0
 10
12.7109055037
 20
11.3998510925
 30
0.0
 10
12.710896053
 20
11.4000425151
 30
0.0
 10
12.7108758524
 20
11.400325076
 30
0.0
 10
12.7108419273
 20
11.4007155477
 30
0.0
 10
12.7107979152
 20
11.4011741605
 30
0.0
 10
12.7107448201
 20
11.4016999568
 30
0.0
 10
12.7106824387
 20
11.4022916423
 30
0.0
 10
12.7106106789
 20
11.4029477438
 30
0.0
 10
12.7105294029
 20
11.403666671
 30
0.0
 10
12.7104038732
 20
11.4047458872
 30
0.0
 10
12.7102242795
 20
11.4062377075
 30
0.0
 10
12.7099821566
 20
11.4081887233
 30
0.0
 10
12.7097083926
 20
11.4103405992
 30
0.0
 10
12.7094053956
 20
11.4126726022
 30
0.0
 10
12.7090765489
 20
11.4151624457
 30
0.0
 10
12.7087249705
 20
11.4177860747
 30
0.0
 10
12.7083522025
 20
11.4205181205
 30
0.0
 10
12.7079632735
 20
11.4233328931
 30
0.0
 10
12.7075690032
 20
11.4262037628
 30
0.0
 10
12.7072970546
 20
11.428132406
 30
0.0
 10
12.7071556353
 20
11.4291004433
 30
0.0
  0
SPLINE
  5
25A
100
AcDbEntity
  8
0
100
AcDbSpline
 62
9
  6
CONTINUOUS
 70
0
 71
3
 72
33
 73
29
 74
0
 42
0.0000001
 43
0.0000001
 44
0.0000000001
 40
0.0
 40
0.0
 40
0.0
 40
0.0
 40
0.0004389073
 40
0.001419431
 40
0.0029827383
 40
0.0051348538
 40
0.0078766534
 40
0.0112077373
 40
0.0151273979
 40
0.0196347942
 40
0.0304053419
 40
0.0434993722
 40
0.0588915104
 40
0.0765509337
 40
0.0964320025
 40
0.1184853884
 40
0.1426615402
 40
0.1689033962
 40
0.2273173514
 40
0.2931737623
 40
0.3658325068
 40
0.444602283
 40
0.5287241936
 40
0.6173918811
 40
0.7097421546
 40
0.8049086725
 40
0.9020076966
 40
1.0
 40
1.0
 40
1.0
 40
1.0
 10
12.7108864266
 20
11.9679367075
 30
0.0
 10
12.7108907613
 20
11.967936067
 30
0.0
 10
12.7108975455
 20
11.9679198786
 30
0.0
 10
12.7109034189
 20
11.9678932675
 30
0.0
 10
12.7109094375
 20
11.9678453588
 30
0.0
 10
12.7109135692
 20
11.9677815911
 30
0.0
 10
12.7109158502
 20
11.9676992707
 30
0.0
 10
12.7109155135
 20
11.9675995793
 30
0.0
 10
12.7109121369
 20
11.9674822041
 30
0.0
 10
12.7109024146
 20
11.967290795
 30
0.0
 10
12.7108813487
 20
11.9670082956
 30
0.0
 10
12.7108459857
 20
11.9666179796
 30
0.0
 10
12.7108003535
 20
11.966159553
 30
0.0
 10
12.710745736
 20
11.9656339384
 30
0.0
 10
12.7106820289
 20
11.9650424116
 30
0.0
 10
12.710609248
 20
11.9643864313
 30
0.0
 10
12.7105273744
 20
11.9636675712
 30
0.0
 10
12.7104016711
 20
11.96258836
 30
0.0
 10
12.7102229925
 20
11.9610964031
 30
0.0
 10
12.709983299
 20
11.9591450566
 30
0.0
 10
12.7097118114
 20
11.9569928789
 30
0.0
 10
12.7094095713
 20
11.9546607988
 30
0.0
 10
12.7090797277
 20
11.9521711483
 30
0.0
 10
12.7087255098
 20
11.9495479714
 30
0.0
 10
12.7083493065
 20
11.9468165122
 30
0.0
 10
12.707957983
 20
11.9440021688
 30
0.0
 10
12.7075662674
 20
11.9411310293
 30
0.0
 10
12.7072966735
 20
11.9392020921
 30
0.0
 10
12.7071556353
 20
11.9382340217
 30
0.0
  0
SPLINE
  5
25B
100
AcDbEntity
  8
0
100
AcDbSpline
 62
9
  6
CONTINUOUS
 70
0
 71
3
 72
15
 73
11
 74
0
 42
0.0000001
 43
0.0000001
 44
0.0000000001
 40
0.0
 40
0.0
 40
0.0
 40
0.0
 40
0.124596698
 40
0.2492408992
 40
0.3739922518
 40
0.4988857237
 40
0.6239415268
 40
0.7491621932
 40
0.87452348
 40
1.0
 40
1.0
 40
1.0
 40
1.0
 10
12.7128374774
 20
11.9675938051
 30
0.0
 10
12.7144929808
 20
11.9672461551
 30
0.0
 10
12.7177516819
 20
11.9662635182
 30
0.0
 10
12.7223113633
 20
11.9639756682
 30
0.0
 10
12.7264177542
 20
11.9609395738
 30
0.0
 10
12.7299495613
 20
11.9572437203
 30
0.0
 10
12.7328048698
 20
11.9529958455
 30
0.0
 10
12.7349004772
 20
11.9483189922
 30
0.0
 10
12.7361762307
 20
11.9433510735
 30
0.0
 10
12.7364548017
 20
11.9399375714
 30
0.0
 10
12.7364497154
 20
11.9382340217
 30
0.0
  0
SPLINE
  5
25C
100
AcDbEntity
  8
0
100
AcDbSpline
 62
9
  6
CONTINUOUS
 70
0
 71
3
 72
15
 73
11
 74
0
 42
0.0000001
 43
0.0000001
 44
0.0000000001
 40
0.0
 40
0.0
 40
0.0
 40
0.0
 40
0.12460507
 40
0.2492453596
 40
0.3739950817
 40
0.498885969
 40
0.6239392143
 40
0.7491577813
 40
0.8745207847
 40
1.0
 40
1.0
 40
1.0
 40
1.0
 10
12.9766428108
 20
11.9124382864
 30
0.0
 10
12.9782980713
 20
11.9120903859
 30
0.0
 10
12.9815559914
 20
11.9111069916
 30
0.0
 10
12.9861143966
 20
11.9088185866
 30
0.0
 10
12.9902194084
 20
11.9057823409
 30
0.0
 10
12.9937499349
 20
11.9020866533
 30
0.0
 10
12.9966040894
 20
11.8978392317
 30
0.0
 10
12.9986988626
 20
11.8931630362
 30
0.0
 10
12.9999738007
 20
11.8881958486
 30
0.0
 10
13.0002524127
 20
11.8847828833
 30
0.0
 10
13.0002470557
 20
11.8830795998
 30
0.0
  0
SPLINE
  5
25D
100
AcDbEntity
  8
0
100
AcDbSpline
 62
9
  6
CONTINUOUS
 70
0
 71
3
 72
42
 73
38
 74
0
 42
0.0000001
 43
0.0000001
 44
0.0000000001
 40
0.0
 40
0.0
 40
0.0
 40
0.0
 40
0.1024737704
 40
0.2015338453
 40
0.2966756023
 40
0.3874107904
 40
0.4309740233
 40
0.4732519114
 40
0.5537042359
 40
0.5917664371
 40
0.6283263639
 40
0.6633443926
 40
0.6967828251
 40
0.7286047071
 40
0.7587739777
 40
0.7872557114
 40
0.8140161005
 40
0.8390206899
 40
0.8622380814
 40
0.8836499093
 40
0.9032484089
 40
0.9123707406
 40
0.9210444941
 40
0.9292726419
 40
0.9370587905
 40
0.9444075287
 40
0.9513247162
 40
0.9578178168
 40
0.9638963232
 40
0.9695722868
 40
0.9748610248
 40
0.9797820295
 40
0.9843601121
 40
0.988626744
 40
0.9926214823
 40
0.9963930778
 40
1.0
 40
1.0
 40
1.0
 40
1.0
 10
12.9927767792
 20
12.0726551503
 30
0.0
 10
12.9939611735
 20
12.0979385829
 30
0.0
 10
12.9965478913
 20
12.1476516591
 30
0.0
 10
13.0011974824
 20
12.2207848728
 30
0.0
 10
13.006490829
 20
12.2909670988
 30
0.0
 10
13.0114953054
 20
12.3474197454
 30
0.0
 10
13.015826992
 20
12.3908191045
 30
0.0
 10
13.0202218869
 20
12.4316582603
 30
0.0
 10
13.0249507118
 20
12.471094265
 30
0.0
 10
13.0300719863
 20
12.509054511
 30
0.0
 10
13.0339681199
 20
12.5358545769
 30
0.0
 10
13.037984076
 20
12.5614815812
 30
0.0
 10
13.0421146716
 20
12.5859042897
 30
0.0
 10
13.0463545079
 20
12.6090918541
 30
0.0
 10
13.0506983832
 20
12.6310134458
 30
0.0
 10
13.0551404214
 20
12.6516383229
 30
0.0
 10
13.059674196
 20
12.670935224
 30
0.0
 10
13.0642938071
 20
12.6888722401
 30
0.0
 10
13.0689946967
 20
12.7054191687
 30
0.0
 10
13.0737689229
 20
12.7205506001
 30
0.0
 10
13.0778956885
 20
12.732229022
 30
0.0
 10
13.0812446645
 20
12.7408377147
 30
0.0
 10
13.0837100359
 20
12.7467748218
 30
0.0
 10
13.0861884806
 20
12.7523471807
 30
0.0
 10
13.0886793011
 20
12.7575535534
 30
0.0
 10
13.0911817221
 20
12.7623926825
 30
0.0
 10
13.0936950164
 20
12.7668633305
 30
0.0
 10
13.0962184868
 20
12.770964304
 30
0.0
 10
13.0987514513
 20
12.7746944844
 30
0.0
 10
13.1012933419
 20
12.7780527804
 30
0.0
 10
13.1038437372
 20
12.7810381114
 30
0.0
 10
13.1064024475
 20
12.7836493239
 30
0.0
 10
13.1089696226
 20
12.7858850503
 30
0.0
 10
13.1115455792
 20
12.7877435513
 30
0.0
 10
13.1141310356
 20
12.7892224563
 30
0.0
 10
13.1167253393
 20
12.7903184012
 30
0.0
 10
13.1184905868
 20
12.7907990921
 30
0.0
 10
13.1193650268
 20
12.7909696309
 30
0.0
  0
SPLINE
  5
25E
100
AcDbEntity
  8
0
100
AcDbSpline
 62
9
  6
CONTINUOUS
 70
0
 71
3
 72
23
 73
19
 74
0
 42
0.0000001
 43
0.0000001
 44
0.0000000001
 40
0.0
 40
0.0
 40
0.0
 40
0.0
 40
0.1208451667
 40
0.1816686529
 40
0.2427681466
 40
0.3041508616
 40
0.3349525881
 40
0.365829361
 40
0.4278094462
 40
0.490108386
 40
0.6156861263
 40
0.6789823764
 40
0.7425966499
 40
0.806516153
 40
0.8385887403
 40
0.8707356479
 40
0.9352380018
 40
1.0
 40
1.0
 40
1.0
 40
1.0
 10
12.9927767792
 20
12.0726551503
 30
0.0
 10
12.9797409277
 20
12.0717718877
 30
0.0
 10
12.9601709191
 20
12.069965062
 30
0.0
 10
12.934148887
 20
12.0665098622
 30
0.0
 10
12.9145798169
 20
12.0633552577
 30
0.0
 10
12.8982979816
 20
12.0602488667
 30
0.0
 10
12.8852863903
 20
12.0574663213
 30
0.0
 10
12.8722552031
 20
12.0544741143
 30
0.0
 10
12.8559948761
 20
12.0503347756
 30
0.0
 10
12.8300534376
 20
12.0427835715
 30
0.0
 10
12.8044031343
 20
12.0337690795
 30
0.0
 10
12.7792242994
 20
12.0232059969
 30
0.0
 10
12.7605296682
 20
12.0144624727
 30
0.0
 10
12.7452091833
 20
12.0065082932
 30
0.0
 10
12.7331308835
 20
11.9997195618
 30
0.0
 10
12.7211567669
 20
11.9926242066
 30
0.0
 10
12.7064557067
 20
11.9832078637
 30
0.0
 10
12.6950466466
 20
11.9751250953
 30
0.0
 10
12.6894316277
 20
11.9709417692
 30
0.0
  0
SPLINE
  5
25F
100
AcDbEntity
  8
0
100
AcDbSpline
 62
9
  6
CONTINUOUS
 70
0
 71
3
 72
15
 73
11
 74
0
 42
0.0000001
 43
0.0000001
 44
0.0000000001
 40
0.0
 40
0.0
 40
0.0
 40
0.0
 40
0.1245386111
 40
0.2491533807
 40
0.3738942549
 40
0.4988033983
 40
0.623893405
 40
0.7491537566
 40
0.874537009
 40
1.0
 40
1.0
 40
1.0
 40
1.0
 10
13.1285626259
 20
12.7918239809
 30
0.0
 10
13.1304981643
 20
12.7918079102
 30
0.0
 10
13.1343779898
 20
12.7913925285
 30
0.0
 10
13.1399576619
 20
12.7896450119
 30
0.0
 10
13.1450962559
 20
12.7868391082
 30
0.0
 10
13.1495953669
 20
12.783082153
 30
0.0
 10
13.1532849675
 20
12.7785174503
 30
0.0
 10
13.1560246181
 20
12.7733179936
 30
0.0
 10
13.1577109976
 20
12.767684359
 30
0.0
 10
13.1580901154
 20
12.7637750552
 30
0.0
 10
13.158089906
 20
12.7618250832
 30
0.0
  0
SPLINE
  5
260
100
AcDbEntity
  8
0
100
AcDbSpline
 62
9
  6
CONTINUOUS
 70
0
 71
3
 72
15
 73
11
 74
0
 42
0.0000001
 43
0.0000001
 44
0.0000000001
 40
0.0
 40
0.0
 40
0.0
 40
0.0
 40
0.1245386406
 40
0.2491534134
 40
0.3738942791
 40
0.4988034088
 40
0.6238934034
 40
0.7491537488
 40
0.8745370013
 40
1.0
 40
1.0
 40
1.0
 40
1.0
 10
13.1285613907
 20
10.5755097578
 30
0.0
 10
13.130496985
 20
10.5755257478
 30
0.0
 10
13.1343769387
 20
10.5759409894
 30
0.0
 10
13.1399568299
 20
10.5776883673
 30
0.0
 10
13.1450956503
 20
10.5804942057
 30
0.0
 10
13.149594975
 20
10.5842511663
 30
0.0
 10
13.1532847579
 20
10.5888159373
 30
0.0
 10
13.1560245438
 20
10.5940155128
 30
0.0
 10
13.1577109994
 20
10.5996493006
 30
0.0
 10
13.1580901236
 20
10.6035587173
 30
0.0
 10
13.158089906
 20
10.6055087446
 30
0.0
  0
SPLINE
  5
261
100
AcDbEntity
  8
0
100
AcDbSpline
 62
7
  6
CONTINUOUS
 70
0
 71
3
 72
43
 73
39
 74
0
 42
0.0000001
 43
0.0000001
 44
0.0000000001
 40
0.0
 40
0.0
 40
0.0
 40
0.0
 40
0.0958833243
 40
0.1908552944
 40
0.2840184519
 40
0.3744892234
 40
0.4614129929
 40
0.5032876886
 40
0.5439719563
 40
0.5833707187
 40
0.6213922002
 40
0.6579481148
 40
0.6929544677
 40
0.7263313185
 40
0.7580032784
 40
0.7879002437
 40
0.8159572009
 40
0.8421151945
 40
0.8663220522
 40
0.8885327606
 40
0.8988783439
 40
0.9087121409
 40
0.9180315474
 40
0.9268345985
 40
0.9351202082
 40
0.9428888075
 40
0.9501420833
 40
0.9568833164
 40
0.9631183554
 40
0.9688558199
 40
0.9741079253
 40
0.9788922896
 40
0.983233446
 40
0.987165243
 40
0.9907346069
 40
0.9940050817
 40
0.9970595707
 40
1.0
 40
1.0
 40
1.0
 40
1.0
 10
11.8064026421
 20
11.6836669139
 30
0.0
 10
11.8064026421
 20
11.6542610055
 30
0.0
 10
11.8067514132
 20
11.5957280712
 30
0.0
 10
11.8083182898
 20
11.5086361295
 30
0.0
 10
11.8109123697
 20
11.4232291331
 30
0.0
 10
11.8145082253
 20
11.3403289157
 30
0.0
 10
11.818355554
 20
11.2731899835
 30
0.0
 10
11.8219297265
 20
11.2213348568
 30
0.0
 10
11.8248030038
 20
11.1840424211
 30
0.0
 10
11.8278950785
 20
11.1479533745
 30
0.0
 10
11.8311984507
 20
11.11315459
 30
0.0
 10
11.8347050923
 20
11.079729825
 30
0.0
 10
11.8384063276
 20
11.0477595087
 30
0.0
 10
11.8422930788
 20
11.0173205329
 30
0.0
 10
11.8463558013
 20
10.9884860593
 30
0.0
 10
11.8505843223
 20
10.9613253198
 30
0.0
 10
11.8549681778
 20
10.9359034482
 30
0.0
 10
11.8594963083
 20
10.9122811584
 30
0.0
 10
11.8641572957
 20
10.8905149554
 30
0.0
 10
11.8682327575
 20
10.8735877371
 30
0.0
 10
11.8715703875
 20
10.8610225748
 30
0.0
 10
11.8740405271
 20
10.852319012
 30
0.0
 10
11.8765355019
 20
10.8441157391
 30
0.0
 10
11.8790538398
 20
10.8364175901
 30
0.0
 10
11.8815940791
 20
10.8292290983
 30
0.0
 10
11.8841545555
 20
10.8225543621
 30
0.0
 10
11.8867336901
 20
10.8163971383
 30
0.0
 10
11.8893300894
 20
10.8107608717
 30
0.0
 10
11.8919421743
 20
10.8056484703
 30
0.0
 10
11.8945685356
 20
10.8010623903
 30
0.0
 10
11.8972082089
 20
10.7970047578
 30
0.0
 10
11.8998603834
 20
10.7934770863
 30
0.0
 10
11.9025249141
 20
10.7904804912
 30
0.0
 10
11.9052030205
 20
10.7880164134
 30
0.0
 10
11.9078967348
 20
10.7860871309
 30
0.0
 10
11.9106092096
 20
10.7846973543
 30
0.0
 10
11.9133397653
 20
10.783856184
 30
0.0
 10
11.9151832677
 20
10.7836669957
 30
0.0
 10
11.9160850511
 20
10.7836669957
 30
0.0
  0
SPLINE
  5
262
100
AcDbEntity
  8
0
100
AcDbSpline
 62
9
  6
CONTINUOUS
 70
0
 71
3
 72
15
 73
11
 74
0
 42
0.0000001
 43
0.0000001
 44
0.0000000001
 40
0.0
 40
0.0
 40
0.0
 40
0.0
 40
0.1246009764
 40
0.2492432667
 40
0.3739933779
 40
0.4988846752
 40
0.6239381593
 40
0.7491566626
 40
0.874520442
 40
1.0
 40
1.0
 40
1.0
 40
1.0
 10
12.9768587152
 20
11.4551938281
 30
0.0
 10
12.9785104122
 20
11.4555448145
 30
0.0
 10
12.9817607677
 20
11.4565334812
 30
0.0
 10
12.9863074142
 20
11.4588262787
 30
0.0
 10
12.9904009231
 20
11.4618638208
 30
0.0
 10
12.9939209176
 20
11.4655577975
 30
0.0
 10
12.9967661304
 20
11.4698009574
 30
0.0
 10
12.9988541158
 20
11.4744708459
 30
0.0
 10
13.0001247765
 20
11.4794303245
 30
0.0
 10
13.0004024028
 20
11.482837648
 30
0.0
 10
13.0003970285
 20
11.4845381235
 30
0.0
  0
SPLINE
  5
263
100
AcDbEntity
  8
0
100
AcDbSpline
 62
9
  6
CONTINUOUS
 70
0
 71
3
 72
19
 73
15
 74
0
 42
0.0000001
 43
0.0000001
 44
0.0000000001
 40
0.0
 40
0.0
 40
0.0
 40
0.0
 40
0.064748668
 40
0.1292358875
 40
0.2573185535
 40
0.3841400078
 40
0.5096581088
 40
0.5719431014
 40
0.6339224861
 40
0.6956064971
 40
0.7570078118
 40
0.818140526
 40
0.8790131687
 40
1.0
 40
1.0
 40
1.0
 40
1.0
 10
12.6885844655
 20
11.3963216758
 30
0.0
 10
12.6942332708
 20
11.3921769781
 30
0.0
 10
12.7057091087
 20
11.3841742357
 30
0.0
 10
12.7292669494
 20
11.3693178939
 30
0.0
 10
12.7597190428
 20
11.3528693102
 30
0.0
 10
12.7975292883
 20
11.3364818639
 30
0.0
 10
12.8297562753
 20
11.3254038831
 30
0.0
 10
12.8557463741
 20
11.3179710204
 30
0.0
 10
12.875265568
 20
11.3130726264
 30
0.0
 10
12.8948299537
 20
11.3087878956
 30
0.0
 10
12.9144188942
 20
11.3050828726
 30
0.0
 10
12.9340154146
 20
11.3019309496
 30
0.0
 10
12.960077438
 20
11.2984346759
 30
0.0
 10
12.9796759154
 20
11.2965530588
 30
0.0
 10
12.992733178
 20
11.2956054558
 30
0.0
  0
SPLINE
  5
264
100
AcDbEntity
  8
0
100
AcDbSpline
 62
9
  6
CONTINUOUS
 70
0
 71
3
 72
15
 73
11
 74
0
 42
0.0000001
 43
0.0000001
 44
0.0000000001
 40
0.0
 40
0.0
 40
0.0
 40
0.0
 40
0.1245969022
 40
0.2492410315
 40
0.3739921819
 40
0.4988854262
 40
0.6239410781
 40
0.7491617403
 40
0.8745231659
 40
1.0
 40
1.0
 40
1.0
 40
1.0
 10
12.7128119694
 20
11.3997353151
 30
0.0
 10
12.7144688388
 20
11.4000817237
 30
0.0
 10
12.7177304615
 20
11.4010622856
 30
0.0
 10
12.7222947221
 20
11.4033483345
 30
0.0
 10
12.7264055958
 20
11.4063838903
 30
0.0
 10
12.7299415009
 20
11.4100803737
 30
0.0
 10
12.732800273
 20
11.4143298885
 30
0.0
 10
12.7348985016
 20
11.4190091865
 30
0.0
 10
12.7361758817
 20
11.4239801049
 30
0.0
 10
12.7364548095
 20
11.4273958021
 30
0.0
 10
12.7364497154
 20
11.4291004433
 30
0.0
  0
SPLINE
  5
265
100
AcDbEntity
  8
0
100
AcDbSpline
 62
9
  6
CONTINUOUS
 70
0
 71
3
 72
11
 73
7
 74
0
 42
0.0000001
 43
0.0000001
 44
0.0000000001
 40
0.0
 40
0.0
 40
0.0
 40
0.0
 40
0.2086176784
 40
0.438364795
 40
0.6997468842
 40
1.0
 40
1.0
 40
1.0
 40
1.0
 10
12.9738140226
 20
11.9128917325
 30
0.0
 10
12.9739318887
 20
11.9129059869
 30
0.0
 10
12.9741760472
 20
11.9129716363
 30
0.0
 10
12.974527234
 20
11.9131653023
 30
0.0
 10
12.9748758611
 20
11.9134535251
 30
0.0
 10
12.975091551
 20
11.9136906436
 30
0.0
 10
12.9752000897
 20
11.9138226192
 30
0.0
  0
SPLINE
  5
266
100
AcDbEntity
  8
0
100
AcDbSpline
 62
9
  6
CONTINUOUS
 70
0
 71
3
 72
26
 73
22
 74
0
 42
0.0000001
 43
0.0000001
 44
0.0000000001
 40
0.0
 40
0.0
 40
0.0
 40
0.0
 40
0.0064325997
 40
0.0143228486
 40
0.0237527598
 40
0.0347721588
 40
0.0474146674
 40
0.0617047282
 40
0.0776609537
 40
0.0952971328
 40
0.1146235237
 40
0.1356487144
 40
0.182811891
 40
0.236795163
 40
0.2975535495
 40
0.364986988
 40
0.4389279738
 40
0.5191286815
 40
0.6052655838
 40
0.7936567741
 40
1.0
 40
1.0
 40
1.0
 40
1.0
 10
12.9752000897
 20
11.9138226192
 30
0.0
 10
12.9754185136
 20
11.9140882077
 30
0.0
 10
12.9758466581
 20
11.9147270625
 30
0.0
 10
12.9764296238
 20
11.915856567
 30
0.0
 10
12.9770165629
 20
11.9172545862
 30
0.0
 10
12.9776069748
 20
11.9189228419
 30
0.0
 10
12.9782006953
 20
11.920863356
 30
0.0
 10
12.9787973851
 20
11.9230774139
 30
0.0
 10
12.9793968222
 20
11.9255661597
 30
0.0
 10
12.9799985707
 20
11.928330507
 30
0.0
 10
12.9806020542
 20
11.9313712184
 30
0.0
 10
12.9814406624
 20
11.9359739043
 30
0.0
 10
12.9824776168
 20
11.9424227308
 30
0.0
 10
12.9836769531
 20
11.9509946606
 30
0.0
 10
12.9848664014
 20
11.9606607261
 30
0.0
 10
12.9860375916
 20
11.9714028296
 30
0.0
 10
12.9871822416
 20
11.9831924472
 30
0.0
 10
12.9882878595
 20
11.995989647
 30
0.0
 10
12.9897366378
 20
12.0148973186
 30
0.0
 10
12.99135115
 20
12.0405539658
 30
0.0
 10
12.9923405935
 20
12.0616331398
 30
0.0
 10
12.9927776408
 20
12.0726550317
 30
0.0
  0
SPLINE
  5
267
100
AcDbEntity
  8
0
100
AcDbSpline
 62
9
  6
CONTINUOUS
 70
0
 71
3
 72
42
 73
38
 74
0
 42
0.0000001
 43
0.0000001
 44
0.0000000001
 40
0.0
 40
0.0
 40
0.0
 40
0.0
 40
0.0036051699
 40
0.0073751013
 40
0.0113683116
 40
0.0156335823
 40
0.0202104875
 40
0.0251305058
 40
0.0304184486
 40
0.0360938053
 40
0.0421718876
 40
0.048664741
 40
0.0555818518
 40
0.0629306773
 40
0.0707170708
 40
0.0789456152
 40
0.0876199111
 40
0.0967429262
 40
0.1163431993
 40
0.1377572932
 40
0.1609772962
 40
0.1859847056
 40
0.2127480691
 40
0.2412328881
 40
0.2714053057
 40
0.3032303482
 40
0.3366719058
 40
0.3716929832
 40
0.4082558509
 40
0.4463207929
 40
0.5267773399
 40
0.5690563961
 40
0.6126200334
 40
0.7033535881
 40
0.7984900744
 40
0.8975406701
 40
1.0
 40
1.0
 40
1.0
 40
1.0
 10
13.1193650646
 20
10.5763641898
 30
0.0
 10
13.1184899546
 20
10.5765348574
 30
0.0
 10
13.1167233316
 20
10.5770160264
 30
0.0
 10
13.1141270617
 20
10.5781132512
 30
0.0
 10
13.111539661
 20
10.5795940086
 30
0.0
 10
13.1089617811
 20
10.5814549261
 30
0.0
 10
13.1063927001
 20
10.5836936282
 30
0.0
 10
13.1038320996
 20
10.5863083729
 30
0.0
 10
13.1012798291
 20
10.5892977905
 30
0.0
 10
13.0987360791
 20
10.5926607259
 30
0.0
 10
13.0962012723
 20
10.5963960965
 30
0.0
 10
13.0936759785
 20
10.6005028091
 30
0.0
 10
13.0911608818
 20
10.6049797427
 30
0.0
 10
13.088656681
 20
10.6098257012
 30
0.0
 10
13.0861641047
 20
10.6150394439
 30
0.0
 10
13.0836839298
 20
10.6206197105
 30
0.0
 10
13.0812168551
 20
10.6265652599
 30
0.0
 10
13.0778655752
 20
10.6351862618
 30
0.0
 10
13.0737360469
 20
10.6468813922
 30
0.0
 10
13.0689587695
 20
10.6620344157
 30
0.0
 10
13.0642549859
 20
10.6786048895
 30
0.0
 10
13.0596326407
 20
10.696567295
 30
0.0
 10
13.055096313
 20
10.7158913462
 30
0.0
 10
13.0506519142
 20
10.7365450652
 30
0.0
 10
13.0463058884
 20
10.7584971239
 30
0.0
 10
13.0420641255
 20
10.7817167107
 30
0.0
 10
13.0379318276
 20
10.8061729263
 30
0.0
 10
13.033914405
 20
10.8318348577
 30
0.0
 10
13.0300170754
 20
10.8586711968
 30
0.0
 10
13.0248946012
 20
10.8966821475
 30
0.0
 10
13.0201651989
 20
10.9361701944
 30
0.0
 10
13.0157702007
 20
10.9770625073
 30
0.0
 10
13.0114388466
 20
11.020516766
 30
0.0
 10
13.0064355916
 20
11.0770391459
 30
0.0
 10
13.0011448023
 20
11.1473058767
 30
0.0
 10
12.9964991629
 20
11.2205240475
 30
0.0
 10
12.9939156361
 20
11.2702937808
 30
0.0
 10
12.992733178
 20
11.2956054558
 30
0.0
  0
SPLINE
  5
268
100
AcDbEntity
  8
0
100
AcDbSpline
 62
7
  6
CONTINUOUS
 70
0
 71
3
 72
42
 73
38
 74
0
 42
0.0000001
 43
0.0000001
 44
0.0000000001
 40
0.0
 40
0.0
 40
0.0
 40
0.0
 40
0.0029404428
 40
0.0059949415
 40
0.0092653544
 40
0.0128347748
 40
0.0167666207
 40
0.0211076719
 40
0.0258920753
 40
0.0311442718
 40
0.0368816292
 40
0.0431166724
 40
0.0498580297
 40
0.0571112147
 40
0.0648797734
 40
0.0731655183
 40
0.0819685101
 40
0.091287848
 40
0.1011217802
 40
0.1114673422
 40
0.1336780677
 40
0.1578848497
 40
0.1840429753
 40
0.2120998855
 40
0.2419968547
 40
0.2736689164
 40
0.3070457024
 40
0.3420521153
 40
0.3786080841
 40
0.4166295337
 40
0.4560283661
 40
0.5385866844
 40
0.6255105143
 40
0.7159813501
 40
0.809144613
 40
0.9041165888
 40
1.0
 40
1.0
 40
1.0
 40
1.0
 10
11.9160850511
 20
12.4961669139
 30
0.0
 10
11.9152709379
 20
12.4961669139
 30
0.0
 10
11.9136066685
 20
12.4959959771
 30
0.0
 10
11.9111416217
 20
12.4952365799
 30
0.0
 10
11.9086927636
 20
12.4939820967
 30
0.0
 10
11.9062610049
 20
12.4922402534
 30
0.0
 10
11.9038433167
 20
12.4900157081
 30
0.0
 10
11.9014377255
 20
12.4873105567
 30
0.0
 10
11.8990434488
 20
12.4841258052
 30
0.0
 10
11.8966604776
 20
12.4804626215
 30
0.0
 10
11.8942893637
 20
12.4763224724
 30
0.0
 10
11.8919312412
 20
12.4717070992
 30
0.0
 10
11.8895873458
 20
12.4666187619
 30
0.0
 10
11.8872588928
 20
12.4610601932
 30
0.0
 10
11.8849473342
 20
12.4550343984
 30
0.0
 10
11.8826541381
 20
12.4485447558
 30
0.0
 10
11.8803805963
 20
12.4415950559
 30
0.0
 10
11.8781281537
 20
12.4341893365
 30
0.0
 10
11.8758982336
 20
12.4263319273
 30
0.0
 10
11.8728850446
 20
12.4149883625
 30
0.0
 10
11.8692058529
 20
12.3997068685
 30
0.0
 10
11.8649979572
 20
12.3800568305
 30
0.0
 10
11.8609101247
 20
12.3587311521
 30
0.0
 10
11.8569524401
 20
12.3357808495
 30
0.0
 10
11.8531350224
 20
12.311260738
 30
0.0
 10
11.8494673216
 20
12.2852296179
 30
0.0
 10
11.8459584082
 20
12.2577499844
 30
0.0
 10
11.8426170329
 20
12.2288878963
 30
0.0
 10
11.8394513371
 20
12.1987127601
 30
0.0
 10
11.8364690515
 20
12.167297182
 30
0.0
 10
11.8326881608
 20
12.1231654446
 30
0.0
 10
11.8285018612
 20
12.0654819763
 30
0.0
 10
11.8243836353
 20
11.9936249371
 30
0.0
 10
11.821137527
 20
11.918784319
 30
0.0
 10
11.8187956071
 20
11.8416808214
 30
0.0
 10
11.8173810735
 20
11.7630561402
 30
0.0
 10
11.8170662096
 20
11.7102139205
 30
0.0
 10
11.8170662096
 20
11.6836669139
 30
0.0
  0
SPLINE
  5
269
100
AcDbEntity
  8
0
100
AcDbSpline
 62
9
  6
CONTINUOUS
 70
0
 71
3
 72
44
 73
40
 74
0
 42
0.0000001
 43
0.0000001
 44
0.0000000001
 40
0.0
 40
0.0
 40
0.0
 40
0.0
 40
0.0014646627
 40
0.0029441761
 40
0.0060008049
 40
0.0092760047
 40
0.0128520433
 40
0.0167911241
 40
0.0211387608
 40
0.0259278076
 40
0.0311819162
 40
0.036918143
 40
0.0431488133
 40
0.049882827
 40
0.0571265731
 40
0.0648845729
 40
0.0731599381
 40
0.0819547026
 40
0.0912700635
 40
0.1011057334
 40
0.1114575577
 40
0.1336868576
 40
0.1579106049
 40
0.1840764927
 40
0.2121293516
 40
0.2420120118
 40
0.2736658718
 40
0.3070312876
 40
0.3420425761
 40
0.3786123108
 40
0.4166471677
 40
0.4560533352
 40
0.4967366304
 40
0.5386025883
 40
0.6255030425
 40
0.715974185
 40
0.8091444731
 40
0.9041184962
 40
1.0
 40
1.0
 40
1.0
 40
1.0
 10
11.9061595896
 20
10.7836669139
 30
0.0
 10
11.9057104102
 20
10.7836669139
 30
0.0
 10
11.9048067891
 20
10.7837132712
 30
0.0
 10
11.90298522
 20
10.7839927901
 30
0.0
 10
11.9006828003
 20
10.7847084264
 30
0.0
 10
11.897971919
 20
10.7861086728
 30
0.0
 10
11.8952788082
 20
10.7880487096
 30
0.0
 10
11.8926013971
 20
10.7905224567
 30
0.0
 10
11.8899370981
 20
10.7935266272
 30
0.0
 10
11.8872850303
 20
10.7970592357
 30
0.0
 10
11.8846452488
 20
10.8011186154
 30
0.0
 10
11.8820185297
 20
10.8057030536
 30
0.0
 10
11.8794060401
 20
10.8108106755
 30
0.0
 10
11.876809177
 20
10.8164394404
 30
0.0
 10
11.8742294591
 20
10.8225871683
 30
0.0
 10
11.8716684703
 20
10.8292515706
 30
0.0
 10
11.8691278285
 20
10.8364302786
 30
0.0
 10
11.8666091595
 20
10.8441208619
 30
0.0
 10
11.8641142006
 20
10.8523206096
 30
0.0
 10
11.8616448877
 20
10.861025513
 30
0.0
 10
11.8583082534
 20
10.873599131
 30
0.0
 10
11.854235005
 20
10.8905396597
 30
0.0
 10
11.8495756264
 20
10.9123192973
 30
0.0
 10
11.8450477996
 20
10.9359475589
 30
0.0
 10
11.8406628818
 20
10.9613653996
 30
0.0
 10
11.8364323295
 20
10.9885138913
 30
0.0
 10
11.8323673829
 20
11.0173338474
 30
0.0
 10
11.8284794689
 20
11.0477644234
 30
0.0
 10
11.8247805775
 20
11.0797365905
 30
0.0
 10
11.8212767822
 20
11.1131708366
 30
0.0
 10
11.8179754319
 20
11.1479797149
 30
0.0
 10
11.8148839621
 20
11.184074125
 30
0.0
 10
11.8120097118
 20
11.2213649683
 30
0.0
 10
11.8084325662
 20
11.2732086136
 30
0.0
 10
11.8045801198
 20
11.3403361124
 30
0.0
 10
11.8009914775
 20
11.4232300453
 30
0.0
 10
11.7984010529
 20
11.5086382157
 30
0.0
 10
11.7968301977
 20
11.5957304505
 30
0.0
 10
11.7964771806
 20
11.6542621937
 30
0.0
 10
11.7964771806
 20
11.6836669139
 30
0.0
  0
SPLINE
  5
26A
100
AcDbEntity
  8
0
100
AcDbSpline
 62
9
  6
CONTINUOUS
 70
0
 71
3
 72
13
 73
9
 74
0
 42
0.0000001
 43
0.0000001
 44
0.0000000001
 40
0.0
 40
0.0
 40
0.0
 40
0.0
 40
0.2343110898
 40
0.3559615517
 40
0.4803355763
 40
0.6071879786
 40
0.7362562674
 40
1.0
 40
1.0
 40
1.0
 40
1.0
 10
10.4681125366
 20
12.7151802648
 30
0.0
 10
10.4865689787
 20
12.7104732515
 30
0.0
 10
10.514360669
 20
12.7023009633
 30
0.0
 10
10.5511898845
 20
12.689313203
 30
0.0
 10
10.5793995253
 20
12.678203855
 30
0.0
 10
10.607741931
 20
12.6658409063
 30
0.0
 10
10.6458312338
 20
12.6475580864
 30
0.0
 10
10.6738560879
 20
12.6321761565
 30
0.0
 10
10.6922702459
 20
12.6211950946
 30
0.0
  0
SPLINE
  5
26B
100
AcDbEntity
  8
0
100
AcDbSpline
 62
9
  6
CONTINUOUS
 70
0
 71
3
 72
15
 73
11
 74
0
 42
0.0000001
 43
0.0000001
 44
0.0000000001
 40
0.0
 40
0.0
 40
0.0
 40
0.0
 40
0.1250040344
 40
0.1875113508
 40
0.2500165799
 40
0.375021051
 40
0.4375263174
 40
0.5000290669
 40
0.7500140103
 40
1.0
 40
1.0
 40
1.0
 40
1.0
 10
12.5040981451
 20
11.9447125576
 30
0.0
 10
12.5125294352
 20
11.9456867053
 30
0.0
 10
12.52521503
 20
11.9468350622
 30
0.0
 10
12.542162916
 20
11.9478126244
 30
0.0
 10
12.5591274711
 20
11.9484468287
 30
0.0
 10
12.5761064547
 20
11.9485937416
 30
0.0
 10
12.5930796152
 20
11.9483046408
 30
0.0
 10
12.6185273217
 20
11.9474606675
 30
0.0
 10
12.6566423337
 20
11.9447286596
 30
0.0
 10
12.6903506815
 20
11.940618367
 30
0.0
 10
12.7071556353
 20
11.9382340217
 30
0.0
  0
ENDSEC
  0
SECTION
  2
OBJECTS
  0
DICTIONARY
  5
C
100
AcDbDictionary
280
0
281
1
  3
ACAD_GROUP
350
D
  3
ACAD_MLINESTYLE
350
17
  3
ACAD_LAYOUT
350
1A
  3
ACAD_PLOTSETTINGS
350
19
  3
ACAD_PLOTSTYLENAME
350
E
  0
DICTIONARY
  5
D
102
{ACAD_REACTORS
330
C
102
}
100
AcDbDictionary
280
0
281
1
  0
ACDBDICTIONARYWDFLT
  5
E
102
{ACAD_REACTORS
330
C
102
}
100
AcDbDictionary
281
1
  3
Normal
350
F
100
AcDbDictionaryWithDefault
340
F
  0
DICTIONARY
  5
17
102
{ACAD_REACTORS
330
C
102
}
100
AcDbDictionary
280
0
281
1
  3
Standard
350
18
  0
DICTIONARY
  5
19
102
{ACAD_REACTORS
330
C
102
}
100
AcDbDictionary
281
1
  0
DICTIONARY
  5
1A
102
{ACAD_REACTORS
330
C
102
}
100
AcDbDictionary
281
1
  3
Model
350
26C
  3
Layout1
350
26D
  0
ACDBPLACEHOLDER
  5
F
102
{ACAD_REACTORS
330
E
102
}
  0
MLINESTYLE
  5
18
102
{ACAD_REACTORS
330
17
102
}
100
AcDbMlineStyle
  2
STANDARD
 70
0
  3

 62
256
 51
90.0
 52
90.0
 71
2
 49
0.5
 62
256
  6
BYLAYER
 49
-0.5
 62
256
  6
BYLAYER
  0
LAYOUT
  5
26C
102
{ACAD_REACTORS
330
1A
102
}
100
AcDbPlotSettings
  1

  2
none_device
  4
ANSI_C_(22.00_x_17.00_Inches)
  6

 40
0.0
 41
0.0
 42
0.0
 43
0.0
 44
558.8
 45
431.8
 46
0.0
 47
0.0
 48
0.0
 49
0.0
140
0.0
141
0.0
142
1.0
143
1.0
 70
1024
 72
0
 73
0
 74
0
  7

 75
0
147
1.0
148
0.0
149
0.0
100
AcDbLayout
  1
Model
 70
0
 71
0
 10
0.0
 20
0.0
 11
22.0
 21
17.0
 12
0.0
 22
0.0
 32
0.0
 14
0.0
 24
0.0
 34
0.0
 15
0.0
 25
0.0
 35
0.0
146
0.0
 13
0.0
 23
0.0
 33
0.0
 16
1.0
 26
0.0
 36
0.0
 17
0.0
 27
1.0
 37
0.0
 76
0
330
205
345
0
346
0
  0
LAYOUT
  5
26D
102
{ACAD_REACTORS
330
1A
102
}
100
AcDbPlotSettings
  1

  2
none_device
  4
ANSI_C_(22.00_x_17.00_Inches)
  6

 40
0.0
 41
0.0
 42
0.0
 43
0.0
 44
558.8
 45
431.8
 46
0.0
 47
0.0
 48
0.0
 49
0.0
140
0.0
141
0.0
142
1.0
143
1.0
 70
0
 72
0
 73
0
 74
0
  7

 75
0
147
1.0
148
0.0
149
0.0
100
AcDbLayout
  1
Layout1
 70
0
 71
1
 10
0.0
 20
0.0
 11
22.0
 21
17.0
 12
0.0
 22
0.0
 32
0.0
 14
0.0
 24
0.0
 34
0.0
 15
0.0
 25
0.0
 35
0.0
146
0.0
 13
0.0
 23
0.0
 33
0.0
 16
1.0
 26
0.0
 36
0.0
 17
0.0
 27
1.0
 37
0.0
 76
0
330
206
345
0
346
0
  0
ENDSEC
  0
EOF
