999
DXF file: E:\BT Custom\CADOUTPUT\_FRONT.dxf
999
Pro/ENGINEER 2018400 by Parametric Technology Corporation
  0
SECTION
  2
HEADER
  9
$ACADVER
  1
AC1018
  9
$DWGCODEPAGE
  3
ANSI_1252
  9
$EXTMAX
 10
22.0
 20
17.0
 30
0.0
  9
$EXTMIN
 10
0.0
 20
0.0
 30
0.0
  9
$LIMMIN
 10
0.0
 20
0.0
  9
$LIMMAX
 10
22.0
 20
17.0
  9
$VIEWCTR
 10
11.0
 20
8.5
  9
$VIEWSIZE
 40
17.0
  9
$CLAYER
  8
0
  9
$LTSCALE
 40
1.21
  9
$CELTYPE
  6
BYLAYER
  9
$DIMSCALE
 40
1.0
  9
$DIMASZ
 40
0.1
  9
$DIMEXO
 40
0.0625
  9
$DIMDLI
 40
0.836
  9
$DIMEXE
 40
0.125
  9
$DIMCEN
 40
0.198
  9
$DIMLFAC
 40
1.0
  9
$DIMBLK
  1
_FILLED
  9
$DIMALT
 70
1
  9
$DIMALTD
 70
2
  9
$DIMALTTD
 70
2
  9
$DIMALTF
 40
25.4
  9
$DIMTXT
 40
0.08
  9
$DIMTOL
 70
1
  9
$DIMLIM
 70
0
  9
$DIMTFAC
 40
1.0
  9
$DIMTP
 40
0.001
  9
$DIMTM
 40
0.001
  9
$DIMGAP
 40
0.09
  9
$DIMDSEP
 70
46
  9
$AUNITS
 70
0
  9
$PDMODE
 70
3
  9
$PDSIZE
 40
0.06
  9
$HANDSEED
  5
2DC
  9
$TILEMODE
 70
1
  9
$MEASUREMENT
 70
0
  9
$INSUNITS
 70
1
  0
ENDSEC
  0
SECTION
  2
CLASSES
  0
CLASS
  1
ACDBDICTIONARYWDFLT
  2
AcDbDictionaryWithDefault
  3
AutoCAD 2000
 90
0
 91
1
280
0
281
0
  0
CLASS
  1
ACDBPLACEHOLDER
  2
AcDbPlaceHolder
  3
AutoCAD 2000
 90
0
 91
1
280
0
281
0
  0
CLASS
  1
LAYOUT
  2
AcDbLayout
  3
AutoCAD 2000
 90
0
 91
0
280
0
281
0
  0
ENDSEC
  0
SECTION
  2
TABLES
  0
TABLE
  2
VPORT
  5
8
100
AcDbSymbolTable
 70
2
  0
VPORT
  5
1F4
100
AcDbSymbolTableRecord
100
AcDbViewportTableRecord
  2
*ACTIVE
 70
0
 10
0.0
 20
0.0
 11
1.0
 21
1.0
 12
11.0
 22
8.5
 13
0.0
 23
0.0
 14
1.0
 24
1.0
 15
0.0
 25
0.0
 16
0.0
 26
0.0
 36
1.0
 17
0.0
 27
0.0
 37
0.0
 40
17.0
 41
1.2941176471
 42
50.0
 43
0.0
 44
0.0
 50
0.0
 51
0.0
 71
0
 72
100
 73
1
 74
1
 75
0
 76
0
 77
0
 78
0
  0
ENDTAB
  0
TABLE
  2
LTYPE
  5
5
100
AcDbSymbolTable
 70
6
  0
LTYPE
  5
14
100
AcDbSymbolTableRecord
100
AcDbLinetypeTableRecord
  2
BYBLOCK
 70
0
  3

 72
65
 73
0
 40
0.0
  0
LTYPE
  5
15
100
AcDbSymbolTableRecord
100
AcDbLinetypeTableRecord
  2
BYLAYER
 70
0
  3

 72
65
 73
0
 40
0.0
  0
LTYPE
  5
16
100
AcDbSymbolTableRecord
100
AcDbLinetypeTableRecord
  2
CONTINUOUS
 70
64
  3
Solid line
 72
65
 73
0
 40
0.0
  0
LTYPE
  5
1F5
100
AcDbSymbolTableRecord
100
AcDbLinetypeTableRecord
  2
CENTER
 70
64
  3
____ _ ____ _ ____ _ ____ _ ____ _ ____ _ ____
 72
65
 73
4
 40
0.6
 49
0.375
 74
0
 49
-0.075
 74
0
 49
0.075
 74
0
 49
-0.075
 74
0
  0
LTYPE
  5
1F6
100
AcDbSymbolTableRecord
100
AcDbLinetypeTableRecord
  2
HIDDEN
 70
64
  3
- - - - - - - - - - - - - - - - - - - -
 72
65
 73
2
 40
0.2
 49
0.1
 74
0
 49
-0.1
 74
0
  0
LTYPE
  5
1F7
100
AcDbSymbolTableRecord
100
AcDbLinetypeTableRecord
  2
PHANTOM
 70
64
  3
_____ _ _ _____ _ _ _____ _ _ _____
 72
65
 73
6
 40
0.8
 49
0.45
 74
0
 49
-0.05
 74
0
 49
0.1
 74
0
 49
-0.05
 74
0
 49
0.1
 74
0
 49
-0.05
 74
0
  0
LTYPE
  5
1F8
100
AcDbSymbolTableRecord
100
AcDbLinetypeTableRecord
  2
DOT
 70
64
  3
. . . . . . . . . . . . . . . . . . . .
 72
65
 73
2
 40
0.2
 49
0.1
 74
0
 49
-0.1
 74
0
  0
LTYPE
  5
1F9
100
AcDbSymbolTableRecord
100
AcDbLinetypeTableRecord
  2
DASHED
 70
64
  3
- - - - - - - - - - - - - - - - - - - -
 72
65
 73
2
 40
0.2
 49
0.1
 74
0
 49
-0.1
 74
0
  0
ENDTAB
  0
TABLE
  2
LAYER
  5
2
100
AcDbSymbolTable
 70
36
  0
LAYER
  5
10
100
AcDbSymbolTableRecord
100
AcDbLayerTableRecord
  2
0
 70
0
 62
7
  6
CONTINUOUS
370
-3
390
F
  0
LAYER
  5
1FA
100
AcDbSymbolTableRecord
100
AcDbLayerTableRecord
  2
DEFAULT_1
 70
0
 62
7
  6
CENTER
370
-3
390
F
  0
LAYER
  5
1FB
100
AcDbSymbolTableRecord
100
AcDbLayerTableRecord
  2
DEFAULT_2
 70
0
 62
8
  6
HIDDEN
370
-3
390
F
  0
LAYER
  5
1FC
100
AcDbSymbolTableRecord
100
AcDbLayerTableRecord
  2
DEFAULT_3
 70
0
 62
7
  6
PHANTOM
370
-3
390
F
  0
LAYER
  5
1FD
100
AcDbSymbolTableRecord
100
AcDbLayerTableRecord
  2
ALL_FEATURES
 70
0
 62
7
  6
CONTINUOUS
370
-3
390
F
  0
LAYER
  5
1FE
100
AcDbSymbolTableRecord
100
AcDbLayerTableRecord
  2
AXES_FEATURES
 70
0
 62
7
  6
CONTINUOUS
370
-3
390
F
  0
LAYER
  5
1FF
100
AcDbSymbolTableRecord
100
AcDbLayerTableRecord
  2
DIMENSIONS
 70
0
 62
7
  6
CONTINUOUS
370
-3
390
F
  0
ENDTAB
  0
TABLE
  2
STYLE
  5
3
100
AcDbSymbolTable
 70
1
  0
STYLE
  5
11
100
AcDbSymbolTableRecord
100
AcDbTextStyleTableRecord
  2
STANDARD
 70
0
 40
0.0
 41
0.8
 50
0.0
 71
0
 42
0.2
  3
txt
  4

  0
STYLE
  5
200
100
AcDbSymbolTableRecord
100
AcDbTextStyleTableRecord
  2
TEXTSTYLE_1
 70
0
 40
0.0
 41
0.8
 50
0.0
 71
0
 42
0.2
  3
gdt
  4

  0
ENDTAB
  0
TABLE
  2
VIEW
  5
6
100
AcDbSymbolTable
 70
0
  0
ENDTAB
  0
TABLE
  2
UCS
  5
7
100
AcDbSymbolTable
 70
0
  0
ENDTAB
  0
TABLE
  2
APPID
  5
9
100
AcDbSymbolTable
 70
1
  0
APPID
  5
201
100
AcDbSymbolTableRecord
100
AcDbRegAppTableRecord
  2
ACAD
 70
0
  0
ENDTAB
  0
TABLE
  2
BLOCK_RECORD
  5
1
100
AcDbSymbolTable
 70
0
  0
BLOCK_RECORD
  5
202
100
AcDbSymbolTableRecord
100
AcDbBlockTableRecord
  2
*Model_Space
  0
BLOCK_RECORD
  5
203
100
AcDbSymbolTableRecord
100
AcDbBlockTableRecord
  2
*Paper_Space
  0
BLOCK_RECORD
  5
204
100
AcDbSymbolTableRecord
100
AcDbBlockTableRecord
  2
_FILLED
  0
ENDTAB
  0
TABLE
  2
DIMSTYLE
  5
A
100
AcDbSymbolTable
 70
1
100
AcDbDimStyleTable
 71
0
  0
DIMSTYLE
105
205
100
AcDbSymbolTableRecord
100
AcDbDimStyleTableRecord
  2
STANDARD
 70
0
  3

  4

 40
1.0
 41
0.1
 42
0.0625
 43
0.38
 44
0.125
 45
0.0
 46
0.0
 47
0.001
 48
0.001
140
0.08
141
0.09
142
0.0
143
25.4
144
1.0
145
0.0
146
1.0
147
0.09
 71
1.0
 72
0.0
 73
1
 74
1
 75
0
 76
0
 77
0
 78
4
 79
1
170
1
171
2
172
0
173
0
174
0
175
0
176
0
177
0
178
0
270
2
179
3
271
3
272
3
273
2
274
2
275
0
280
0
281
0
282
0
283
1
284
4
285
0
286
0
287
3
288
0
340
11
278
46
341
204
342
204
343
204
344
204
  0
ENDTAB
  0
ENDSEC
  0
SECTION
  2
BLOCKS
  0
BLOCK
  5
20
100
AcDbEntity
  8
0
100
AcDbBlockBegin
  2
*Model_Space
 70
0
 10
0.0
 20
0.0
 30
0.0
  3
*Model_Space
  1

  0
ENDBLK
  5
21
100
AcDbEntity
  8
0
100
AcDbBlockEnd
  0
BLOCK
  5
1C
100
AcDbEntity
  8
0
100
AcDbBlockBegin
  2
*Paper_Space
 70
0
 10
0.0
 20
0.0
 30
0.0
  3
*Paper_Space
  1

  0
ENDBLK
  5
1D
100
AcDbEntity
  8
0
100
AcDbBlockEnd
  0
BLOCK
  5
206
100
AcDbEntity
  8
0
100
AcDbBlockBegin
  2
_FILLED
 70
64
 10
0.0
 20
0.0
  3
_FILLED
  1

  0
SOLID
  5
207
100
AcDbEntity
  8
0
  6
BYBLOCK
 62
0
100
AcDbTrace
 10
0.0
 20
0.0
 11
-1.0
 21
0.2
 12
-1.0
 22
-0.2
 13
-1.0
 23
-0.2
  0
ENDBLK
  5
208
100
AcDbEntity
  8
0
  6
BYBLOCK
 62
0
100
AcDbBlockEnd
  0
ENDSEC
  0
SECTION
  2
ENTITIES
  0
LINE
  5
209
100
AcDbEntity
  8
0
100
AcDbLine
 62
9
  6
CONTINUOUS
 10
10.7398666513
 20
6.2604870542
 11
11.1355138724
 21
6.2604870542
  0
LINE
  5
20A
100
AcDbEntity
  8
0
100
AcDbLine
 62
9
  6
CONTINUOUS
 10
10.7417684462
 20
6.3106742522
 11
11.1336129842
 21
6.3106742522
  0
LWPOLYLINE
  5
20B
100
AcDbEntity
  8
0
100
AcDbPolyline
 62
7
  6
CONTINUOUS
 90
17
 70
0
 10
10.735421312
 20
6.2325975525
 10
10.7589758473
 20
6.2216345484
 10
10.7845534464
 20
6.2138530763
 10
10.8134430555
 20
6.2074892752
 10
10.8462770192
 20
6.2022403979
 10
10.882017496
 20
6.1983949732
 10
10.9190614905
 20
6.1963112125
 10
10.9564835931
 20
6.1963143768
 10
10.9934971868
 20
6.1984021543
 10
11.0292060516
 20
6.2022482042
 10
11.0620183334
 20
6.2074973278
 10
11.0908779061
 20
6.21385932
 10
11.1164223729
 20
6.2216352826
 10
11.1399426005
 20
6.2325876913
 10
11.1604266219
 20
6.2506099948
 10
11.1701701506
 20
6.2731451451
 10
11.1707927176
 20
6.2827236098
  0
LINE
  5
20C
100
AcDbEntity
  8
0
100
AcDbLine
 62
7
  6
CONTINUOUS
 10
10.7149368335
 20
6.2506210154
 11
10.735421312
 21
6.2325975525
  0
LWPOLYLINE
  5
20D
100
AcDbEntity
  8
0
100
AcDbPolyline
 62
7
  6
CONTINUOUS
 90
7
 70
0
 10
10.6304637412
 20
8.164785033
 10
10.6589382138
 20
8.1505043204
 10
10.6894354013
 20
8.1268884285
 10
10.7151811381
 20
8.096483636
 10
10.7350381195
 20
8.0598857077
 10
10.7479122503
 20
8.0178724994
 10
10.7524741178
 20
7.9801328048
  0
LINE
  5
20E
100
AcDbEntity
  8
0
100
AcDbLine
 62
7
  6
CONTINUOUS
 10
10.4476999351
 20
8.2427573423
 11
10.4838624031
 21
8.2427573423
  0
LINE
  5
20F
100
AcDbEntity
  8
0
100
AcDbLine
 62
7
  6
CONTINUOUS
 10
11.3914832548
 20
8.2427573423
 11
11.4276847504
 21
8.2427573423
  0
LINE
  5
210
100
AcDbEntity
  8
0
100
AcDbLine
 62
9
  6
CONTINUOUS
 10
10.4376923427
 20
8.2527573423
 11
10.4692505389
 21
8.2527573423
  0
LINE
  5
211
100
AcDbEntity
  8
0
100
AcDbLine
 62
9
  6
CONTINUOUS
 10
11.40612328
 20
8.2527573423
 11
11.4376923427
 21
8.2527573423
  0
LWPOLYLINE
  5
212
100
AcDbEntity
  8
0
100
AcDbPolyline
 62
7
  6
CONTINUOUS
 90
3
 70
0
 10
10.7045791553
 20
6.282695256
 10
10.7051997853
 20
6.2731543213
 10
10.7149368335
 20
6.2506210154
  0
LINE
  5
213
100
AcDbEntity
  8
0
100
AcDbLine
 62
7
  6
CONTINUOUS
 10
10.3226923427
 20
10.6577573423
 11
10.3226923427
 21
9.5655689529
  0
LINE
  5
214
100
AcDbEntity
  8
0
100
AcDbLine
 62
7
  6
CONTINUOUS
 10
10.3276923427
 20
12.2793020593
 11
10.3276923427
 21
10.7177573423
  0
LINE
  5
215
100
AcDbEntity
  8
0
100
AcDbLine
 62
7
  6
CONTINUOUS
 10
10.3276923427
 20
9.5039028642
 11
10.3276923427
 21
10.6577573423
  0
LINE
  5
216
100
AcDbEntity
  8
0
100
AcDbLine
 62
7
  6
CONTINUOUS
 10
10.4376923427
 20
8.2527573423
 11
10.4376923427
 21
8.2743549945
  0
LINE
  5
217
100
AcDbEntity
  8
0
100
AcDbLine
 62
7
  6
CONTINUOUS
 10
10.4701923427
 20
10.6977573423
 11
10.4701923427
 21
10.6777573423
  0
LINE
  5
218
100
AcDbEntity
  8
0
100
AcDbLine
 62
7
  6
CONTINUOUS
 10
10.6996604416
 20
9.739402846
 11
10.6382161075
 21
9.7158224721
  0
LINE
  5
219
100
AcDbEntity
  8
0
100
AcDbLine
 62
7
  6
CONTINUOUS
 10
10.6425915942
 20
9.7174793893
 11
10.6382190598
 21
9.7158153381
  0
LWPOLYLINE
  5
21A
100
AcDbEntity
  8
0
100
AcDbPolyline
 62
7
  6
CONTINUOUS
 90
3
 70
0
 10
10.7045864587
 20
6.3626015781
 10
10.7050341487
 20
6.3527223348
 10
10.7065078863
 20
6.3487422195
  0
LINE
  5
21B
100
AcDbEntity
  8
0
100
AcDbLine
 62
7
  6
CONTINUOUS
 10
10.7524771592
 20
7.9800665323
 11
10.7524775577
 21
7.9800569353
  0
LWPOLYLINE
  5
21C
100
AcDbEntity
  8
0
100
AcDbPolyline
 62
7
  6
CONTINUOUS
 90
3
 70
0
 10
10.7524771592
 20
7.9800665323
 10
10.7525707136
 20
7.9769430516
 10
10.752543279
 20
7.9707257075
  0
LINE
  5
21D
100
AcDbEntity
  8
0
100
AcDbLine
 62
9
  6
CONTINUOUS
 10
10.7525423015
 20
7.9706924827
 11
10.7526344194
 21
7.9633006002
  0
LINE
  5
21E
100
AcDbEntity
  8
0
100
AcDbLine
 62
9
  6
CONTINUOUS
 10
10.9376923427
 20
10.6117749487
 11
10.9376923427
 21
9.7877573428
  0
LINE
  5
21F
100
AcDbEntity
  8
0
100
AcDbLine
 62
9
  6
CONTINUOUS
 10
10.9376923303
 20
9.7834946032
 11
10.9376923424
 21
9.7712912268
  0
LINE
  5
220
100
AcDbEntity
  8
0
100
AcDbLine
 62
9
  6
CONTINUOUS
 10
10.7417684462
 20
6.3106742522
 11
10.7845943244
 21
7.9642692834
  0
LWPOLYLINE
  5
221
100
AcDbEntity
  8
0
100
AcDbPolyline
 62
7
  6
CONTINUOUS
 90
3
 70
0
 10
10.7525449078
 20
7.9707886769
 10
10.7412086105
 20
7.5575328569
 10
10.7239342759
 20
6.945313384
  0
LWPOLYLINE
  5
222
100
AcDbEntity
  8
0
100
AcDbPolyline
 62
7
  6
CONTINUOUS
 90
3
 70
0
 10
10.7510674899
 20
7.9917696413
 10
10.7412128299
 20
7.6337513451
 10
10.723939859
 20
7.0233970907
  0
LINE
  5
223
100
AcDbEntity
  8
0
100
AcDbLine
 62
7
  6
CONTINUOUS
 10
10.723939859
 20
7.0233970907
 11
10.7045816102
 21
6.3624509459
  0
LINE
  5
224
100
AcDbEntity
  8
0
100
AcDbLine
 62
7
  6
CONTINUOUS
 10
10.7239342759
 20
6.945313384
 11
10.7045748515
 21
6.2825671335
  0
LINE
  5
225
100
AcDbEntity
  8
0
100
AcDbLine
 62
7
  6
CONTINUOUS
 10
10.7045792
 20
6.2826964295
 11
10.7045748515
 21
6.2825671335
  0
LINE
  5
226
100
AcDbEntity
  8
0
100
AcDbLine
 62
7
  6
CONTINUOUS
 10
11.170797104
 20
6.2825942251
 11
11.1707924963
 21
6.282729216
  0
LWPOLYLINE
  5
227
100
AcDbEntity
  8
0
100
AcDbPolyline
 62
7
  6
CONTINUOUS
 90
3
 70
0
 10
11.1707901778
 20
6.3624868294
 10
11.1511725496
 20
7.0238930218
 10
11.1336684844
 20
7.6347571594
  0
LWPOLYLINE
  5
228
100
AcDbEntity
  8
0
100
AcDbPolyline
 62
7
  6
CONTINUOUS
 90
3
 70
0
 10
11.170797104
 20
6.2825942251
 10
11.151178306
 20
6.9457086459
 10
11.1336728493
 20
7.5583007658
  0
LINE
  5
229
100
AcDbEntity
  8
0
100
AcDbLine
 62
7
  6
CONTINUOUS
 10
11.1336728493
 20
7.5583007658
 11
11.1222959599
 21
7.968768188
  0
LINE
  5
22A
100
AcDbEntity
  8
0
100
AcDbLine
 62
7
  6
CONTINUOUS
 10
11.1336684844
 20
7.6347571594
 11
11.1237604159
 21
7.9911028288
  0
LINE
  5
22B
100
AcDbEntity
  8
0
100
AcDbLine
 62
7
  6
CONTINUOUS
 10
11.0903405866
 20
7.965590316
 11
11.1336129842
 21
6.3106742522
  0
LWPOLYLINE
  5
22C
100
AcDbEntity
  8
0
100
AcDbPolyline
 62
7
  6
CONTINUOUS
 90
3
 70
0
 10
11.1222988492
 20
7.9686634685
 10
11.1222478306
 20
7.9722488707
 10
11.1222563196
 20
7.9739252762
  0
LINE
  5
22D
100
AcDbEntity
  8
0
100
AcDbLine
 62
9
  6
CONTINUOUS
 10
11.1223199388
 20
7.9646067505
 11
11.1222987407
 21
7.9686670107
  0
LINE
  5
22E
100
AcDbEntity
  8
0
100
AcDbLine
 62
7
  6
CONTINUOUS
 10
11.1222563196
 20
7.9739252762
 11
11.1222564123
 21
7.9739335202
  0
LINE
  5
22F
100
AcDbEntity
  8
0
100
AcDbLine
 62
7
  6
CONTINUOUS
 10
11.4051923427
 20
10.6977573423
 11
11.4051923427
 21
10.6777573423
  0
LWPOLYLINE
  5
230
100
AcDbEntity
  8
0
100
AcDbPolyline
 62
7
  6
CONTINUOUS
 90
7
 70
0
 10
11.1222569403
 20
7.9739801927
 10
11.1264968344
 20
8.0162774995
 10
11.1391074587
 20
8.0586857372
 10
11.158947311
 20
8.0956896593
 10
11.1848765628
 20
8.1264394558
 10
11.21570074
 20
8.1502769251
 10
11.2440554873
 20
8.1644456216
  0
LINE
  5
231
100
AcDbEntity
  8
0
100
AcDbLine
 62
7
  6
CONTINUOUS
 10
11.4376923427
 20
8.2527573423
 11
11.4376923427
 21
8.2743208726
  0
LINE
  5
232
100
AcDbEntity
  8
0
100
AcDbLine
 62
7
  6
CONTINUOUS
 10
11.5476923427
 20
12.2793020593
 11
11.5476923427
 21
10.7177573423
  0
LINE
  5
233
100
AcDbEntity
  8
0
100
AcDbLine
 62
7
  6
CONTINUOUS
 10
11.5476923427
 20
9.5038985247
 11
11.5476923427
 21
10.6577573423
  0
LINE
  5
234
100
AcDbEntity
  8
0
100
AcDbLine
 62
7
  6
CONTINUOUS
 10
11.5526923427
 20
10.6577573423
 11
11.5526923427
 21
9.5655688125
  0
LINE
  5
235
100
AcDbEntity
  8
0
100
AcDbLine
 62
7
  6
CONTINUOUS
 10
10.9348282426
 20
9.7877037122
 11
10.937692269
 21
9.7877083194
  0
LINE
  5
236
100
AcDbEntity
  8
0
100
AcDbLine
 62
7
  6
CONTINUOUS
 10
10.937692371
 20
9.787707467
 11
10.9498499945
 21
9.7876026004
  0
LINE
  5
237
100
AcDbEntity
  8
0
100
AcDbLine
 62
7
  6
CONTINUOUS
 10
11.2371630649
 20
9.7158163063
 11
11.2163685069
 21
9.7234817457
  0
LINE
  5
238
100
AcDbEntity
  8
0
100
AcDbLine
 62
7
  6
CONTINUOUS
 10
11.23716602
 20
9.7158234538
 11
11.1757229967
 21
9.7394033245
  0
LWPOLYLINE
  5
239
100
AcDbEntity
  8
0
100
AcDbPolyline
 62
7
  6
CONTINUOUS
 90
3
 70
0
 10
11.1688412267
 20
6.3487027828
 10
11.1703435558
 20
6.3527731853
 10
11.1707852854
 20
6.3626373373
  0
LINE
  5
23A
100
AcDbEntity
  8
0
100
AcDbLine
 62
9
  6
CONTINUOUS
 10
11.5526923427
 20
10.6577573423
 11
10.3226923427
 21
10.6577573423
  0
LINE
  5
23B
100
AcDbEntity
  8
0
100
AcDbLine
 62
7
  6
CONTINUOUS
 10
11.5326771062
 20
10.6777573423
 11
10.3427075793
 21
10.6777573423
  0
LINE
  5
23C
100
AcDbEntity
  8
0
100
AcDbLine
 62
7
  6
CONTINUOUS
 10
10.3476923427
 20
10.6977573423
 11
11.5276923427
 21
10.6977573423
  0
LINE
  5
23D
100
AcDbEntity
  8
0
100
AcDbLine
 62
9
  6
CONTINUOUS
 10
10.3276923427
 20
10.7177573423
 11
11.5476923427
 21
10.7177573423
  0
LINE
  5
23E
100
AcDbEntity
  8
0
100
AcDbLine
 62
9
  6
CONTINUOUS
 10
11.5476923427
 20
12.2793020593
 11
10.3276923427
 21
12.2793020593
  0
LINE
  5
23F
100
AcDbEntity
  8
0
100
AcDbLine
 62
7
  6
CONTINUOUS
 10
11.4876923074
 20
12.3393020593
 11
10.3877038583
 21
12.3393020593
  0
ARC
  5
240
100
AcDbEntity
  8
0
100
AcDbCircle
 62
7
  6
CONTINUOUS
 10
10.937674244
 20
8.9355999759
 40
0.8357072894
100
AcDbArc
 50
110.6765936935
 51
110.996550603
  0
ARC
  5
241
100
AcDbEntity
  8
0
100
AcDbCircle
 62
7
  6
CONTINUOUS
 10
10.9375733709
 20
8.9358478249
 40
0.8354397531
100
AcDbArc
 50
110.9961824475
 51
116.9094116733
  0
ARC
  5
242
100
AcDbEntity
  8
0
100
AcDbCircle
 62
7
  6
CONTINUOUS
 10
10.9374807221
 20
8.9358549194
 40
0.8354056168
100
AcDbArc
 50
89.9854921175
 51
106.501422391
  0
ARC
  5
243
100
AcDbEntity
  8
0
100
AcDbCircle
 62
7
  6
CONTINUOUS
 10
10.9375020699
 20
8.9360310619
 40
0.8352431126
100
AcDbArc
 50
110.9969177113
 51
116.9107385361
  0
ARC
  5
244
100
AcDbEntity
  8
0
100
AcDbCircle
 62
7
  6
CONTINUOUS
 10
10.9372897964
 20
8.9365742884
 40
0.8346636117
100
AcDbArc
 50
116.9146227998
 51
125.8663473949
  0
ARC
  5
245
100
AcDbEntity
  8
0
100
AcDbCircle
 62
7
  6
CONTINUOUS
 10
10.9371620319
 20
8.9368664368
 40
0.8343442997
100
AcDbArc
 50
116.9158803949
 51
125.8709898534
  0
ARC
  5
246
100
AcDbEntity
  8
0
100
AcDbCircle
 62
7
  6
CONTINUOUS
 10
10.9371597382
 20
8.937019801
 40
0.8341972251
100
AcDbArc
 50
106.503009567
 51
110.6779649583
  0
ARC
  5
247
100
AcDbEntity
  8
0
100
AcDbCircle
 62
7
  6
CONTINUOUS
 10
10.937021804
 20
8.9370523503
 40
0.8341192072
100
AcDbArc
 50
125.9243341636
 51
134.9507062991
  0
ARC
  5
248
100
AcDbEntity
  8
0
100
AcDbCircle
 62
7
  6
CONTINUOUS
 10
10.9367819151
 20
8.9375012857
 40
0.8336071472
100
AcDbArc
 50
125.9290853458
 51
134.9608344639
  0
ARC
  5
249
100
AcDbEntity
  8
0
100
AcDbCircle
 62
7
  6
CONTINUOUS
 10
10.936629358
 20
8.9375493177
 40
0.8334905074
100
AcDbArc
 50
135.9114740406
 51
143.9852790853
  0
ARC
  5
24A
100
AcDbEntity
  8
0
100
AcDbCircle
 62
7
  6
CONTINUOUS
 10
10.9362457195
 20
8.9381434514
 40
0.8327741262
100
AcDbArc
 50
135.9224574804
 51
144.0028170655
  0
ARC
  5
24B
100
AcDbEntity
  8
0
100
AcDbCircle
 62
7
  6
CONTINUOUS
 10
10.9360774767
 20
8.938030934
 40
0.8327611093
100
AcDbArc
 50
145.1267833302
 51
153.0270756002
  0
ARC
  5
24C
100
AcDbEntity
  8
0
100
AcDbCircle
 62
7
  6
CONTINUOUS
 10
10.9356442577
 20
8.9384968974
 40
0.8321236472
100
AcDbArc
 50
134.9538502055
 51
135.9111443481
  0
ARC
  5
24D
100
AcDbEntity
  8
0
100
AcDbCircle
 62
7
  6
CONTINUOUS
 10
10.9355580797
 20
8.9387262031
 40
0.8318754918
100
AcDbArc
 50
145.1456117873
 51
153.0535177628
  0
ARC
  5
24E
100
AcDbEntity
  8
0
100
AcDbCircle
 62
7
  6
CONTINUOUS
 10
10.935177549
 20
8.9386600742
 40
0.8316630726
100
AcDbArc
 50
143.9883654594
 51
145.1268945182
  0
ARC
  5
24F
100
AcDbEntity
  8
0
100
AcDbCircle
 62
7
  6
CONTINUOUS
 10
10.9349660872
 20
8.9385815536
 40
0.8315194498
100
AcDbArc
 50
153.4768441962
 51
179.953990042
  0
ARC
  5
250
100
AcDbEntity
  8
0
100
AcDbCircle
 62
7
  6
CONTINUOUS
 10
10.9352838999
 20
8.9390691488
 40
0.831439212
100
AcDbArc
 50
134.9641358835
 51
135.9221782709
  0
ARC
  5
251
100
AcDbEntity
  8
0
100
AcDbCircle
 62
7
  6
CONTINUOUS
 10
10.9346279551
 20
8.9393751562
 40
0.8307413529
100
AcDbArc
 50
144.005967033
 51
145.145679101
  0
ARC
  5
252
100
AcDbEntity
  8
0
100
AcDbCircle
 62
7
  6
CONTINUOUS
 10
10.9342204193
 20
8.939026712
 40
0.8306544076
100
AcDbArc
 50
153.0301901652
 51
153.4813499066
  0
ARC
  5
253
100
AcDbEntity
  8
0
100
AcDbCircle
 62
7
  6
CONTINUOUS
 10
10.9342244355
 20
8.9393812176
 40
0.830388151
100
AcDbArc
 50
153.503358029
 51
180.029318332
  0
ARC
  5
254
100
AcDbEntity
  8
0
100
AcDbCircle
 62
7
  6
CONTINUOUS
 10
10.9334893799
 20
8.939828185
 40
0.8295320196
100
AcDbArc
 50
153.0566184513
 51
153.5083363498
  0
ARC
  5
255
100
AcDbEntity
  8
0
100
AcDbCircle
 62
7
  6
CONTINUOUS
 10
10.9251417641
 20
9.0093418727
 40
0.8216668559
100
AcDbArc
 50
179.9853442217
 51
182.5030734939
  0
ARC
  5
256
100
AcDbEntity
  8
0
100
AcDbCircle
 62
7
  6
CONTINUOUS
 10
10.9306806911
 20
9.0110622882
 40
0.7955525978
100
AcDbArc
 50
139.4906092799
 51
155.5345972172
  0
ARC
  5
257
100
AcDbEntity
  8
0
100
AcDbCircle
 62
7
  6
CONTINUOUS
 10
10.9375069063
 20
9.1196084372
 40
0.663857378
100
AcDbArc
 50
89.9839951726
 51
110.9943267666
  0
ARC
  5
258
100
AcDbEntity
  8
0
100
AcDbCircle
 62
7
  6
CONTINUOUS
 10
10.9373117301
 20
9.1262323515
 40
0.6614755008
100
AcDbArc
 50
90.2151154174
 51
111.1824704025
  0
ARC
  5
259
100
AcDbEntity
  8
0
100
AcDbCircle
 62
7
  6
CONTINUOUS
 10
10.9371926558
 20
9.1266228561
 40
0.6610699956
100
AcDbArc
 50
116.4997054499
 51
116.9021277293
  0
ARC
  5
25A
100
AcDbEntity
  8
0
100
AcDbCircle
 62
7
  6
CONTINUOUS
 10
10.9371761047
 20
9.1266753219
 40
0.6610149572
100
AcDbArc
 50
116.5004117846
 51
116.9029377773
  0
ARC
  5
25B
100
AcDbEntity
  8
0
100
AcDbCircle
 62
7
  6
CONTINUOUS
 10
10.9371409435
 20
9.1267264404
 40
0.6609542205
100
AcDbArc
 50
116.2816571987
 51
116.4997001917
  0
ARC
  5
25C
100
AcDbEntity
  8
0
100
AcDbCircle
 62
7
  6
CONTINUOUS
 10
10.9371252631
 20
9.1267771722
 40
0.6609011225
100
AcDbArc
 50
116.2651961721
 51
116.5004071338
  0
ARC
  5
25D
100
AcDbEntity
  8
0
100
AcDbCircle
 62
7
  6
CONTINUOUS
 10
10.9369373197
 20
9.1271442538
 40
0.6604894333
100
AcDbArc
 50
111.1809677106
 51
116.2180268999
  0
ARC
  5
25E
100
AcDbEntity
  8
0
100
AcDbCircle
 62
7
  6
CONTINUOUS
 10
10.9369155781
 20
9.1272080805
 40
0.660421909
100
AcDbArc
 50
111.1810114598
 51
116.1972559482
  0
ARC
  5
25F
100
AcDbEntity
  8
0
100
AcDbCircle
 62
7
  6
CONTINUOUS
 10
10.9376794886
 20
9.4129990651
 40
0.3747582891
100
AcDbArc
 50
88.1463198231
 51
89.942307303
  0
ARC
  5
260
100
AcDbEntity
  8
0
100
AcDbCircle
 62
9
  6
CONTINUOUS
 10
10.4891149436
 20
7.9692507799
 40
0.263586294
100
AcDbArc
 50
358.7065583764
 51
0.3346548156
  0
ARC
  5
261
100
AcDbEntity
  8
0
100
AcDbCircle
 62
9
  6
CONTINUOUS
 10
10.4907932677
 20
7.9692543286
 40
0.2619079779
100
AcDbArc
 50
0.336022986
 51
0.6652931293
  0
ARC
  5
262
100
AcDbEntity
  8
0
100
AcDbCircle
 62
9
  6
CONTINUOUS
 10
10.4926548781
 20
7.9692834566
 40
0.2600461549
100
AcDbArc
 50
0.6636383736
 51
2.3751491572
  0
ARC
  5
263
100
AcDbEntity
  8
0
100
AcDbCircle
 62
7
  6
CONTINUOUS
 10
10.4476923427
 20
8.2527573423
 40
0.01
100
AcDbArc
 50
180.0
 51
270.0
  0
ARC
  5
264
100
AcDbEntity
  8
0
100
AcDbCircle
 62
7
  6
CONTINUOUS
 10
10.3876923427
 20
12.2793020593
 40
0.06
100
AcDbArc
 50
90.0
 51
180.0
  0
ARC
  5
265
100
AcDbEntity
  8
0
100
AcDbCircle
 62
7
  6
CONTINUOUS
 10
10.3476923427
 20
10.7177573423
 40
0.02
100
AcDbArc
 50
180.0
 51
270.0
  0
ARC
  5
266
100
AcDbEntity
  8
0
100
AcDbCircle
 62
7
  6
CONTINUOUS
 10
10.3476923427
 20
10.6577573423
 40
0.02
100
AcDbArc
 50
90.0
 51
180.0
  0
ARC
  5
267
100
AcDbEntity
  8
0
100
AcDbCircle
 62
7
  6
CONTINUOUS
 10
10.3426923427
 20
10.6577573423
 40
0.02
100
AcDbArc
 50
90.0
 51
180.0
  0
ARC
  5
268
100
AcDbEntity
  8
0
100
AcDbCircle
 62
7
  6
CONTINUOUS
 10
10.9377957213
 20
8.9358257361
 40
0.8354659922
100
AcDbArc
 50
69.0057089896
 51
70.5226800854
  0
ARC
  5
269
100
AcDbEntity
  8
0
100
AcDbCircle
 62
7
  6
CONTINUOUS
 10
10.9379040872
 20
8.9358629261
 40
0.8353980925
100
AcDbArc
 50
73.4985213523
 51
90.0145170937
  0
ARC
  5
26A
100
AcDbEntity
  8
0
100
AcDbCircle
 62
7
  6
CONTINUOUS
 10
10.9380153623
 20
8.9363074649
 40
0.8349375513
100
AcDbArc
 50
63.0876317678
 51
69.0079371043
  0
ARC
  5
26B
100
AcDbEntity
  8
0
100
AcDbCircle
 62
7
  6
CONTINUOUS
 10
10.9380996561
 20
8.9365278842
 40
0.8347014967
100
AcDbArc
 50
63.0859434557
 51
69.0049594078
  0
ARC
  5
26C
100
AcDbEntity
  8
0
100
AcDbCircle
 62
7
  6
CONTINUOUS
 10
10.9380936527
 20
8.9365723077
 40
0.8346659561
100
AcDbArc
 50
54.1526023807
 51
63.0841951518
  0
ARC
  5
26D
100
AcDbEntity
  8
0
100
AcDbCircle
 62
7
  6
CONTINUOUS
 10
10.9382215328
 20
8.9368729388
 40
0.8343386496
100
AcDbArc
 50
54.1476326564
 51
63.082680544
  0
ARC
  5
26E
100
AcDbEntity
  8
0
100
AcDbCircle
 62
7
  6
CONTINUOUS
 10
10.9381791945
 20
8.9368979956
 40
0.8343271966
100
AcDbArc
 50
70.5229547662
 51
73.4964457158
  0
ARC
  5
26F
100
AcDbEntity
  8
0
100
AcDbCircle
 62
7
  6
CONTINUOUS
 10
10.9383627642
 20
8.9370523207
 40
0.8341193022
100
AcDbArc
 50
45.0490261191
 51
54.0766840807
  0
ARC
  5
270
100
AcDbEntity
  8
0
100
AcDbCircle
 62
7
  6
CONTINUOUS
 10
10.9386021267
 20
8.9375088778
 40
0.8336003208
100
AcDbArc
 50
45.0385021977
 51
54.0715969378
  0
ARC
  5
271
100
AcDbEntity
  8
0
100
AcDbCircle
 62
7
  6
CONTINUOUS
 10
10.938754601
 20
8.9375485697
 40
0.833491519
100
AcDbArc
 50
36.014015674
 51
44.2536929428
  0
ARC
  5
272
100
AcDbEntity
  8
0
100
AcDbCircle
 62
7
  6
CONTINUOUS
 10
10.9391351669
 20
8.9381479342
 40
0.8327717116
100
AcDbArc
 50
35.9960619886
 51
44.2424391834
  0
ARC
  5
273
100
AcDbEntity
  8
0
100
AcDbCircle
 62
7
  6
CONTINUOUS
 10
10.9393029649
 20
8.9380283924
 40
0.8327660262
100
AcDbArc
 50
26.9717322006
 51
35.0064334662
  0
ARC
  5
274
100
AcDbEntity
  8
0
100
AcDbCircle
 62
7
  6
CONTINUOUS
 10
10.939797717
 20
8.9385537479
 40
0.8320429298
100
AcDbArc
 50
44.2542409906
 51
45.0459116641
  0
ARC
  5
275
100
AcDbEntity
  8
0
100
AcDbCircle
 62
7
  6
CONTINUOUS
 10
10.9398174617
 20
8.9387275228
 40
0.8318792644
100
AcDbArc
 50
26.9448993327
 51
34.9873254968
  0
ARC
  5
276
100
AcDbEntity
  8
0
100
AcDbCircle
 62
7
  6
CONTINUOUS
 10
10.9376923427
 20
9.1277573423
 40
1.4597780506
100
AcDbArc
 50
277.6683914618
 51
65.061162528
  0
ARC
  5
277
100
AcDbEntity
  8
0
100
AcDbCircle
 62
7
  6
CONTINUOUS
 10
10.9376923427
 20
9.1277573423
 40
1.4597780506
100
AcDbArc
 50
114.938837472
 51
262.3123822364
  0
ARC
  5
278
100
AcDbEntity
  8
0
100
AcDbCircle
 62
9
  6
CONTINUOUS
 10
10.9376923427
 20
9.1277573423
 40
1.4581988641
100
AcDbArc
 50
114.9756161793
 51
262.3058611063
  0
ARC
  5
279
100
AcDbEntity
  8
0
100
AcDbCircle
 62
9
  6
CONTINUOUS
 10
10.9376923427
 20
9.1277573423
 40
1.4581988641
100
AcDbArc
 50
277.6767668781
 51
65.0346173583
  0
ARC
  5
27A
100
AcDbEntity
  8
0
100
AcDbCircle
 62
9
  6
CONTINUOUS
 10
10.9376923427
 20
9.1277573423
 40
1.2416973998
100
AcDbArc
 50
278.7397488426
 51
60.2212296203
  0
ARC
  5
27B
100
AcDbEntity
  8
0
100
AcDbCircle
 62
9
  6
CONTINUOUS
 10
10.9376923427
 20
9.1277573423
 40
1.2416973998
100
AcDbArc
 50
119.7711079358
 51
261.2373247686
  0
ARC
  5
27C
100
AcDbEntity
  8
0
100
AcDbCircle
 62
9
  6
CONTINUOUS
 10
10.9376923427
 20
9.1277573423
 40
1.2228365444
100
AcDbArc
 50
278.8531392402
 51
59.7119790971
  0
ARC
  5
27D
100
AcDbEntity
  8
0
100
AcDbCircle
 62
9
  6
CONTINUOUS
 10
10.9376923427
 20
9.1277573423
 40
1.2228365444
100
AcDbArc
 50
120.2840323049
 51
261.1264017117
  0
ARC
  5
27E
100
AcDbEntity
  8
0
100
AcDbCircle
 62
7
  6
CONTINUOUS
 10
10.9376923427
 20
9.1277573423
 40
1.2183109499
100
AcDbArc
 50
278.8744554987
 51
59.5823725004
  0
ARC
  5
27F
100
AcDbEntity
  8
0
100
AcDbCircle
 62
7
  6
CONTINUOUS
 10
10.9376923427
 20
9.1277573423
 40
1.2183109499
100
AcDbArc
 50
120.4176274996
 51
261.0993230754
  0
ARC
  5
280
100
AcDbEntity
  8
0
100
AcDbCircle
 62
9
  6
CONTINUOUS
 10
10.9376923427
 20
9.1277573423
 40
1.217087395
100
AcDbArc
 50
120.4450996848
 51
261.0921437287
  0
ARC
  5
281
100
AcDbEntity
  8
0
100
AcDbCircle
 62
9
  6
CONTINUOUS
 10
10.9376923427
 20
9.1277573423
 40
1.217087395
100
AcDbArc
 50
278.8852137562
 51
59.5480473998
  0
ARC
  5
282
100
AcDbEntity
  8
0
100
AcDbCircle
 62
7
  6
CONTINUOUS
 10
10.9378194742
 20
9.1194955646
 40
0.6639833066
100
AcDbArc
 50
65.2390819558
 51
67.0682500547
  0
ARC
  5
283
100
AcDbEntity
  8
0
100
AcDbCircle
 62
7
  6
CONTINUOUS
 10
10.9378814967
 20
9.119619482
 40
0.6638462497
100
AcDbArc
 50
69.0057460791
 51
90.0163239967
  0
ARC
  5
284
100
AcDbEntity
  8
0
100
AcDbCircle
 62
7
  6
CONTINUOUS
 10
10.938087947
 20
9.1262896377
 40
0.6614166447
100
AcDbArc
 50
68.8170617814
 51
88.9810503322
  0
ARC
  5
285
100
AcDbEntity
  8
0
100
AcDbCircle
 62
7
  6
CONTINUOUS
 10
10.9381790713
 20
9.1265009835
 40
0.6611867394
100
AcDbArc
 50
65.5254048185
 51
68.8176118626
  0
ARC
  5
286
100
AcDbEntity
  8
0
100
AcDbCircle
 62
7
  6
CONTINUOUS
 10
10.9382017727
 20
9.1265720683
 40
0.6611118414
100
AcDbArc
 50
65.5822536585
 51
68.8174153062
  0
ARC
  5
287
100
AcDbEntity
  8
0
100
AcDbCircle
 62
7
  6
CONTINUOUS
 10
10.9382132122
 20
9.1266599063
 40
0.6610281758
100
AcDbArc
 50
63.0982902078
 51
63.7140471029
  0
ARC
  5
288
100
AcDbEntity
  8
0
100
AcDbCircle
 62
7
  6
CONTINUOUS
 10
10.9382313103
 20
9.1267216944
 40
0.6609636208
100
AcDbArc
 50
63.0972359824
 51
63.7325124624
  0
ARC
  5
289
100
AcDbEntity
  8
0
100
AcDbCircle
 62
7
  6
CONTINUOUS
 10
10.938410788
 20
9.1270625138
 40
0.6605797018
100
AcDbArc
 50
63.7817315546
 51
65.0006025723
  0
ARC
  5
28A
100
AcDbEntity
  8
0
100
AcDbCircle
 62
7
  6
CONTINUOUS
 10
10.9384229011
 20
9.1271123418
 40
0.6605285204
100
AcDbArc
 50
63.8025757047
 51
65.0000881234
  0
ARC
  5
28B
100
AcDbEntity
  8
0
100
AcDbCircle
 62
7
  6
CONTINUOUS
 10
10.9386509126
 20
9.1275748067
 40
0.6600139257
100
AcDbArc
 50
65.0007005329
 51
65.5240653521
  0
ARC
  5
28C
100
AcDbEntity
  8
0
100
AcDbCircle
 62
7
  6
CONTINUOUS
 10
10.938663013
 20
9.127624922
 40
0.6599624893
100
AcDbArc
 50
65.0001741071
 51
65.5809296587
  0
ARC
  5
28D
100
AcDbEntity
  8
0
100
AcDbCircle
 62
7
  6
CONTINUOUS
 10
10.9402560721
 20
8.9386951796
 40
0.8316028332
100
AcDbArc
 50
35.0064755209
 51
36.0109412866
  0
ARC
  5
28E
100
AcDbEntity
  8
0
100
AcDbCircle
 62
7
  6
CONTINUOUS
 10
10.9404149106
 20
8.9385808031
 40
0.8315231732
100
AcDbArc
 50
0.0460677545
 51
26.6554846298
  0
ARC
  5
28F
100
AcDbEntity
  8
0
100
AcDbCircle
 62
7
  6
CONTINUOUS
 10
10.9401558359
 20
8.9391318918
 40
0.8313540073
100
AcDbArc
 50
44.2429364505
 51
45.0352288103
  0
ARC
  5
290
100
AcDbEntity
  8
0
100
AcDbCircle
 62
7
  6
CONTINUOUS
 10
10.9408011277
 20
8.9394143967
 40
0.8306795174
100
AcDbArc
 50
34.9874143432
 51
35.9929232096
  0
ARC
  5
291
100
AcDbEntity
  8
0
100
AcDbCircle
 62
7
  6
CONTINUOUS
 10
10.9412291889
 20
8.9390595571
 40
0.8305816325
100
AcDbArc
 50
26.6511686066
 51
26.9686028142
  0
ARC
  5
292
100
AcDbEntity
  8
0
100
AcDbCircle
 62
7
  6
CONTINUOUS
 10
10.941144222
 20
8.9393812035
 40
0.8303988061
100
AcDbArc
 50
359.9705614627
 51
26.6287086756
  0
ARC
  5
293
100
AcDbEntity
  8
0
100
AcDbCircle
 62
7
  6
CONTINUOUS
 10
10.9419535212
 20
8.9398638808
 40
0.8294601692
100
AcDbArc
 50
26.6239599808
 51
26.9417855192
  0
ARC
  5
294
100
AcDbEntity
  8
0
100
AcDbCircle
 62
7
  6
CONTINUOUS
 10
10.9376923427
 20
9.4127573423
 40
0.375
100
AcDbArc
 50
88.1382189786
 51
90.437211346
  0
ARC
  5
295
100
AcDbEntity
  8
0
100
AcDbCircle
 62
7
  6
CONTINUOUS
 10
10.9376930691
 20
9.4143554534
 40
0.3734018894
100
AcDbArc
 50
90.059179818
 51
90.4370508428
  0
ARC
  5
296
100
AcDbEntity
  8
0
100
AcDbCircle
 62
7
  6
CONTINUOUS
 10
10.9496353961
 20
9.0093553135
 40
0.8222743999
100
AcDbArc
 50
357.4989991437
 51
0.0137032721
  0
ARC
  5
297
100
AcDbEntity
  8
0
100
AcDbCircle
 62
7
  6
CONTINUOUS
 10
10.9447040626
 20
9.0110622163
 40
0.7955526006
100
AcDbArc
 50
24.4653616396
 51
40.5093985249
  0
ARC
  5
298
100
AcDbEntity
  8
0
100
AcDbCircle
 62
7
  6
CONTINUOUS
 10
11.3818764797
 20
7.9710451974
 40
0.2596364006
100
AcDbArc
 50
180.5025770029
 51
181.4209589581
  0
ARC
  5
299
100
AcDbEntity
  8
0
100
AcDbCircle
 62
7
  6
CONTINUOUS
 10
11.3800410554
 20
7.9710303989
 40
0.2578009171
100
AcDbArc
 50
179.3564231007
 51
180.5028662584
  0
ARC
  5
29A
100
AcDbEntity
  8
0
100
AcDbCircle
 62
7
  6
CONTINUOUS
 10
11.4276923427
 20
8.2527573423
 40
0.01
100
AcDbArc
 50
270.0
 51
360.0
  0
ARC
  5
29B
100
AcDbEntity
  8
0
100
AcDbCircle
 62
7
  6
CONTINUOUS
 10
11.4876923427
 20
12.2793020593
 40
0.06
100
AcDbArc
 50
0.0
 51
90.0
  0
ARC
  5
29C
100
AcDbEntity
  8
0
100
AcDbCircle
 62
7
  6
CONTINUOUS
 10
11.5276923427
 20
10.7177573423
 40
0.02
100
AcDbArc
 50
270.0
 51
360.0
  0
ARC
  5
29D
100
AcDbEntity
  8
0
100
AcDbCircle
 62
7
  6
CONTINUOUS
 10
11.5276923427
 20
10.6577573423
 40
0.02
100
AcDbArc
 50
0.0
 51
90.0
  0
ARC
  5
29E
100
AcDbEntity
  8
0
100
AcDbCircle
 62
7
  6
CONTINUOUS
 10
11.5326923427
 20
10.6577573423
 40
0.02
100
AcDbArc
 50
0.0
 51
90.0
  0
SPLINE
  5
29F
100
AcDbEntity
  8
0
100
AcDbSpline
 62
9
  6
CONTINUOUS
 70
0
 71
3
 72
49
 73
45
 74
0
 42
0.0000001
 43
0.0000001
 44
0.0000000001
 40
0.0
 40
0.0
 40
0.0
 40
0.0
 40
0.0341994663
 40
0.0681752034
 40
0.0850071086
 40
0.1016970631
 40
0.1345541021
 40
0.1506844923
 40
0.1665921888
 40
0.1976881733
 40
0.2128751609
 40
0.2278221312
 40
0.2425360073
 40
0.2570284824
 40
0.285429208
 40
0.2994037284
 40
0.3132640414
 40
0.3270413203
 40
0.3407698088
 40
0.3544848996
 40
0.368218258
 40
0.3819974549
 40
0.395845996
 40
0.4238246262
 40
0.452288244
 40
0.4667247117
 40
0.4813003053
 40
0.5108744675
 40
0.5410085404
 40
0.5716677681
 40
0.5871832517
 40
0.6028149898
 40
0.6185562946
 40
0.6343999451
 40
0.6663756668
 40
0.6987105481
 40
0.7313687669
 40
0.7643101653
 40
0.7974911967
 40
0.864432642
 40
0.8981478207
 40
0.931995927
 40
0.9659539459
 40
1.0
 40
1.0
 40
1.0
 40
1.0
 10
10.9376923427
 20
10.6118030583
 30
0.0
 10
10.9208454392
 20
10.6118030583
 30
0.0
 10
10.887256828
 20
10.6110385531
 30
0.0
 10
10.8454671144
 20
10.6081052743
 30
0.0
 10
10.8124073913
 20
10.6045217538
 30
0.0
 10
10.7800000177
 20
10.6001470378
 30
0.0
 10
10.7481216187
 20
10.5944952053
 30
0.0
 10
10.7169397549
 20
10.5874259683
 30
0.0
 10
10.6868542003
 20
10.5795301707
 30
0.0
 10
10.6576484706
 20
10.5701600164
 30
0.0
 10
10.6295469539
 20
10.5591813526
 30
0.0
 10
10.6093333785
 20
10.5502472993
 30
0.0
 10
10.589861936
 20
10.5405348557
 30
0.0
 10
10.5651208111
 20
10.5266188036
 30
0.0
 10
10.541786454
 20
10.5110047291
 30
0.0
 10
10.5200902369
 20
10.493762909
 30
0.0
 10
10.5047610303
 20
10.4801372419
 30
0.0
 10
10.4903069773
 20
10.4657585635
 30
0.0
 10
10.476729841
 20
10.4506455037
 30
0.0
 10
10.46400631
 20
10.4348358639
 30
0.0
 10
10.4521145691
 20
10.4183614967
 30
0.0
 10
10.4410313419
 20
10.4012548352
 30
0.0
 10
10.427256681
 20
10.3775677116
 30
0.0
 10
10.4119309839
 20
10.3464662969
 30
0.0
 10
10.3990179983
 20
10.3139925482
 30
0.0
 10
10.3898947806
 20
10.287185735
 30
0.0
 10
10.381447703
 20
10.2595852841
 30
0.0
 10
10.3722502626
 20
10.2241478303
 30
0.0
 10
10.3631379969
 20
10.1805615056
 30
0.0
 10
10.3568949472
 20
10.1434845658
 30
0.0
 10
10.3525748089
 20
10.1133454694
 30
0.0
 10
10.3496370313
 20
10.0904345854
 30
0.0
 10
10.3469870717
 20
10.0673261441
 30
0.0
 10
10.3437890432
 20
10.0361788443
 30
0.0
 10
10.340399562
 20
9.9968370255
 30
0.0
 10
10.3371816467
 20
9.9491758295
 30
0.0
 10
10.3346741306
 20
9.90099622
 30
0.0
 10
10.3327520705
 20
9.8523731579
 30
0.0
 10
10.330791108
 20
9.7868535995
 30
0.0
 10
10.3295286096
 20
9.7209343641
 30
0.0
 10
10.3287512402
 20
9.6546808696
 30
0.0
 10
10.3283559274
 20
9.6046721862
 30
0.0
 10
10.3280966518
 20
9.5544997105
 30
0.0
 10
10.327980007
 20
9.5210006024
 30
0.0
 10
10.3279330721
 20
9.5042293364
 30
0.0
  0
SPLINE
  5
2A0
100
AcDbEntity
  8
0
100
AcDbSpline
 62
9
  6
CONTINUOUS
 70
0
 71
3
 72
49
 73
45
 74
0
 42
0.0000001
 43
0.0000001
 44
0.0000000001
 40
0.0
 40
0.0
 40
0.0
 40
0.0
 40
0.0340459516
 40
0.0680038237
 40
0.1018517496
 40
0.1355667325
 40
0.2025078128
 40
0.2356887088
 40
0.2686300094
 40
0.3012881626
 40
0.3336230054
 40
0.3655987107
 40
0.3814423598
 40
0.3971836663
 40
0.4128154077
 40
0.4283308945
 40
0.4589901212
 40
0.4891241773
 40
0.5186983205
 40
0.5332739091
 40
0.547710377
 40
0.5761740048
 40
0.6041526472
 40
0.6180011936
 40
0.6317803979
 40
0.6455137696
 40
0.6592288821
 40
0.672957402
 40
0.6867347217
 40
0.7005950817
 40
0.7145696527
 40
0.7429704886
 40
0.7574630285
 40
0.7721769781
 40
0.7871240283
 40
0.8023110982
 40
0.8334072329
 40
0.8493149888
 40
0.8654454318
 40
0.8983025794
 40
0.9149926015
 40
0.9318245867
 40
0.9658004761
 40
1.0
 40
1.0
 40
1.0
 40
1.0
 10
11.547451707
 20
9.5042313705
 30
0.0
 10
11.5474047507
 20
9.5210025761
 30
0.0
 10
11.5472880621
 20
9.5545015418
 30
0.0
 10
11.5470287445
 20
9.6046737764
 30
0.0
 10
11.5466334113
 20
9.6546821729
 30
0.0
 10
11.5458560412
 20
9.7209352638
 30
0.0
 10
11.5445935772
 20
9.7868541183
 30
0.0
 10
11.5426326797
 20
9.8523733456
 30
0.0
 10
11.5407106752
 20
9.9009962343
 30
0.0
 10
11.538203218
 20
9.9491757192
 30
0.0
 10
11.5349853601
 20
9.9968368318
 30
0.0
 10
11.5315959221
 20
10.0361786034
 30
0.0
 10
11.5283979228
 20
10.06732588
 30
0.0
 10
11.5257479814
 20
10.0904343115
 30
0.0
 10
11.5228102208
 20
10.1133451881
 30
0.0
 10
11.5184901062
 20
10.1434842727
 30
0.0
 10
11.5122470946
 20
10.1805611893
 30
0.0
 10
11.5031348966
 20
10.2241474829
 30
0.0
 10
11.4939375314
 20
10.2595849131
 30
0.0
 10
11.4854905264
 20
10.2871853562
 30
0.0
 10
11.4763673864
 20
10.3139921811
 30
0.0
 10
11.4634545031
 20
10.3464659603
 30
0.0
 10
11.4481288893
 20
10.3775674101
 30
0.0
 10
11.434354264
 20
10.4012545505
 30
0.0
 10
11.4232710532
 20
10.4183612238
 30
0.0
 10
11.4113793253
 20
10.4348356116
 30
0.0
 10
11.39865581
 20
10.4506452903
 30
0.0
 10
11.3850786972
 20
10.4657584167
 30
0.0
 10
11.3706246846
 20
10.480137201
 30
0.0
 10
11.3552955286
 20
10.4937630092
 30
0.0
 10
11.3335993724
 20
10.5110050442
 30
0.0
 10
11.3102650447
 20
10.5266193384
 30
0.0
 10
11.2855238822
 20
10.5405355423
 30
0.0
 10
11.2660523728
 20
10.5502480657
 30
0.0
 10
11.2458387083
 20
10.5591821737
 30
0.0
 10
11.2177370633
 20
10.5701608844
 30
0.0
 10
11.1885312112
 20
10.5795310688
 30
0.0
 10
11.1584455535
 20
10.5874269109
 30
0.0
 10
11.127263607
 20
10.5944961906
 30
0.0
 10
11.0953851196
 20
10.6001480643
 30
0.0
 10
11.0629776416
 20
10.6045228091
 30
0.0
 10
11.0299177914
 20
10.6081063496
 30
0.0
 10
10.9881279599
 20
10.6110396395
 30
0.0
 10
10.9545392649
 20
10.611804151
 30
0.0
 10
10.9376923427
 20
10.611804151
 30
0.0
  0
LINE
  5
2A1
100
AcDbEntity
  8
0
100
AcDbLine
 62
7
  6
CONTINUOUS
 10
10.6444808809
 20
9.7193566534
 11
10.6451409252
 21
9.7196821477
  0
LINE
  5
2A2
100
AcDbEntity
  8
0
100
AcDbLine
 62
7
  6
CONTINUOUS
 10
11.2300234655
 20
9.7197901944
 11
11.2307489624
 21
9.7194326959
  0
LINE
  5
2A3
100
AcDbEntity
  8
0
100
AcDbLine
 62
7
  6
CONTINUOUS
 10
11.2373026292
 20
9.7161529917
 11
11.2381489195
 21
9.7157228287
  0
LINE
  5
2A4
100
AcDbEntity
  8
0
100
AcDbLine
 62
7
  6
CONTINUOUS
 10
11.2302495603
 20
9.719680159
 11
11.230950457
 21
9.7193344837
  0
LINE
  5
2A5
100
AcDbEntity
  8
0
100
AcDbLine
 62
7
  6
CONTINUOUS
 10
11.2373028943
 20
9.7161542755
 11
11.2384018493
 21
9.7155954138
  0
LINE
  5
2A6
100
AcDbEntity
  8
0
100
AcDbLine
 62
7
  6
CONTINUOUS
 10
10.6446589721
 20
9.7194438258
 11
10.64536382
 21
9.7197911298
  0
LINE
  5
2A7
100
AcDbEntity
  8
0
100
AcDbLine
 62
7
  6
CONTINUOUS
 10
10.9373073889
 20
9.7877571437
 11
10.9376923427
 21
9.7877573423
  0
LINE
  5
2A8
100
AcDbEntity
  8
0
100
AcDbLine
 62
7
  6
CONTINUOUS
 10
10.9376923427
 20
9.7877573423
 11
10.938056843
 21
9.7877571642
  0
LINE
  5
2A9
100
AcDbEntity
  8
0
100
AcDbLine
 62
7
  6
CONTINUOUS
 10
10.937692269
 20
9.7877083194
 11
10.9376923236
 21
9.7837888384
  0
LINE
  5
2AA
100
AcDbEntity
  8
0
100
AcDbLine
 62
7
  6
CONTINUOUS
 10
10.9376923236
 20
9.7837888384
 11
10.9376923239
 21
9.7835201028
  0
SPLINE
  5
2AB
100
AcDbEntity
  8
0
100
AcDbSpline
 62
7
  6
CONTINUOUS
 70
0
 71
3
 72
16
 73
12
 74
0
 42
0.0000001
 43
0.0000001
 44
0.0000000001
 40
0.0
 40
0.0
 40
0.0
 40
0.0
 40
0.125199378
 40
0.2503244516
 40
0.375382533
 40
0.5003812171
 40
0.5628751171
 40
0.625353749
 40
0.7502546388
 40
0.8751670006
 40
1.0
 40
1.0
 40
1.0
 40
1.0
 10
10.3263251764
 20
9.5726400432
 30
0.0
 10
10.3086590619
 20
9.5537428256
 30
0.0
 10
10.2750798368
 20
9.5142857521
 30
0.0
 10
10.2304968747
 20
9.4506847692
 30
0.0
 10
10.1920734694
 20
9.3832270595
 30
0.0
 10
10.1654751013
 20
9.3242666393
 30
0.0
 10
10.1475904015
 20
9.2757950988
 30
0.0
 10
10.1320098499
 20
9.2265560335
 30
0.0
 10
10.1168979047
 20
9.1637166165
 30
0.0
 10
10.1059426856
 20
9.0869788939
 30
0.0
 10
10.1034669396
 20
9.0353450489
 30
0.0
 10
10.1034469456
 20
9.0095519268
 30
0.0
  0
SPLINE
  5
2AC
100
AcDbEntity
  8
0
100
AcDbSpline
 62
7
  6
CONTINUOUS
 70
0
 71
3
 72
16
 73
12
 74
0
 42
0.0000001
 43
0.0000001
 44
0.0000000001
 40
0.0
 40
0.0
 40
0.0
 40
0.0
 40
0.1248329903
 40
0.2497453406
 40
0.3746462256
 40
0.4371248576
 40
0.4996187584
 40
0.6246174456
 40
0.7496755327
 40
0.8748006136
 40
1.0
 40
1.0
 40
1.0
 40
1.0
 10
11.7719377413
 20
9.0095519627
 30
0.0
 10
11.7719177423
 20
9.0353450768
 30
0.0
 10
11.7694419891
 20
9.0869789048
 30
0.0
 10
11.7584867626
 20
9.1637166022
 30
0.0
 10
11.7433748175
 20
9.2265559999
 30
0.0
 10
11.7277942677
 20
9.2757950519
 30
0.0
 10
11.7099095713
 20
9.3242665815
 30
0.0
 10
11.6833112102
 20
9.38322699
 30
0.0
 10
11.6448878172
 20
9.4506846891
 30
0.0
 10
11.600304871
 20
9.5142856658
 30
0.0
 10
11.5667256588
 20
9.5537427382
 30
0.0
 10
11.549059551
 20
9.572639956
 30
0.0
  0
LINE
  5
2AD
100
AcDbEntity
  8
0
100
AcDbLine
 62
7
  6
CONTINUOUS
 10
11.6688240163
 20
9.3405341489
 11
11.6693127181
 21
9.3394574642
  0
SPLINE
  5
2AE
100
AcDbEntity
  8
0
100
AcDbSpline
 62
9
  6
CONTINUOUS
 70
0
 71
3
 72
9
 73
5
 74
0
 42
0.0000001
 43
0.0000001
 44
0.0000000001
 40
0.0
 40
0.0
 40
0.0
 40
0.0
 40
0.4911579304
 40
1.0
 40
1.0
 40
1.0
 40
1.0
 10
11.1707854226
 20
6.3626444522
 30
0.0
 10
11.1707158582
 20
6.364631095
 30
0.0
 10
11.1701943754
 20
6.3686690495
 30
0.0
 10
11.1690102356
 20
6.3725581498
 30
0.0
 10
11.1682699373
 20
6.374479926
 30
0.0
  0
LINE
  5
2AF
100
AcDbEntity
  8
0
100
AcDbLine
 62
7
  6
CONTINUOUS
 10
10.7513150618
 20
7.9897155954
 11
10.7510670686
 21
7.9801693448
  0
LINE
  5
2B0
100
AcDbEntity
  8
0
100
AcDbLine
 62
7
  6
CONTINUOUS
 10
10.7510670686
 20
7.9801693448
 11
10.7508245427
 21
7.970833353
  0
LINE
  5
2B1
100
AcDbEntity
  8
0
100
AcDbLine
 62
7
  6
CONTINUOUS
 10
10.7508245427
 20
7.970833353
 11
10.7274076862
 21
7.0684685776
  0
SPLINE
  5
2B2
100
AcDbEntity
  8
0
100
AcDbSpline
 62
9
  6
CONTINUOUS
 70
0
 71
3
 72
9
 73
5
 74
0
 42
0.0000001
 43
0.0000001
 44
0.0000000001
 40
0.0
 40
0.0
 40
0.0
 40
0.0
 40
0.5088697313
 40
1.0
 40
1.0
 40
1.0
 40
1.0
 10
10.7070831478
 20
6.374406243
 30
0.0
 10
10.7063477022
 20
6.3724890517
 30
0.0
 10
10.7051714427
 20
6.3686103097
 30
0.0
 10
10.7046547031
 20
6.3645840742
 30
0.0
 10
10.704586405
 20
6.362603422
 30
0.0
  0
LINE
  5
2B3
100
AcDbEntity
  8
0
100
AcDbLine
 62
9
  6
CONTINUOUS
 10
11.1496858099
 20
6.9979408542
 11
11.1243813884
 21
7.9646634081
  0
LINE
  5
2B4
100
AcDbEntity
  8
0
100
AcDbLine
 62
9
  6
CONTINUOUS
 10
11.1243813884
 20
7.9646634081
 11
11.1242723474
 21
7.9688224957
  0
LINE
  5
2B5
100
AcDbEntity
  8
0
100
AcDbLine
 62
9
  6
CONTINUOUS
 10
11.1242723474
 20
7.9688224957
 11
11.124137207
 21
7.9739769275
  0
LINE
  5
2B6
100
AcDbEntity
  8
0
100
AcDbLine
 62
9
  6
CONTINUOUS
 10
11.124137207
 20
7.9739769275
 11
11.1237475652
 21
7.9888374102
  0
LINE
  5
2B7
100
AcDbEntity
  8
0
100
AcDbLine
 62
9
  6
CONTINUOUS
 10
11.1237475652
 20
7.9888374102
 11
11.1237051126
 21
7.9904564172
  0
LINE
  5
2B8
100
AcDbEntity
  8
0
100
AcDbLine
 62
7
  6
CONTINUOUS
 10
10.2060801819
 20
9.3394755119
 11
10.2065609765
 21
9.3405347397
  0
SPLINE
  5
2B9
100
AcDbEntity
  8
0
100
AcDbSpline
 62
7
  6
CONTINUOUS
 70
0
 71
3
 72
15
 73
11
 74
0
 42
0.0000001
 43
0.0000001
 44
0.0000000001
 40
0.0
 40
0.0
 40
0.0
 40
0.0
 40
0.1249297373
 40
0.2498682524
 40
0.3748235329
 40
0.4998020717
 40
0.624808308
 40
0.7498442266
 40
0.8749091904
 40
1.0
 40
1.0
 40
1.0
 40
1.0
 10
10.1034749351
 20
8.9392494387
 30
0.0
 10
10.1034640218
 20
8.8978588308
 30
0.0
 10
10.1096478286
 20
8.8149398693
 30
0.0
 10
10.1373338226
 20
8.6934295951
 30
0.0
 10
10.1828137318
 20
8.5773533223
 30
0.0
 10
10.2450760169
 20
8.4693283293
 30
0.0
 10
10.3227328262
 20
8.3717476405
 30
0.0
 10
10.4140655406
 20
8.2867793915
 30
0.0
 10
10.5170092628
 20
8.2163244218
 30
0.0
 10
10.5919298784
 20
8.1800438807
 30
0.0
 10
10.6304710399
 20
8.1648063653
 30
0.0
  0
LINE
  5
2BA
100
AcDbEntity
  8
0
100
AcDbLine
 62
7
  6
CONTINUOUS
 10
10.4482678612
 20
9.6129676868
 11
10.4476350068
 21
9.6125095655
  0
LINE
  5
2BB
100
AcDbEntity
  8
0
100
AcDbLine
 62
7
  6
CONTINUOUS
 10
11.4277369914
 20
9.6125174547
 11
11.4268926192
 21
9.6131284759
  0
LINE
  5
2BC
100
AcDbEntity
  8
0
100
AcDbLine
 62
7
  6
CONTINUOUS
 10
10.4482633254
 20
9.6129739154
 11
10.4476304375
 21
9.6125158522
  0
LINE
  5
2BD
100
AcDbEntity
  8
0
100
AcDbLine
 62
7
  6
CONTINUOUS
 10
11.4277421821
 20
9.6125245967
 11
11.4268977602
 21
9.6131355367
  0
SPLINE
  5
2BE
100
AcDbEntity
  8
0
100
AcDbSpline
 62
7
  6
CONTINUOUS
 70
0
 71
3
 72
19
 73
15
 74
0
 42
0.0000001
 43
0.0000001
 44
0.0000000001
 40
0.0
 40
0.0
 40
0.0
 40
0.0
 40
0.1261075243
 40
0.2518596167
 40
0.3772463968
 40
0.4398087131
 40
0.502286273
 40
0.564703678
 40
0.627043654
 40
0.689301807
 40
0.7514998932
 40
0.8136745087
 40
0.8758322924
 40
1.0
 40
1.0
 40
1.0
 40
1.0
 10
11.1222564943
 20
7.9739343404
 30
0.0
 10
11.1223705755
 20
7.9840488604
 30
0.0
 10
11.1237926074
 20
8.0042596403
 30
0.0
 10
11.1296861427
 20
8.0340191422
 30
0.0
 10
11.1378435782
 20
8.0579156311
 30
0.0
 10
11.1463190338
 20
8.0761431078
 30
0.0
 10
11.1536527462
 20
8.0892862311
 30
0.0
 10
11.1619530934
 20
8.1018196855
 30
0.0
 10
11.1711808621
 20
8.1136653268
 30
0.0
 10
11.1812985588
 20
8.1247378527
 30
0.0
 10
11.1922672041
 20
8.1349493807
 30
0.0
 10
11.2040392402
 20
8.1442139036
 30
0.0
 10
11.2206747139
 20
8.1552203792
 30
0.0
 10
11.2341456733
 20
8.1619030235
 30
0.0
 10
11.2434104923
 20
8.1655576304
 30
0.0
  0
SPLINE
  5
2BF
100
AcDbEntity
  8
0
100
AcDbSpline
 62
7
  6
CONTINUOUS
 70
0
 71
3
 72
15
 73
11
 74
0
 42
0.0000001
 43
0.0000001
 44
0.0000000001
 40
0.0
 40
0.0
 40
0.0
 40
0.0
 40
0.1250908698
 40
0.2501559111
 40
0.3751918879
 40
0.5001981522
 40
0.625176681
 40
0.7501319149
 40
0.875070354
 40
1.0
 40
1.0
 40
1.0
 40
1.0
 10
11.2440477608
 20
8.1644646175
 30
0.0
 10
11.2826419122
 20
8.1796733527
 30
0.0
 10
11.3576710695
 20
8.2159096709
 30
0.0
 10
11.4607755327
 20
8.286337519
 30
0.0
 10
11.5522594624
 20
8.3713155634
 30
0.0
 10
11.6300506922
 20
8.4689392214
 30
0.0
 10
11.6924244121
 20
8.5770353488
 30
0.0
 10
11.7379876921
 20
8.6932048821
 30
0.0
 10
11.765725246
 20
8.8148235463
 30
0.0
 10
11.7719206845
 20
8.8978201352
 30
0.0
 10
11.7719097724
 20
8.9392493656
 30
0.0
  0
SPLINE
  5
2C0
100
AcDbEntity
  8
0
100
AcDbSpline
 62
9
  6
CONTINUOUS
 70
0
 71
3
 72
18
 73
14
 74
0
 42
0.0000001
 43
0.0000001
 44
0.0000000001
 40
0.0
 40
0.0
 40
0.0
 40
0.0
 40
0.175371426
 40
0.3526285223
 40
0.5226616857
 40
0.6758702823
 40
0.8035434176
 40
0.8562762209
 40
0.9009951867
 40
0.9373907008
 40
0.9657239778
 40
0.9864233635
 40
1.0
 40
1.0
 40
1.0
 40
1.0
 10
10.741768588
 20
6.3106797565
 30
0.0
 10
10.7399071557
 20
6.3107274278
 30
0.0
 10
10.7361637536
 20
6.3108038878
 30
0.0
 10
10.7306144427
 20
6.3108589435
 30
0.0
 10
10.7253001396
 20
6.3108449289
 30
0.0
 10
10.720512979
 20
6.3107635987
 30
0.0
 10
10.7169727115
 20
6.3106333391
 30
0.0
 10
10.7145865776
 20
6.3104909764
 30
0.0
 10
10.7131696001
 20
6.3103796586
 30
0.0
 10
10.7120139368
 20
6.3102579011
 30
0.0
 10
10.7111151866
 20
6.3101295029
 30
0.0
 10
10.710464521
 20
6.3099961805
 30
0.0
 10
10.7101137955
 20
6.3098889895
 30
0.0
 10
10.7099843931
 20
6.3098254675
 30
0.0
  0
LINE
  5
2C1
100
AcDbEntity
  8
0
100
AcDbLine
 62
7
  6
CONTINUOUS
 10
10.7525910958
 20
7.9633018274
 11
10.7099416236
 21
6.3098268542
  0
SPLINE
  5
2C2
100
AcDbEntity
  8
0
100
AcDbSpline
 62
9
  6
CONTINUOUS
 70
0
 71
3
 72
15
 73
11
 74
0
 42
0.0000001
 43
0.0000001
 44
0.0000000001
 40
0.0
 40
0.0
 40
0.0
 40
0.0
 40
0.3497324469
 40
0.5112301791
 40
0.6564248066
 40
0.7808562763
 40
0.8803540271
 40
0.9525640536
 40
0.9791590368
 40
1.0
 40
1.0
 40
1.0
 40
1.0
 10
10.7099843928
 20
6.3098254636
 30
0.0
 10
10.7099288852
 20
6.3078531552
 30
0.0
 10
10.7097995742
 20
6.3049707149
 30
0.0
 10
10.7094997121
 20
6.3012791726
 30
0.0
 10
10.7092409222
 20
6.298860445
 30
0.0
 10
10.7089587326
 20
6.2967966565
 30
0.0
 10
10.7086667865
 20
6.2951513303
 30
0.0
 10
10.7084009549
 20
6.2940625865
 30
0.0
 10
10.7081805778
 20
6.2934241586
 30
0.0
 10
10.7080724991
 20
6.2931786652
 30
0.0
 10
10.7080175924
 20
6.293074694
 30
0.0
  0
SPLINE
  5
2C3
100
AcDbEntity
  8
0
100
AcDbSpline
 62
9
  6
CONTINUOUS
 70
0
 71
3
 72
10
 73
6
 74
0
 42
0.0000001
 43
0.0000001
 44
0.0000000001
 40
0.0
 40
0.0
 40
0.0
 40
0.0
 40
0.5208407044
 40
0.763768907
 40
1.0
 40
1.0
 40
1.0
 40
1.0
 10
10.7080175924
 20
6.293074694
 30
0.0
 10
10.7070125889
 20
6.2914430703
 30
0.0
 10
10.70575834
 20
6.2888904085
 30
0.0
 10
10.7048149479
 20
6.2853248021
 30
0.0
 10
10.7046115597
 20
6.2835655142
 30
0.0
 10
10.7045791236
 20
6.2826969653
 30
0.0
  0
SPLINE
  5
2C4
100
AcDbEntity
  8
0
100
AcDbSpline
 62
9
  6
CONTINUOUS
 70
0
 71
3
 72
15
 73
11
 74
0
 42
0.0000001
 43
0.0000001
 44
0.0000000001
 40
0.0
 40
0.0
 40
0.0
 40
0.0
 40
0.0206714719
 40
0.0472306729
 40
0.1195696645
 40
0.2191325208
 40
0.3435341637
 40
0.4887338903
 40
0.6502608461
 40
1.0
 40
1.0
 40
1.0
 40
1.0
 10
11.1673632759
 20
6.293078564
 30
0.0
 10
11.1673081687
 20
6.2931813296
 30
0.0
 10
11.1672001295
 20
6.2934256054
 30
0.0
 10
11.166980159
 20
6.2940636228
 30
0.0
 10
11.1667152062
 20
6.2951533817
 30
0.0
 10
11.1664231876
 20
6.2967993977
 30
0.0
 10
11.1661410454
 20
6.2988631871
 30
0.0
 10
11.16588254
 20
6.3012816771
 30
0.0
 10
11.1655827001
 20
6.3049730016
 30
0.0
 10
11.1654525102
 20
6.3078552783
 30
0.0
 10
11.1653976654
 20
6.3098274086
 30
0.0
  0
LINE
  5
2C5
100
AcDbEntity
  8
0
100
AcDbLine
 62
9
  6
CONTINUOUS
 10
11.1654797527
 20
6.3098300976
 11
11.1224032479
 21
7.9646090397
  0
SPLINE
  5
2C6
100
AcDbEntity
  8
0
100
AcDbSpline
 62
9
  6
CONTINUOUS
 70
0
 71
3
 72
26
 73
22
 74
0
 42
0.0000001
 43
0.0000001
 44
0.0000000001
 40
0.0
 40
0.0
 40
0.0
 40
0.0
 40
0.1916633392
 40
0.3778755039
 40
0.4662882419
 40
0.5504194247
 40
0.6294340482
 40
0.702547256
 40
0.7689901066
 40
0.8280236589
 40
0.8790807817
 40
0.9216567414
 40
0.9396078014
 40
0.9552671354
 40
0.9686064616
 40
0.9795995632
 40
0.9882226373
 40
0.994458081
 40
0.9983102456
 40
0.9993804006
 40
1.0
 40
1.0
 40
1.0
 40
1.0
 10
10.642232923
 20
8.1964430501
 30
0.0
 10
10.6414381142
 20
8.1944366941
 30
0.0
 10
10.6398795066
 20
8.1904777121
 30
0.0
 10
10.6379759939
 20
8.1855846976
 30
0.0
 10
10.6365247891
 20
8.1818149266
 30
0.0
 10
10.6355142053
 20
8.1791688921
 30
0.0
 10
10.6345727087
 20
8.176680887
 30
0.0
 10
10.6337097403
 20
8.1743761269
 30
0.0
 10
10.6329342733
 20
8.1722788545
 30
0.0
 10
10.6322544668
 20
8.1704110099
 30
0.0
 10
10.6316770861
 20
8.1687919002
 30
0.0
 10
10.6312652632
 20
8.1676048924
 30
0.0
 10
10.6309925223
 20
8.1667915632
 30
0.0
 10
10.6308288172
 20
8.166288921
 30
0.0
 10
10.6306943549
 20
8.1658591154
 30
0.0
 10
10.6305893858
 20
8.1655033075
 30
0.0
 10
10.6305139951
 20
8.1652217889
 30
0.0
 10
10.6304679844
 20
8.1650168465
 30
0.0
 10
10.630450564
 20
8.164890852
 30
0.0
 10
10.6304536895
 20
8.164829235
 30
0.0
 10
10.6304642062
 20
8.164810338
 30
0.0
 10
10.6304706579
 20
8.1648076836
 30
0.0
  0
SPLINE
  5
2C7
100
AcDbEntity
  8
0
100
AcDbSpline
 62
9
  6
CONTINUOUS
 70
0
 71
3
 72
19
 73
15
 74
0
 42
0.0000001
 43
0.0000001
 44
0.0000000001
 40
0.0
 40
0.0
 40
0.0
 40
0.0
 40
0.1250297901
 40
0.1876335218
 40
0.2501975213
 40
0.3127377119
 40
0.3752638299
 40
0.4377908267
 40
0.5003134701
 40
0.6252459181
 40
0.687727635
 40
0.7502004876
 40
0.8751316953
 40
1.0
 40
1.0
 40
1.0
 40
1.0
 10
10.6422298054
 20
8.1964354777
 30
0.0
 10
10.6534718818
 20
8.1919947292
 30
0.0
 10
10.6698072792
 20
8.1838419296
 30
0.0
 10
10.6899209078
 20
8.1703726127
 30
0.0
 10
10.7041124542
 20
8.159025804
 30
0.0
 10
10.7173049898
 20
8.1465465233
 30
0.0
 10
10.7294187291
 20
8.1330227295
 30
0.0
 10
10.7404030748
 20
8.1185686318
 30
0.0
 10
10.7534743132
 20
8.0982183329
 30
0.0
 10
10.7641461894
 20
8.0764184266
 30
0.0
 10
10.7723280194
 20
8.0536714397
 30
0.0
 10
10.7788665215
 20
8.0303955268
 30
0.0
 10
10.7839887338
 20
8.0005467054
 30
0.0
 10
10.7849100212
 20
7.9763369135
 30
0.0
 10
10.7845943244
 20
7.9642692834
 30
0.0
  0
SPLINE
  5
2C8
100
AcDbEntity
  8
0
100
AcDbSpline
 62
9
  6
CONTINUOUS
 70
0
 71
3
 72
21
 73
17
 74
0
 42
0.0000001
 43
0.0000001
 44
0.0000000001
 40
0.0
 40
0.0
 40
0.0
 40
0.0
 40
0.1899691586
 40
0.3794736847
 40
0.5570599477
 40
0.6380187754
 40
0.711996477
 40
0.7778621007
 40
0.8352261386
 40
0.8838865952
 40
0.9236473816
 40
0.9544672977
 40
0.9768983783
 40
0.9917053736
 40
0.9965660226
 40
1.0
 40
1.0
 40
1.0
 40
1.0
 10
10.7845943304
 20
7.9642695273
 30
0.0
 10
10.78256414
 20
7.9643224542
 30
0.0
 10
10.7785080892
 20
7.9644051363
 30
0.0
 10
10.772552898
 20
7.9644586727
 30
0.0
 10
10.7677628313
 20
7.9644354535
 30
0.0
 10
10.7642084743
 20
7.9643731135
 30
0.0
 10
10.7618488057
 20
7.9643086771
 30
0.0
 10
10.7597421213
 20
7.9642253534
 30
0.0
 10
10.7579071559
 20
7.9641258985
 30
0.0
 10
10.7563525159
 20
7.9640133144
 30
0.0
 10
10.7550837261
 20
7.9638904234
 30
0.0
 10
10.7540971683
 20
7.9637598623
 30
0.0
 10
10.7533830606
 20
7.9636234578
 30
0.0
 10
10.7529472213
 20
7.9634995424
 30
0.0
 10
10.7527262894
 20
7.9633886105
 30
0.0
 10
10.7526558809
 20
7.9633314185
 30
0.0
 10
10.7526340289
 20
7.9633019193
 30
0.0
  0
SPLINE
  5
2C9
100
AcDbEntity
  8
0
100
AcDbSpline
 62
9
  6
CONTINUOUS
 70
0
 71
3
 72
15
 73
11
 74
0
 42
0.0000001
 43
0.0000001
 44
0.0000000001
 40
0.0
 40
0.0
 40
0.0
 40
0.0
 40
0.125098333
 40
0.2501685832
 40
0.3752072335
 40
0.5002137436
 40
0.6251903314
 40
0.7501418513
 40
0.8750755158
 40
1.0
 40
1.0
 40
1.0
 40
1.0
 10
10.6422298054
 20
8.1964354777
 30
0.0
 10
10.6051640405
 20
8.2110897832
 30
0.0
 10
10.5331170831
 20
8.2459915995
 30
0.0
 10
10.4341142572
 20
8.3137447299
 30
0.0
 10
10.3462830689
 20
8.3954600011
 30
0.0
 10
10.2716057675
 20
8.4893018186
 30
0.0
 10
10.2117358136
 20
8.5931865245
 30
0.0
 10
10.1680066443
 20
8.7048119619
 30
0.0
 10
10.1413927404
 20
8.8216617589
 30
0.0
 10
10.135450343
 20
8.9013984626
 30
0.0
 10
10.1354604738
 20
8.9412005626
 30
0.0
  0
SPLINE
  5
2CA
100
AcDbEntity
  8
0
100
AcDbSpline
 62
7
  6
CONTINUOUS
 70
0
 71
3
 72
33
 73
29
 74
0
 42
0.0000001
 43
0.0000001
 44
0.0000000001
 40
0.0
 40
0.0
 40
0.0
 40
0.0
 40
0.0624224738
 40
0.0936595014
 40
0.1248925291
 40
0.1561216419
 40
0.1873501879
 40
0.2497954385
 40
0.2810311653
 40
0.3122687402
 40
0.3435083953
 40
0.3747503458
 40
0.4059946345
 40
0.437241528
 40
0.4997243774
 40
0.5622178254
 40
0.5934778545
 40
0.6247403636
 40
0.6560054364
 40
0.6872728857
 40
0.7185426638
 40
0.7498146968
 40
0.8123435456
 40
0.8436185105
 40
0.8748965197
 40
0.9061804238
 40
0.9374698431
 40
1.0
 40
1.0
 40
1.0
 40
1.0
 10
10.1354604738
 20
8.9412005626
 30
0.0
 10
10.1355121725
 20
8.9673755935
 30
0.0
 10
10.1374794399
 20
9.0066808495
 30
0.0
 10
10.1439141811
 20
9.0586687596
 30
0.0
 10
10.1506680033
 20
9.0973914508
 30
0.0
 10
10.159327081
 20
9.1357288473
 30
0.0
 10
10.1733676152
 20
9.1862027584
 30
0.0
 10
10.1911168622
 20
9.2355881372
 30
0.0
 10
10.2124125108
 20
9.2834620396
 30
0.0
 10
10.2301352627
 20
9.3185533249
 30
0.0
 10
10.2495634505
 20
9.3527313792
 30
0.0
 10
10.2706454966
 20
9.3859182334
 30
0.0
 10
10.2933330791
 20
9.4180336747
 30
0.0
 10
10.3256470047
 20
9.4593114802
 30
0.0
 10
10.3697814139
 20
9.5078720413
 30
0.0
 10
10.4184729446
 20
9.5518699927
 30
0.0
 10
10.4598557269
 20
9.5840779687
 30
0.0
 10
10.4920526901
 20
9.6066894355
 30
0.0
 10
10.5253210413
 20
9.6276969205
 30
0.0
 10
10.5595803922
 20
9.6470522633
 30
0.0
 10
10.5947525588
 20
9.6647040434
 30
0.0
 10
10.6427363287
 20
9.6859091429
 30
0.0
 10
10.6922268291
 20
9.7035705068
 30
0.0
 10
10.7428014116
 20
9.7175283661
 30
0.0
 10
10.7812148063
 20
9.7261285724
 30
0.0
 10
10.8200119323
 20
9.732826129
 30
0.0
 10
10.872097627
 20
9.7391900022
 30
0.0
 10
10.9114716688
 20
9.7411111788
 30
0.0
 10
10.9376918911
 20
9.7411377372
 30
0.0
  0
SPLINE
  5
2CB
100
AcDbEntity
  8
0
100
AcDbSpline
 62
9
  6
CONTINUOUS
 70
0
 71
3
 72
15
 73
11
 74
0
 42
0.0000001
 43
0.0000001
 44
0.0000000001
 40
0.0
 40
0.0
 40
0.0
 40
0.0
 40
0.3349260665
 40
0.4966505242
 40
0.6448833432
 40
0.7727175696
 40
0.8752591358
 40
0.9511289447
 40
0.9788245639
 40
1.0
 40
1.0
 40
1.0
 40
1.0
 10
11.090340587
 20
7.9655903116
 30
0.0
 10
11.0938206444
 20
7.9656830257
 30
0.0
 10
11.0989826171
 20
7.9657730268
 30
0.0
 10
11.1056858136
 20
7.9657786475
 30
0.0
 10
11.1102360833
 20
7.9657229234
 30
0.0
 10
11.1141702249
 20
7.9656130112
 30
0.0
 10
11.1173493491
 20
7.9654501615
 30
0.0
 10
11.1194855343
 20
7.9652752639
 30
0.0
 10
11.1207712235
 20
7.9651060659
 30
0.0
 10
11.1212716373
 20
7.965016372
 30
0.0
 10
11.1214863756
 20
7.9649680777
 30
0.0
  0
LINE
  5
2CC
100
AcDbEntity
  8
0
100
AcDbLine
 62
9
  6
CONTINUOUS
 10
11.1214863756
 20
7.9649680777
 11
11.1223199316
 21
7.964606469
  0
SPLINE
  5
2CD
100
AcDbEntity
  8
0
100
AcDbSpline
 62
9
  6
CONTINUOUS
 70
0
 71
3
 72
18
 73
14
 74
0
 42
0.0000001
 43
0.0000001
 44
0.0000000001
 40
0.0
 40
0.0
 40
0.0
 40
0.0
 40
0.0182951591
 40
0.0443162959
 40
0.0778487368
 40
0.1186451318
 40
0.1663475597
 40
0.2205486481
 40
0.3466932908
 40
0.4927965119
 40
0.6540247029
 40
0.8251604391
 40
1.0
 40
1.0
 40
1.0
 40
1.0
 10
11.1355138724
 20
6.2604870541
 30
0.0
 10
11.1354521268
 20
6.2607871707
 30
0.0
 10
11.1353447718
 20
6.2615223596
 30
0.0
 10
11.1352035958
 20
6.2628183569
 30
0.0
 10
11.1350599329
 20
6.2644930412
 30
0.0
 10
11.1349128755
 20
6.2665314893
 30
0.0
 10
11.1347651301
 20
6.2689168661
 30
0.0
 10
11.1345596975
 20
6.272730654
 30
0.0
 10
11.1343229635
 20
6.2781929508
 30
0.0
 10
11.1340767208
 20
6.2854485839
 30
0.0
 10
11.1338671083
 20
6.2934591665
 30
0.0
 10
11.1337091774
 20
6.3019522792
 30
0.0
 10
11.1336398413
 20
6.3077462086
 30
0.0
 10
11.1336129842
 20
6.3106742522
 30
0.0
  0
SPLINE
  5
2CE
100
AcDbEntity
  8
0
100
AcDbSpline
 62
9
  6
CONTINUOUS
 70
0
 71
3
 72
18
 73
14
 74
0
 42
0.0000001
 43
0.0000001
 44
0.0000000001
 40
0.0
 40
0.0
 40
0.0
 40
0.0
 40
0.1753868431
 40
0.3526604773
 40
0.5227081307
 40
0.6759254645
 40
0.8035983496
 40
0.856327363
 40
0.9010400652
 40
0.9374268986
 40
0.9657494298
 40
0.986436496
 40
1.0
 40
1.0
 40
1.0
 40
1.0
 10
11.1336128418
 20
6.3106797715
 30
0.0
 10
11.1354744718
 20
6.3107275816
 30
0.0
 10
11.1392182831
 20
6.3108043166
 30
0.0
 10
11.1447681952
 20
6.3108597663
 30
0.0
 10
11.1500830286
 20
6.3108461108
 30
0.0
 10
11.1548705349
 20
6.3107650854
 30
0.0
 10
11.1584109317
 20
6.3106350304
 30
0.0
 10
11.1607970113
 20
6.3104927868
 30
0.0
 10
11.1622138238
 20
6.3103815363
 30
0.0
 10
11.1633692404
 20
6.3102598268
 30
0.0
 10
11.1642676769
 20
6.3101314624
 30
0.0
 10
11.1649179622
 20
6.309998157
 30
0.0
 10
11.1652684242
 20
6.309890964
 30
0.0
 10
11.1653976629
 20
6.3098274185
 30
0.0
  0
SPLINE
  5
2CF
100
AcDbEntity
  8
0
100
AcDbSpline
 62
9
  6
CONTINUOUS
 70
0
 71
3
 72
15
 73
11
 74
0
 42
0.0000001
 43
0.0000001
 44
0.0000000001
 40
0.0
 40
0.0
 40
0.0
 40
0.0
 40
0.1131460436
 40
0.2340782607
 40
0.3615600367
 40
0.4927475991
 40
0.6250180429
 40
0.7554240771
 40
0.8809768537
 40
1.0
 40
1.0
 40
1.0
 40
1.0
 10
11.1355138656
 20
6.2604870656
 30
0.0
 10
11.1374182811
 20
6.2605165428
 30
0.0
 10
11.1413604598
 20
6.2609320615
 30
0.0
 10
11.1472337589
 20
6.2626601212
 30
0.0
 10
11.1529276789
 20
6.2656496804
 30
0.0
 10
11.1580920431
 20
6.2698032028
 30
0.0
 10
11.1622915345
 20
6.2749949325
 30
0.0
 10
11.16534391
 20
6.2808251876
 30
0.0
 10
11.1670605436
 20
6.2869430516
 30
0.0
 10
11.1673965445
 20
6.2910752547
 30
0.0
 10
11.1673634095
 20
6.2930785565
 30
0.0
  0
SPLINE
  5
2D0
100
AcDbEntity
  8
0
100
AcDbSpline
 62
9
  6
CONTINUOUS
 70
0
 71
3
 72
18
 73
14
 74
0
 42
0.0000001
 43
0.0000001
 44
0.0000000001
 40
0.0
 40
0.0
 40
0.0
 40
0.0
 40
0.1748397114
 40
0.3459759004
 40
0.5072038724
 40
0.6533065984
 40
0.7794508404
 40
0.8336517551
 40
0.8813540353
 40
0.9221503974
 40
0.9556829314
 40
0.981704318
 40
1.0
 40
1.0
 40
1.0
 40
1.0
 10
10.7417684462
 20
6.3106742522
 30
0.0
 10
10.7417416425
 20
6.3077462002
 30
0.0
 10
10.7416724107
 20
6.3019522485
 30
0.0
 10
10.7415145705
 20
6.2934591117
 30
0.0
 10
10.7413049398
 20
6.2854485188
 30
0.0
 10
10.7410586121
 20
6.2781928936
 30
0.0
 10
10.7408217551
 20
6.2727306096
 30
0.0
 10
10.7406161824
 20
6.268916834
 30
0.0
 10
10.7404683198
 20
6.2665314659
 30
0.0
 10
10.7403211272
 20
6.2644930252
 30
0.0
 10
10.7401773136
 20
6.2628183449
 30
0.0
 10
10.7400359722
 20
6.2615223489
 30
0.0
 10
10.7399284793
 20
6.2607871633
 30
0.0
 10
10.7398666513
 20
6.2604870541
 30
0.0
  0
SPLINE
  5
2D1
100
AcDbEntity
  8
0
100
AcDbSpline
 62
9
  6
CONTINUOUS
 70
0
 71
3
 72
15
 73
11
 74
0
 42
0.0000001
 43
0.0000001
 44
0.0000000001
 40
0.0
 40
0.0
 40
0.0
 40
0.0
 40
0.1165695379
 40
0.2402748368
 40
0.3695653602
 40
0.5014379804
 40
0.6330652545
 40
0.7616909745
 40
0.884457299
 40
1.0
 40
1.0
 40
1.0
 40
1.0
 10
10.7398666494
 20
6.260489608
 30
0.0
 10
10.7379048775
 20
6.2605200316
 30
0.0
 10
10.733858825
 20
6.2609593615
 30
0.0
 10
10.7278673823
 20
6.2627683895
 30
0.0
 10
10.722129052
 20
6.2658653731
 30
0.0
 10
10.7169940203
 20
6.2701034297
 30
0.0
 10
10.7128801987
 20
6.2753245663
 30
0.0
 10
10.7099364451
 20
6.2811089587
 30
0.0
 10
10.7083004993
 20
6.2871050258
 30
0.0
 10
10.7079858338
 20
6.2911302333
 30
0.0
 10
10.7080176499
 20
6.2930746978
 30
0.0
  0
SPLINE
  5
2D2
100
AcDbEntity
  8
0
100
AcDbSpline
 62
9
  6
CONTINUOUS
 70
0
 71
3
 72
50
 73
46
 74
0
 42
0.0000001
 43
0.0000001
 44
0.0000000001
 40
0.0
 40
0.0
 40
0.0
 40
0.0
 40
0.0112734322
 40
0.0165900491
 40
0.0217651236
 40
0.0268680184
 40
0.0319764486
 40
0.0371775992
 40
0.0425656402
 40
0.054266863
 40
0.067885973
 40
0.0842057327
 40
0.0936028376
 40
0.1039152204
 40
0.1152053266
 40
0.1275314091
 40
0.1409369138
 40
0.1554179867
 40
0.1875295356
 40
0.2237150746
 40
0.2639562157
 40
0.3083070205
 40
0.3567576555
 40
0.4091559887
 40
0.4647753599
 40
0.5220146512
 40
0.5792155221
 40
0.6347347209
 40
0.6870041994
 40
0.7353271147
 40
0.7795493785
 40
0.8196630392
 40
0.838197646
 40
0.8557260749
 40
0.8722392294
 40
0.8877148719
 40
0.9021322847
 40
0.9154735518
 40
0.9277370195
 40
0.9389680745
 40
0.9492249661
 40
0.9585701965
 40
0.9747985562
 40
0.9883468158
 40
1.0
 40
1.0
 40
1.0
 40
1.0
 10
11.1355139767
 20
6.2604870558
 30
0.0
 10
11.1363572228
 20
6.2590689837
 30
0.0
 10
11.1374326918
 20
6.2568696029
 30
0.0
 10
11.1383501834
 20
6.2538135458
 30
0.0
 10
11.1387493644
 20
6.2515607082
 30
0.0
 10
11.1388661477
 20
6.2493059871
 30
0.0
 10
11.1386901788
 20
6.2470507174
 30
0.0
 10
11.1382066083
 20
6.244797763
 30
0.0
 10
11.1371052609
 20
6.2417182032
 30
0.0
 10
11.1347799094
 20
6.2378180392
 30
0.0
 10
11.1305713095
 20
6.2333593114
 30
0.0
 10
11.1259275439
 20
6.2299159411
 30
0.0
 10
11.1214072912
 20
6.2271978495
 30
0.0
 10
11.1173858335
 20
6.2250920659
 30
0.0
 10
11.1128735425
 20
6.223015637
 30
0.0
 10
11.1078539854
 20
6.220971903
 30
0.0
 10
11.102319894
 20
6.2189662908
 30
0.0
 10
11.0939693061
 20
6.2162479125
 30
0.0
 10
11.082292168
 20
6.2130013254
 30
0.0
 10
11.0668169407
 20
6.2094030277
 30
0.0
 10
11.049458811
 20
6.2060478394
 30
0.0
 10
11.0302248032
 20
6.2030005771
 30
0.0
 10
11.009138192
 20
6.2003438856
 30
0.0
 10
10.9863338032
 20
6.1982197044
 30
0.0
 10
10.9621854801
 20
6.1968006158
 30
0.0
 10
10.9372958777
 20
6.1962715631
 30
0.0
 10
10.912421737
 20
6.1968344856
 30
0.0
 10
10.8883142217
 20
6.1982796987
 30
0.0
 10
10.8655642099
 20
6.2004241407
 30
0.0
 10
10.844536203
 20
6.2030951647
 30
0.0
 10
10.8253609586
 20
6.2061536039
 30
0.0
 10
10.8105791175
 20
6.2090269955
 30
0.0
 10
10.7997016312
 20
6.2114722962
 30
0.0
 10
10.7922293476
 20
6.213310212
 30
0.0
 10
10.7852313349
 20
6.2151950761
 30
0.0
 10
10.7787188578
 20
6.2171244574
 30
0.0
 10
10.7727050811
 20
6.2190945495
 30
0.0
 10
10.7672014149
 20
6.2211022619
 30
0.0
 10
10.7622120573
 20
6.2231480324
 30
0.0
 10
10.7577290547
 20
6.225226071
 30
0.0
 10
10.753735817
 20
6.2273332828
 30
0.0
 10
10.7492504153
 20
6.230052763
 30
0.0
 10
10.7446468386
 20
6.233498594
 30
0.0
 10
10.7404855593
 20
6.2379584547
 30
0.0
 10
10.738599072
 20
6.2411755032
 30
0.0
 10
10.7379395074
 20
6.2427482205
 30
0.0
  0
LINE
  5
2D3
100
AcDbEntity
  8
0
100
AcDbLine
 62
9
  6
CONTINUOUS
 10
11.244056826
 20
8.1644430294
 11
11.2435428475
 21
8.1663993813
  0
SPLINE
  5
2D4
100
AcDbEntity
  8
0
100
AcDbSpline
 62
9
  6
CONTINUOUS
 70
0
 71
3
 72
13
 73
9
 74
0
 42
0.0000001
 43
0.0000001
 44
0.0000000001
 40
0.0
 40
0.0
 40
0.0
 40
0.0
 40
0.0710189205
 40
0.1671251023
 40
0.285930786
 40
0.4212539678
 40
0.7143666366
 40
1.0
 40
1.0
 40
1.0
 40
1.0
 10
11.2435428475
 20
8.1663993813
 30
0.0
 10
11.2433084334
 20
8.1671135146
 30
0.0
 10
11.2427318606
 20
8.1687858079
 30
0.0
 10
11.2417085593
 20
8.1716336824
 30
0.0
 10
11.2404234426
 20
8.1751105072
 30
0.0
 10
11.2383845581
 20
8.1805314587
 30
0.0
 10
11.2356743247
 20
8.1875861511
 30
0.0
 10
11.2334400742
 20
8.1932892657
 30
0.0
 10
11.2323289806
 20
8.1961006448
 30
0.0
  0
SPLINE
  5
2D5
100
AcDbEntity
  8
0
100
AcDbSpline
 62
7
  6
CONTINUOUS
 70
0
 71
3
 72
33
 73
29
 74
0
 42
0.0000001
 43
0.0000001
 44
0.0000000001
 40
0.0
 40
0.0
 40
0.0
 40
0.0
 40
0.0625301577
 40
0.093819576
 40
0.1251034793
 40
0.1563814887
 40
0.187656454
 40
0.2501853032
 40
0.2814573361
 40
0.3127271141
 40
0.3439945634
 40
0.3752596362
 40
0.4065221454
 40
0.4377821745
 40
0.5002756225
 40
0.5627584719
 40
0.5940053655
 40
0.6252496542
 40
0.6564916047
 40
0.6877312598
 40
0.7189688347
 40
0.7502045616
 40
0.8126498121
 40
0.8438783578
 40
0.8751074705
 40
0.9063404986
 40
0.9375775267
 40
1.0
 40
1.0
 40
1.0
 40
1.0
 10
10.9376918911
 20
9.7411377372
 30
0.0
 10
10.9639121236
 20
9.7411111595
 30
0.0
 10
11.0032861781
 20
9.7391900047
 30
0.0
 10
11.0553718999
 20
9.7328261939
 30
0.0
 10
11.0941690478
 20
9.7261286821
 30
0.0
 10
11.1325824664
 20
9.717528516
 30
0.0
 10
11.1831570835
 20
9.7035707066
 30
0.0
 10
11.2326476217
 20
9.6859093896
 30
0.0
 10
11.2806314321
 20
9.6647043334
 30
0.0
 10
11.3158036303
 20
9.6470525838
 30
0.0
 10
11.3500630138
 20
9.627697269
 30
0.0
 10
11.3833313986
 20
9.6066898096
 30
0.0
 10
11.4155283962
 20
9.5840783662
 30
0.0
 10
11.4569112253
 20
9.5518704184
 30
0.0
 10
11.5056028158
 20
9.5078724966
 30
0.0
 10
11.5497372856
 20
9.4593119575
 30
0.0
 10
11.5820512597
 20
9.4180341651
 30
0.0
 10
11.6047388784
 20
9.3859187315
 30
0.0
 10
11.6258209604
 20
9.3527318827
 30
0.0
 10
11.6452491837
 20
9.3185538317
 30
0.0
 10
11.6629719708
 20
9.2834625477
 30
0.0
 10
11.6842676653
 20
9.2355886444
 30
0.0
 10
11.7020169565
 20
9.1862032608
 30
0.0
 10
11.7160575324
 20
9.1357293413
 30
0.0
 10
11.7247166408
 20
9.0973919367
 30
0.0
 10
11.731470494
 20
9.0586692357
 30
0.0
 10
11.7379052749
 20
9.0066813109
 30
0.0
 10
11.7398725569
 20
8.9673760395
 30
0.0
 10
11.7399242474
 20
8.941200999
 30
0.0
  0
SPLINE
  5
2D6
100
AcDbEntity
  8
0
100
AcDbSpline
 62
9
  6
CONTINUOUS
 70
0
 71
3
 72
10
 73
6
 74
0
 42
0.0000001
 43
0.0000001
 44
0.0000000001
 40
0.0
 40
0.0
 40
0.0
 40
0.0
 40
0.2363473758
 40
0.4793058112
 40
1.0
 40
1.0
 40
1.0
 40
1.0
 10
11.1707928659
 20
6.2827291844
 30
0.0
 10
11.1707599241
 20
6.283595749
 30
0.0
 10
11.1705559745
 20
6.2853505646
 30
0.0
 10
11.1696151987
 20
6.2889063152
 30
0.0
 10
11.1683648529
 20
6.2914516516
 30
0.0
 10
11.1673632759
 20
6.293078564
 30
0.0
  0
SPLINE
  5
2D7
100
AcDbEntity
  8
0
100
AcDbSpline
 62
9
  6
CONTINUOUS
 70
0
 71
3
 72
15
 73
11
 74
0
 42
0.0000001
 43
0.0000001
 44
0.0000000001
 40
0.0
 40
0.0
 40
0.0
 40
0.0
 40
0.1249243899
 40
0.2498579762
 40
0.3748094459
 40
0.4997860222
 40
0.62479256
 40
0.7498312705
 40
0.874901596
 40
1.0
 40
1.0
 40
1.0
 40
1.0
 10
11.7399242474
 20
8.941200999
 30
0.0
 10
11.739934381
 20
8.9013619067
 30
0.0
 10
11.7339809133
 20
8.8215508501
 30
0.0
 10
11.7073177244
 20
8.7045972106
 30
0.0
 10
11.6635087816
 20
8.5928824129
 30
0.0
 10
11.6035321567
 20
8.4889295317
 30
0.0
 10
11.5287261517
 20
8.3950465083
 30
0.0
 10
11.440750148
 20
8.3133218217
 30
0.0
 10
11.3415933963
 20
8.2455945868
 30
0.0
 10
11.2694424135
 20
8.2107352089
 30
0.0
 10
11.2323258955
 20
8.1961084449
 30
0.0
  0
SPLINE
  5
2D8
100
AcDbEntity
  8
0
100
AcDbSpline
 62
9
  6
CONTINUOUS
 70
0
 71
3
 72
19
 73
15
 74
0
 42
0.0000001
 43
0.0000001
 44
0.0000000001
 40
0.0
 40
0.0
 40
0.0
 40
0.0
 40
0.0625695385
 40
0.125137951
 40
0.1876930364
 40
0.2502427658
 40
0.3127828669
 40
0.3753144647
 40
0.437837863
 40
0.5003536982
 40
0.6252765219
 40
0.7501872669
 40
0.8750911455
 40
1.0
 40
1.0
 40
1.0
 40
1.0
 10
11.2323258955
 20
8.1961084449
 30
0.0
 10
11.2267294602
 20
8.1939042896
 30
0.0
 10
11.2157226848
 20
8.1890074083
 30
0.0
 10
11.1998969296
 20
8.1802994166
 30
0.0
 10
11.1848639541
 20
8.1702853557
 30
0.0
 10
11.1707298959
 20
8.1590438907
 30
0.0
 10
11.1575796067
 20
8.1466698878
 30
0.0
 10
11.1454900188
 20
8.1332622179
 30
0.0
 10
11.1345212197
 20
8.1189258267
 30
0.0
 10
11.1214604571
 20
8.0987316549
 30
0.0
 10
11.1081260031
 20
8.0716887268
 30
0.0
 10
11.0970736715
 20
8.0372748389
 30
0.0
 10
11.0909241055
 20
8.0016717616
 30
0.0
 10
11.0900196711
 20
7.9775935901
 30
0.0
 10
11.0903405866
 20
7.965590316
 30
0.0
  0
SPLINE
  5
2D9
100
AcDbEntity
  8
0
100
AcDbSpline
 62
9
  6
CONTINUOUS
 70
0
 71
3
 72
13
 73
9
 74
0
 42
0.0000001
 43
0.0000001
 44
0.0000000001
 40
0.0
 40
0.0
 40
0.0
 40
0.0
 40
0.1263227398
 40
0.2484094669
 40
0.3684380183
 40
0.488420105
 40
0.7348219554
 40
1.0
 40
1.0
 40
1.0
 40
1.0
 10
10.7379395074
 20
6.2427482205
 30
0.0
 10
10.737637707
 20
6.243467857
 30
0.0
 10
10.7371304054
 20
6.2449214086
 30
0.0
 10
10.7366671252
 20
6.2471562984
 30
0.0
 10
10.7365063004
 20
6.2493939545
 30
0.0
 10
10.736676269
 20
6.2524012129
 30
0.0
 10
10.7376249686
 20
6.2562243644
 30
0.0
 10
10.7390283941
 20
6.2590796371
 30
0.0
 10
10.7398666503
 20
6.2604870542
 30
0.0
  0
ENDSEC
  0
SECTION
  2
OBJECTS
  0
DICTIONARY
  5
C
100
AcDbDictionary
280
0
281
1
  3
ACAD_GROUP
350
D
  3
ACAD_MLINESTYLE
350
17
  3
ACAD_LAYOUT
350
1A
  3
ACAD_PLOTSETTINGS
350
19
  3
ACAD_PLOTSTYLENAME
350
E
  0
DICTIONARY
  5
D
102
{ACAD_REACTORS
330
C
102
}
100
AcDbDictionary
280
0
281
1
  0
ACDBDICTIONARYWDFLT
  5
E
102
{ACAD_REACTORS
330
C
102
}
100
AcDbDictionary
281
1
  3
Normal
350
F
100
AcDbDictionaryWithDefault
340
F
  0
DICTIONARY
  5
17
102
{ACAD_REACTORS
330
C
102
}
100
AcDbDictionary
280
0
281
1
  3
Standard
350
18
  0
DICTIONARY
  5
19
102
{ACAD_REACTORS
330
C
102
}
100
AcDbDictionary
281
1
  0
DICTIONARY
  5
1A
102
{ACAD_REACTORS
330
C
102
}
100
AcDbDictionary
281
1
  3
Model
350
2DA
  3
Layout1
350
2DB
  0
ACDBPLACEHOLDER
  5
F
102
{ACAD_REACTORS
330
E
102
}
  0
MLINESTYLE
  5
18
102
{ACAD_REACTORS
330
17
102
}
100
AcDbMlineStyle
  2
STANDARD
 70
0
  3

 62
256
 51
90.0
 52
90.0
 71
2
 49
0.5
 62
256
  6
BYLAYER
 49
-0.5
 62
256
  6
BYLAYER
  0
LAYOUT
  5
2DA
102
{ACAD_REACTORS
330
1A
102
}
100
AcDbPlotSettings
  1

  2
none_device
  4
ANSI_C_(22.00_x_17.00_Inches)
  6

 40
0.0
 41
0.0
 42
0.0
 43
0.0
 44
558.8
 45
431.8
 46
0.0
 47
0.0
 48
0.0
 49
0.0
140
0.0
141
0.0
142
1.0
143
1.0
 70
1024
 72
0
 73
0
 74
0
  7

 75
0
147
1.0
148
0.0
149
0.0
100
AcDbLayout
  1
Model
 70
0
 71
0
 10
0.0
 20
0.0
 11
22.0
 21
17.0
 12
0.0
 22
0.0
 32
0.0
 14
0.0
 24
0.0
 34
0.0
 15
0.0
 25
0.0
 35
0.0
146
0.0
 13
0.0
 23
0.0
 33
0.0
 16
1.0
 26
0.0
 36
0.0
 17
0.0
 27
1.0
 37
0.0
 76
0
330
202
345
0
346
0
  0
LAYOUT
  5
2DB
102
{ACAD_REACTORS
330
1A
102
}
100
AcDbPlotSettings
  1

  2
none_device
  4
ANSI_C_(22.00_x_17.00_Inches)
  6

 40
0.0
 41
0.0
 42
0.0
 43
0.0
 44
558.8
 45
431.8
 46
0.0
 47
0.0
 48
0.0
 49
0.0
140
0.0
141
0.0
142
1.0
143
1.0
 70
0
 72
0
 73
0
 74
0
  7

 75
0
147
1.0
148
0.0
149
0.0
100
AcDbLayout
  1
Layout1
 70
0
 71
1
 10
0.0
 20
0.0
 11
22.0
 21
17.0
 12
0.0
 22
0.0
 32
0.0
 14
0.0
 24
0.0
 34
0.0
 15
0.0
 25
0.0
 35
0.0
146
0.0
 13
0.0
 23
0.0
 33
0.0
 16
1.0
 26
0.0
 36
0.0
 17
0.0
 27
1.0
 37
0.0
 76
0
330
203
345
0
346
0
  0
ENDSEC
  0
EOF
