999
DXF file: E:\BT Custom\CADOUTPUT\_RIGHT.dxf
999
Pro/ENGINEER 2018400 by Parametric Technology Corporation
  0
SECTION
  2
HEADER
  9
$ACADVER
  1
AC1018
  9
$DWGCODEPAGE
  3
ANSI_1252
  9
$EXTMAX
 10
22.0
 20
17.0
 30
0.0
  9
$EXTMIN
 10
0.0
 20
0.0
 30
0.0
  9
$LIMMIN
 10
0.0
 20
0.0
  9
$LIMMAX
 10
22.0
 20
17.0
  9
$VIEWCTR
 10
11.0
 20
8.5
  9
$VIEWSIZE
 40
17.0
  9
$CLAYER
  8
0
  9
$LTSCALE
 40
1.21
  9
$CELTYPE
  6
BYLAYER
  9
$DIMSCALE
 40
1.0
  9
$DIMASZ
 40
0.1
  9
$DIMEXO
 40
0.0625
  9
$DIMDLI
 40
0.836
  9
$DIMEXE
 40
0.125
  9
$DIMCEN
 40
0.198
  9
$DIMLFAC
 40
1.0
  9
$DIMBLK
  1
_FILLED
  9
$DIMALT
 70
1
  9
$DIMALTD
 70
2
  9
$DIMALTTD
 70
2
  9
$DIMALTF
 40
25.4
  9
$DIMTXT
 40
0.08
  9
$DIMTOL
 70
1
  9
$DIMLIM
 70
0
  9
$DIMTFAC
 40
1.0
  9
$DIMTP
 40
0.001
  9
$DIMTM
 40
0.001
  9
$DIMGAP
 40
0.09
  9
$DIMDSEP
 70
46
  9
$AUNITS
 70
0
  9
$PDMODE
 70
3
  9
$PDSIZE
 40
0.06
  9
$HANDSEED
  5
328
  9
$TILEMODE
 70
1
  9
$MEASUREMENT
 70
0
  9
$INSUNITS
 70
1
  0
ENDSEC
  0
SECTION
  2
CLASSES
  0
CLASS
  1
ACDBDICTIONARYWDFLT
  2
AcDbDictionaryWithDefault
  3
AutoCAD 2000
 90
0
 91
1
280
0
281
0
  0
CLASS
  1
ACDBPLACEHOLDER
  2
AcDbPlaceHolder
  3
AutoCAD 2000
 90
0
 91
1
280
0
281
0
  0
CLASS
  1
LAYOUT
  2
AcDbLayout
  3
AutoCAD 2000
 90
0
 91
0
280
0
281
0
  0
ENDSEC
  0
SECTION
  2
TABLES
  0
TABLE
  2
VPORT
  5
8
100
AcDbSymbolTable
 70
2
  0
VPORT
  5
1F4
100
AcDbSymbolTableRecord
100
AcDbViewportTableRecord
  2
*ACTIVE
 70
0
 10
0.0
 20
0.0
 11
1.0
 21
1.0
 12
11.0
 22
8.5
 13
0.0
 23
0.0
 14
1.0
 24
1.0
 15
0.0
 25
0.0
 16
0.0
 26
0.0
 36
1.0
 17
0.0
 27
0.0
 37
0.0
 40
17.0
 41
1.2941176471
 42
50.0
 43
0.0
 44
0.0
 50
0.0
 51
0.0
 71
0
 72
100
 73
1
 74
1
 75
0
 76
0
 77
0
 78
0
  0
ENDTAB
  0
TABLE
  2
LTYPE
  5
5
100
AcDbSymbolTable
 70
6
  0
LTYPE
  5
14
100
AcDbSymbolTableRecord
100
AcDbLinetypeTableRecord
  2
BYBLOCK
 70
0
  3

 72
65
 73
0
 40
0.0
  0
LTYPE
  5
15
100
AcDbSymbolTableRecord
100
AcDbLinetypeTableRecord
  2
BYLAYER
 70
0
  3

 72
65
 73
0
 40
0.0
  0
LTYPE
  5
16
100
AcDbSymbolTableRecord
100
AcDbLinetypeTableRecord
  2
CONTINUOUS
 70
64
  3
Solid line
 72
65
 73
0
 40
0.0
  0
LTYPE
  5
1F5
100
AcDbSymbolTableRecord
100
AcDbLinetypeTableRecord
  2
CENTER
 70
64
  3
____ _ ____ _ ____ _ ____ _ ____ _ ____ _ ____
 72
65
 73
4
 40
0.6
 49
0.375
 74
0
 49
-0.075
 74
0
 49
0.075
 74
0
 49
-0.075
 74
0
  0
LTYPE
  5
1F6
100
AcDbSymbolTableRecord
100
AcDbLinetypeTableRecord
  2
HIDDEN
 70
64
  3
- - - - - - - - - - - - - - - - - - - -
 72
65
 73
2
 40
0.2
 49
0.1
 74
0
 49
-0.1
 74
0
  0
LTYPE
  5
1F7
100
AcDbSymbolTableRecord
100
AcDbLinetypeTableRecord
  2
PHANTOM
 70
64
  3
_____ _ _ _____ _ _ _____ _ _ _____
 72
65
 73
6
 40
0.8
 49
0.45
 74
0
 49
-0.05
 74
0
 49
0.1
 74
0
 49
-0.05
 74
0
 49
0.1
 74
0
 49
-0.05
 74
0
  0
LTYPE
  5
1F8
100
AcDbSymbolTableRecord
100
AcDbLinetypeTableRecord
  2
DOT
 70
64
  3
. . . . . . . . . . . . . . . . . . . .
 72
65
 73
2
 40
0.2
 49
0.1
 74
0
 49
-0.1
 74
0
  0
LTYPE
  5
1F9
100
AcDbSymbolTableRecord
100
AcDbLinetypeTableRecord
  2
DASHED
 70
64
  3
- - - - - - - - - - - - - - - - - - - -
 72
65
 73
2
 40
0.2
 49
0.1
 74
0
 49
-0.1
 74
0
  0
ENDTAB
  0
TABLE
  2
LAYER
  5
2
100
AcDbSymbolTable
 70
36
  0
LAYER
  5
10
100
AcDbSymbolTableRecord
100
AcDbLayerTableRecord
  2
0
 70
0
 62
7
  6
CONTINUOUS
370
-3
390
F
  0
LAYER
  5
1FA
100
AcDbSymbolTableRecord
100
AcDbLayerTableRecord
  2
DEFAULT_1
 70
0
 62
7
  6
CENTER
370
-3
390
F
  0
LAYER
  5
1FB
100
AcDbSymbolTableRecord
100
AcDbLayerTableRecord
  2
DEFAULT_2
 70
0
 62
8
  6
HIDDEN
370
-3
390
F
  0
LAYER
  5
1FC
100
AcDbSymbolTableRecord
100
AcDbLayerTableRecord
  2
DEFAULT_3
 70
0
 62
7
  6
PHANTOM
370
-3
390
F
  0
LAYER
  5
1FD
100
AcDbSymbolTableRecord
100
AcDbLayerTableRecord
  2
ALL_FEATURES
 70
0
 62
7
  6
CONTINUOUS
370
-3
390
F
  0
LAYER
  5
1FE
100
AcDbSymbolTableRecord
100
AcDbLayerTableRecord
  2
AXES_FEATURES
 70
0
 62
7
  6
CONTINUOUS
370
-3
390
F
  0
LAYER
  5
1FF
100
AcDbSymbolTableRecord
100
AcDbLayerTableRecord
  2
DIMENSIONS
 70
0
 62
7
  6
CONTINUOUS
370
-3
390
F
  0
ENDTAB
  0
TABLE
  2
STYLE
  5
3
100
AcDbSymbolTable
 70
1
  0
STYLE
  5
11
100
AcDbSymbolTableRecord
100
AcDbTextStyleTableRecord
  2
STANDARD
 70
0
 40
0.0
 41
0.8
 50
0.0
 71
0
 42
0.2
  3
txt
  4

  0
STYLE
  5
200
100
AcDbSymbolTableRecord
100
AcDbTextStyleTableRecord
  2
TEXTSTYLE_1
 70
0
 40
0.0
 41
0.8
 50
0.0
 71
0
 42
0.2
  3
gdt
  4

  0
ENDTAB
  0
TABLE
  2
VIEW
  5
6
100
AcDbSymbolTable
 70
0
  0
ENDTAB
  0
TABLE
  2
UCS
  5
7
100
AcDbSymbolTable
 70
0
  0
ENDTAB
  0
TABLE
  2
APPID
  5
9
100
AcDbSymbolTable
 70
1
  0
APPID
  5
201
100
AcDbSymbolTableRecord
100
AcDbRegAppTableRecord
  2
ACAD
 70
0
  0
ENDTAB
  0
TABLE
  2
BLOCK_RECORD
  5
1
100
AcDbSymbolTable
 70
0
  0
BLOCK_RECORD
  5
202
100
AcDbSymbolTableRecord
100
AcDbBlockTableRecord
  2
*Model_Space
  0
BLOCK_RECORD
  5
203
100
AcDbSymbolTableRecord
100
AcDbBlockTableRecord
  2
*Paper_Space
  0
BLOCK_RECORD
  5
204
100
AcDbSymbolTableRecord
100
AcDbBlockTableRecord
  2
_FILLED
  0
ENDTAB
  0
TABLE
  2
DIMSTYLE
  5
A
100
AcDbSymbolTable
 70
1
100
AcDbDimStyleTable
 71
0
  0
DIMSTYLE
105
205
100
AcDbSymbolTableRecord
100
AcDbDimStyleTableRecord
  2
STANDARD
 70
0
  3

  4

 40
1.0
 41
0.1
 42
0.0625
 43
0.38
 44
0.125
 45
0.0
 46
0.0
 47
0.001
 48
0.001
140
0.08
141
0.09
142
0.0
143
25.4
144
1.0
145
0.0
146
1.0
147
0.09
 71
1.0
 72
0.0
 73
1
 74
1
 75
0
 76
0
 77
0
 78
4
 79
1
170
1
171
2
172
0
173
0
174
0
175
0
176
0
177
0
178
0
270
2
179
3
271
3
272
3
273
2
274
2
275
0
280
0
281
0
282
0
283
1
284
4
285
0
286
0
287
3
288
0
340
11
278
46
341
204
342
204
343
204
344
204
  0
ENDTAB
  0
ENDSEC
  0
SECTION
  2
BLOCKS
  0
BLOCK
  5
20
100
AcDbEntity
  8
0
100
AcDbBlockBegin
  2
*Model_Space
 70
0
 10
0.0
 20
0.0
 30
0.0
  3
*Model_Space
  1

  0
ENDBLK
  5
21
100
AcDbEntity
  8
0
100
AcDbBlockEnd
  0
BLOCK
  5
1C
100
AcDbEntity
  8
0
100
AcDbBlockBegin
  2
*Paper_Space
 70
0
 10
0.0
 20
0.0
 30
0.0
  3
*Paper_Space
  1

  0
ENDBLK
  5
1D
100
AcDbEntity
  8
0
100
AcDbBlockEnd
  0
BLOCK
  5
206
100
AcDbEntity
  8
0
100
AcDbBlockBegin
  2
_FILLED
 70
64
 10
0.0
 20
0.0
  3
_FILLED
  1

  0
SOLID
  5
207
100
AcDbEntity
  8
0
  6
BYBLOCK
 62
0
100
AcDbTrace
 10
0.0
 20
0.0
 11
-1.0
 21
0.2
 12
-1.0
 22
-0.2
 13
-1.0
 23
-0.2
  0
ENDBLK
  5
208
100
AcDbEntity
  8
0
  6
BYBLOCK
 62
0
100
AcDbBlockEnd
  0
ENDSEC
  0
SECTION
  2
ENTITIES
  0
LINE
  5
209
100
AcDbEntity
  8
0
100
AcDbLine
 62
7
  6
CONTINUOUS
 10
-3.0558765049
 20
5.9706177955
 11
-3.0766470439
 21
7.7943575645
  0
LINE
  5
20A
100
AcDbEntity
  8
0
100
AcDbLine
 62
7
  6
CONTINUOUS
 10
-3.3228794376
 20
9.4833600391
 11
-3.5248840516
 21
6.0528965541
  0
LWPOLYLINE
  5
20B
100
AcDbEntity
  8
0
100
AcDbPolyline
 62
7
  6
CONTINUOUS
 90
6
 70
0
 10
-3.0766438177
 20
7.7943614984
 10
-3.073390421
 20
7.8318091203
 10
-3.0607082284
 20
7.8731618428
 10
-3.0390861563
 20
7.9106335
 10
-3.0096485464
 20
7.9422912796
 10
-2.9739406293
 20
7.9665256314
  0
LINE
  5
20C
100
AcDbEntity
  8
0
100
AcDbLine
 62
9
  6
CONTINUOUS
 10
-2.1938974704
 20
8.3671753013
 11
-2.2235489976
 21
8.8648002227
  0
LINE
  5
20D
100
AcDbEntity
  8
0
100
AcDbLine
 62
9
  6
CONTINUOUS
 10
-2.2236377696
 20
8.8662900322
 11
-2.2533780688
 21
9.3654047631
  0
LINE
  5
20E
100
AcDbEntity
  8
0
100
AcDbLine
 62
7
  6
CONTINUOUS
 10
-2.1850885272
 20
8.219330336
 11
-2.2620322771
 21
9.5106434782
  0
LINE
  5
20F
100
AcDbEntity
  8
0
100
AcDbLine
 62
7
  6
CONTINUOUS
 10
-2.2418825757
 20
9.5087264572
 11
-2.1657483628
 21
8.2310087399
  0
LINE
  5
210
100
AcDbEntity
  8
0
100
AcDbLine
 62
7
  6
CONTINUOUS
 10
-1.7931489702
 20
8.0888384498
 11
-1.7931489702
 21
7.9949796442
  0
LWPOLYLINE
  5
211
100
AcDbEntity
  8
0
100
AcDbPolyline
 62
7
  6
CONTINUOUS
 90
7
 70
0
 10
-2.1657475928
 20
8.2309958186
 10
-2.1642503568
 20
8.2245070939
 10
-2.1607083437
 20
8.2188724976
 10
-2.1555127412
 20
8.214711675
 10
-2.1492387935
 20
8.2124862575
 10
-2.1425937253
 20
8.212441358
 10
-2.1394699612
 20
8.2132079334
  0
LINE
  5
212
100
AcDbEntity
  8
0
100
AcDbLine
 62
7
  6
CONTINUOUS
 10
-0.7931489702
 20
7.9949796442
 11
-0.7931489702
 21
8.2853933838
  0
LINE
  5
213
100
AcDbEntity
  8
0
100
AcDbLine
 62
7
  6
CONTINUOUS
 10
-0.0431489702
 20
8.7970414264
 11
-0.0431489702
 21
9.5099634887
  0
LINE
  5
214
100
AcDbEntity
  8
0
100
AcDbLine
 62
9
  6
CONTINUOUS
 10
-0.0231489702
 20
9.5299796442
 11
-0.0231489702
 21
8.7799796442
  0
LINE
  5
215
100
AcDbEntity
  8
0
100
AcDbLine
 62
7
  6
CONTINUOUS
 10
-0.0442256483
 20
8.7905674664
 11
-0.0431489702
 21
8.7970410276
  0
LINE
  5
216
100
AcDbEntity
  8
0
100
AcDbLine
 62
9
  6
CONTINUOUS
 10
5.8118510298
 20
8.7799796442
 11
5.8118510298
 21
9.5299796442
  0
LINE
  5
217
100
AcDbEntity
  8
0
100
AcDbLine
 62
7
  6
CONTINUOUS
 10
5.8318510298
 20
9.5099796336
 11
5.8318510298
 21
8.7999796548
  0
LINE
  5
218
100
AcDbEntity
  8
0
100
AcDbLine
 62
9
  6
CONTINUOUS
 10
5.8518510298
 20
9.5299796442
 11
5.8518510298
 21
8.7799796442
  0
LINE
  5
219
100
AcDbEntity
  8
0
100
AcDbLine
 62
9
  6
CONTINUOUS
 10
5.8938699652
 20
8.8706051283
 11
5.8938510298
 21
9.5299796442
  0
LINE
  5
21A
100
AcDbEntity
  8
0
100
AcDbLine
 62
9
  6
CONTINUOUS
 10
5.8938510298
 20
8.7799796442
 11
5.8938699652
 21
8.8706051283
  0
LINE
  5
21B
100
AcDbEntity
  8
0
100
AcDbLine
 62
7
  6
CONTINUOUS
 10
-3.4847113006
 20
6.0027093561
 11
-3.0930469409
 21
5.9386772427
  0
LINE
  5
21C
100
AcDbEntity
  8
0
100
AcDbLine
 62
7
  6
CONTINUOUS
 10
6.4518510298
 20
10.3999796442
 11
6.4518510298
 21
10.3539972506
  0
LINE
  5
21D
100
AcDbEntity
  8
0
100
AcDbLine
 62
7
  6
CONTINUOUS
 10
6.4518510298
 20
10.4599796442
 11
6.4518510298
 21
12.0215243612
  0
LINE
  5
21E
100
AcDbEntity
  8
0
100
AcDbLine
 62
7
  6
CONTINUOUS
 10
6.5943510298
 20
10.4399796442
 11
6.5943510298
 21
10.4199796442
  0
LINE
  5
21F
100
AcDbEntity
  8
0
100
AcDbLine
 62
7
  6
CONTINUOUS
 10
-2.9739406293
 20
7.9665256314
 11
-2.9397731344
 21
7.9804662347
  0
LINE
  5
220
100
AcDbEntity
  8
0
100
AcDbLine
 62
7
  6
CONTINUOUS
 10
7.5293510298
 20
10.4399796442
 11
7.5293510298
 21
10.4199796442
  0
LINE
  5
221
100
AcDbEntity
  8
0
100
AcDbLine
 62
7
  6
CONTINUOUS
 10
7.6718510298
 20
10.3999796442
 11
7.6718510298
 21
8.8384349272
  0
LINE
  5
222
100
AcDbEntity
  8
0
100
AcDbLine
 62
7
  6
CONTINUOUS
 10
7.6718510298
 20
10.4599796442
 11
7.6718510298
 21
10.5059620378
  0
LINE
  5
223
100
AcDbEntity
  8
0
100
AcDbLine
 62
7
  6
CONTINUOUS
 10
-2.1394699367
 20
8.2132079108
 11
-1.9519205458
 21
8.2753595069
  0
LINE
  5
224
100
AcDbEntity
  8
0
100
AcDbLine
 62
7
  6
CONTINUOUS
 10
-2.9397790696
 20
7.9804497052
 11
-2.1964468862
 21
8.2030426618
  0
LINE
  5
225
100
AcDbEntity
  8
0
100
AcDbLine
 62
7
  6
CONTINUOUS
 10
19.5872873726
 20
8.0283042443
 11
20.3425434203
 21
8.2062892485
  0
LWPOLYLINE
  5
226
100
AcDbEntity
  8
0
100
AcDbPolyline
 62
7
  6
CONTINUOUS
 90
7
 70
0
 10
-3.0930483748
 20
5.9386774771
 10
-3.0828915431
 20
5.9386519433
 10
-3.0732423168
 20
5.9418117549
 10
-3.0650661986
 20
5.9478401583
 10
-3.0591899024
 20
5.9561306357
 10
-3.0562098591
 20
5.9658321381
 10
-3.0559036486
 20
5.9706173825
  0
LINE
  5
227
100
AcDbEntity
  8
0
100
AcDbLine
 62
9
  6
CONTINUOUS
 10
8.2298320945
 20
11.9893541602
 11
8.2298510298
 21
11.3299796442
  0
LINE
  5
228
100
AcDbEntity
  8
0
100
AcDbLine
 62
9
  6
CONTINUOUS
 10
8.2718510298
 20
11.3299796442
 11
8.2718510298
 21
12.0799796442
  0
LINE
  5
229
100
AcDbEntity
  8
0
100
AcDbLine
 62
7
  6
CONTINUOUS
 10
8.2918510298
 20
12.0599724115
 11
8.2918510298
 21
11.3499868769
  0
LINE
  5
22A
100
AcDbEntity
  8
0
100
AcDbLine
 62
9
  6
CONTINUOUS
 10
8.3118510298
 20
12.0799796442
 11
8.3118510298
 21
11.3299796442
  0
LINE
  5
22B
100
AcDbEntity
  8
0
100
AcDbLine
 62
9
  6
CONTINUOUS
 10
8.2298510299
 20
12.0799796442
 11
8.2298320945
 21
11.9893541602
  0
LWPOLYLINE
  5
22C
100
AcDbEntity
  8
0
100
AcDbPolyline
 62
7
  6
CONTINUOUS
 90
7
 70
0
 10
19.3128436027
 20
5.999263602
 10
19.3229809325
 20
5.9986339789
 10
19.332801022
 20
6.0012142542
 10
19.3413212371
 20
6.0067456637
 10
19.3476802516
 20
6.0146719369
 10
19.3512320699
 20
6.0241790077
 10
19.3518223674
 20
6.028937566
  0
LINE
  5
22D
100
AcDbEntity
  8
0
100
AcDbLine
 62
9
  6
CONTINUOUS
 10
20.3412983
 20
8.8685401595
 11
19.236375669
 21
8.7511851207
  0
LINE
  5
22E
100
AcDbEntity
  8
0
100
AcDbLine
 62
7
  6
CONTINUOUS
 10
24.3448510298
 20
7.6729796442
 11
24.3248510298
 21
7.6729796442
  0
LINE
  5
22F
100
AcDbEntity
  8
0
100
AcDbLine
 62
7
  6
CONTINUOUS
 10
-1.7831489702
 20
7.9849796442
 11
-0.8031489702
 21
7.9849796442
  0
LINE
  5
230
100
AcDbEntity
  8
0
100
AcDbLine
 62
9
  6
CONTINUOUS
 10
-1.7931489702
 20
7.9949796442
 11
-0.7931489702
 21
7.9949796442
  0
LINE
  5
231
100
AcDbEntity
  8
0
100
AcDbLine
 62
7
  6
CONTINUOUS
 10
18.9256827855
 20
6.0864784552
 11
19.3128450201
 21
5.9992632827
  0
LINE
  5
232
100
AcDbEntity
  8
0
100
AcDbLine
 62
7
  6
CONTINUOUS
 10
22.3498928943
 20
9.611699448
 11
22.3498725149
 21
9.611697406
  0
LINE
  5
233
100
AcDbEntity
  8
0
100
AcDbLine
 62
7
  6
CONTINUOUS
 10
22.3498725142
 20
9.6116974059
 11
22.3498883078
 21
9.6116988324
  0
LWPOLYLINE
  5
234
100
AcDbEntity
  8
0
100
AcDbPolyline
 62
7
  6
CONTINUOUS
 90
4
 70
0
 10
22.3498721316
 20
9.6117118324
 10
22.2952890956
 20
9.6071555576
 10
22.2305191467
 20
9.6095048514
 10
22.1713529587
 20
9.6222915064
  0
LINE
  5
235
100
AcDbEntity
  8
0
100
AcDbLine
 62
7
  6
CONTINUOUS
 10
20.4811044586
 20
9.5295173619
 11
20.4810938736
 21
9.5295165616
  0
LINE
  5
236
100
AcDbEntity
  8
0
100
AcDbLine
 62
9
  6
CONTINUOUS
 10
7.0467320953
 20
8.838429044
 11
7.0386271959
 21
8.8384173447
  0
LINE
  5
237
100
AcDbEntity
  8
0
100
AcDbLine
 62
7
  6
CONTINUOUS
 10
6.5518510298
 20
8.7784349272
 11
7.6118459188
 21
8.7784349272
  0
LINE
  5
238
100
AcDbEntity
  8
0
100
AcDbLine
 62
7
  6
CONTINUOUS
 10
5.8118510298
 20
8.7799796442
 11
-0.0231489702
 21
8.7799796442
  0
LINE
  5
239
100
AcDbEntity
  8
0
100
AcDbLine
 62
7
  6
CONTINUOUS
 10
5.8518510298
 20
8.7799796442
 11
5.8938510297
 21
8.7799796442
  0
LINE
  5
23A
100
AcDbEntity
  8
0
100
AcDbLine
 62
9
  6
CONTINUOUS
 10
6.5845154784
 20
8.7884349272
 11
6.7940964635
 21
8.7884349272
  0
LINE
  5
23B
100
AcDbEntity
  8
0
100
AcDbLine
 62
9
  6
CONTINUOUS
 10
7.0467326247
 20
8.8384349272
 11
7.6718510298
 21
8.8384349272
  0
LINE
  5
23C
100
AcDbEntity
  8
0
100
AcDbLine
 62
7
  6
CONTINUOUS
 10
22.2098510298
 20
8.1450321773
 11
21.5618510298
 21
8.1926559277
  0
LINE
  5
23D
100
AcDbEntity
  8
0
100
AcDbLine
 62
9
  6
CONTINUOUS
 10
-2.1811860287
 20
8.8711021603
 11
-2.2038088287
 21
8.8697561037
  0
LINE
  5
23E
100
AcDbEntity
  8
0
100
AcDbLine
 62
7
  6
CONTINUOUS
 10
-2.2782128011
 20
9.5257169051
 11
-3.2913176482
 21
9.5135135287
  0
LINE
  5
23F
100
AcDbEntity
  8
0
100
AcDbLine
 62
7
  6
CONTINUOUS
 10
-2.2218786917
 20
9.5299796442
 11
-0.0631489702
 21
9.5299796442
  0
LINE
  5
240
100
AcDbEntity
  8
0
100
AcDbLine
 62
7
  6
CONTINUOUS
 10
5.8118510298
 20
9.5299796442
 11
-0.0231489702
 21
9.5299796442
  0
LINE
  5
241
100
AcDbEntity
  8
0
100
AcDbLine
 62
7
  6
CONTINUOUS
 10
5.8518510298
 20
9.5299796442
 11
5.8938510298
 21
9.5299796442
  0
LINE
  5
242
100
AcDbEntity
  8
0
100
AcDbLine
 62
7
  6
CONTINUOUS
 10
24.3448510298
 20
10.0669796442
 11
24.3248510298
 21
10.0669796442
  0
LINE
  5
243
100
AcDbEntity
  8
0
100
AcDbLine
 62
9
  6
CONTINUOUS
 10
-0.0431489702
 20
9.153600555
 11
-0.0605292638
 21
9.1536014474
  0
LINE
  5
244
100
AcDbEntity
  8
0
100
AcDbLine
 62
7
  6
CONTINUOUS
 10
22.2516604134
 20
9.6087374835
 11
22.2305181132
 21
9.6095045024
  0
LINE
  5
245
100
AcDbEntity
  8
0
100
AcDbLine
 62
7
  6
CONTINUOUS
 10
20.3395957304
 20
9.5314851321
 11
19.32755876
 21
9.5795634448
  0
LWPOLYLINE
  5
246
100
AcDbEntity
  8
0
100
AcDbPolyline
 62
7
  6
CONTINUOUS
 90
3
 70
0
 10
-0.4764243952
 20
8.6979592307
 10
-0.4335923677
 20
8.7071931633
 10
-0.059971142
 20
8.7772938658
  0
LWPOLYLINE
  5
247
100
AcDbEntity
  8
0
100
AcDbPolyline
 62
7
  6
CONTINUOUS
 90
5
 70
0
 10
-0.0599710465
 20
8.7772953323
 10
-0.0581162325
 20
8.7776847997
 10
-0.0521312438
 20
8.7803495998
 10
-0.0473330731
 20
8.7847995325
 10
-0.0442256483
 20
8.7905674664
  0
LINE
  5
248
100
AcDbEntity
  8
0
100
AcDbLine
 62
9
  6
CONTINUOUS
 10
-2.2370808823
 20
8.8640469717
 11
-3.3330668577
 21
8.6811782552
  0
LINE
  5
249
100
AcDbEntity
  8
0
100
AcDbLine
 62
9
  6
CONTINUOUS
 10
22.0118510298
 20
10.3999796442
 11
20.7818510298
 21
10.3999796442
  0
LINE
  5
24A
100
AcDbEntity
  8
0
100
AcDbLine
 62
9
  6
CONTINUOUS
 10
7.6718510298
 20
10.3999796442
 11
6.4518510298
 21
10.3999796442
  0
LINE
  5
24B
100
AcDbEntity
  8
0
100
AcDbLine
 62
7
  6
CONTINUOUS
 10
7.651851024
 20
10.4199796442
 11
6.4718510357
 21
10.4199796442
  0
LINE
  5
24C
100
AcDbEntity
  8
0
100
AcDbLine
 62
7
  6
CONTINUOUS
 10
20.8018510298
 20
10.4199796442
 11
21.9918510298
 21
10.4199796442
  0
LINE
  5
24D
100
AcDbEntity
  8
0
100
AcDbLine
 62
7
  6
CONTINUOUS
 10
6.4718510298
 20
10.4399796442
 11
7.6518510298
 21
10.4399796442
  0
LINE
  5
24E
100
AcDbEntity
  8
0
100
AcDbLine
 62
7
  6
CONTINUOUS
 10
20.8068510298
 20
10.4399796442
 11
21.9868510298
 21
10.4399796442
  0
LINE
  5
24F
100
AcDbEntity
  8
0
100
AcDbLine
 62
9
  6
CONTINUOUS
 10
6.4518510298
 20
10.4599796442
 11
7.6718510298
 21
10.4599796442
  0
LINE
  5
250
100
AcDbEntity
  8
0
100
AcDbLine
 62
9
  6
CONTINUOUS
 10
20.7868510298
 20
10.4599796442
 11
22.0068510298
 21
10.4599796442
  0
LINE
  5
251
100
AcDbEntity
  8
0
100
AcDbLine
 62
9
  6
CONTINUOUS
 10
21.3729395072
 20
12.0213972892
 11
21.3817358693
 21
12.0214891456
  0
LINE
  5
252
100
AcDbEntity
  8
0
100
AcDbLine
 62
9
  6
CONTINUOUS
 10
7.0769699644
 20
12.0215302444
 11
7.0850748638
 21
12.0215419437
  0
LINE
  5
253
100
AcDbEntity
  8
0
100
AcDbLine
 62
7
  6
CONTINUOUS
 10
8.2718510298
 20
11.3299796442
 11
8.2298510298
 21
11.3299796442
  0
LINE
  5
254
100
AcDbEntity
  8
0
100
AcDbLine
 62
7
  6
CONTINUOUS
 10
8.3118510298
 20
11.3299796442
 11
20.1468510298
 21
11.3299796442
  0
LINE
  5
255
100
AcDbEntity
  8
0
100
AcDbLine
 62
7
  6
CONTINUOUS
 10
20.1868510298
 20
11.3299796442
 11
20.2288510298
 21
11.3299796442
  0
LINE
  5
256
100
AcDbEntity
  8
0
100
AcDbLine
 62
9
  6
CONTINUOUS
 10
22.0068510298
 20
12.0215243612
 11
21.3817338356
 21
12.0215243612
  0
LINE
  5
257
100
AcDbEntity
  8
0
100
AcDbLine
 62
9
  6
CONTINUOUS
 10
7.0769694351
 20
12.0215243612
 11
6.4518510298
 21
12.0215243612
  0
LINE
  5
258
100
AcDbEntity
  8
0
100
AcDbLine
 62
7
  6
CONTINUOUS
 10
22.2305181132
 20
9.6095045024
 11
22.1713523996
 21
9.6222914969
  0
LINE
  5
259
100
AcDbEntity
  8
0
100
AcDbLine
 62
7
  6
CONTINUOUS
 10
19.552358085
 20
8.0164367737
 11
19.5872942805
 21
8.0283203915
  0
LINE
  5
25A
100
AcDbEntity
  8
0
100
AcDbLine
 62
7
  6
CONTINUOUS
 10
8.2718510298
 20
12.0799796442
 11
8.2298510299
 21
12.0799796442
  0
LINE
  5
25B
100
AcDbEntity
  8
0
100
AcDbLine
 62
7
  6
CONTINUOUS
 10
8.3118510298
 20
12.0799796442
 11
20.1468510298
 21
12.0799796442
  0
LINE
  5
25C
100
AcDbEntity
  8
0
100
AcDbLine
 62
7
  6
CONTINUOUS
 10
20.1868510298
 20
12.0799796442
 11
20.2288510297
 21
12.0799796442
  0
LINE
  5
25D
100
AcDbEntity
  8
0
100
AcDbLine
 62
7
  6
CONTINUOUS
 10
21.9468459237
 20
12.0815243612
 11
21.3758761459
 21
12.0815243612
  0
LINE
  5
25E
100
AcDbEntity
  8
0
100
AcDbLine
 62
7
  6
CONTINUOUS
 10
7.0962147247
 20
12.0815295677
 11
6.511856136
 21
12.0815243612
  0
LWPOLYLINE
  5
25F
100
AcDbEntity
  8
0
100
AcDbPolyline
 62
7
  6
CONTINUOUS
 90
6
 70
0
 10
21.3758415488
 20
12.081524277
 10
21.3622424578
 20
12.081529165
 10
21.350176722
 20
12.0814882338
 10
21.3399742665
 20
12.0814231652
 10
21.3314891436
 20
12.0813497523
 10
21.3176077006
 20
12.0811977529
  0
LINE
  5
260
100
AcDbEntity
  8
0
100
AcDbLine
 62
7
  6
CONTINUOUS
 10
7.1079451383
 20
12.0814907485
 11
7.0962147247
 21
12.0815295677
  0
LWPOLYLINE
  5
261
100
AcDbEntity
  8
0
100
AcDbPolyline
 62
7
  6
CONTINUOUS
 90
5
 70
0
 10
20.6858394506
 20
9.5859179577
 10
20.6391722238
 20
9.5582621621
 10
20.5853435973
 20
9.5403189954
 10
20.5245526486
 20
9.5311211643
 10
20.481102312
 20
9.52953931
  0
LINE
  5
262
100
AcDbEntity
  8
0
100
AcDbLine
 62
7
  6
CONTINUOUS
 10
22.1713529587
 20
9.6222915064
 11
22.1192845888
 21
9.647084676
  0
LWPOLYLINE
  5
263
100
AcDbEntity
  8
0
100
AcDbPolyline
 62
7
  6
CONTINUOUS
 90
6
 70
0
 10
20.7237168162
 20
9.6233504239
 10
20.6858386625
 20
9.5859177044
 10
20.6391708525
 20
9.558262117
 10
20.5853415983
 20
9.5403194573
 10
20.5245500501
 20
9.5311223215
 10
20.4811025797
 20
9.5295409746
  0
LINE
  5
264
100
AcDbEntity
  8
0
100
AcDbLine
 62
7
  6
CONTINUOUS
 10
22.1192845888
 20
9.647084676
 11
22.1005237054
 21
9.6609305322
  0
LINE
  5
265
100
AcDbEntity
  8
0
100
AcDbLine
 62
7
  6
CONTINUOUS
 10
19.3518494876
 20
6.0289363638
 11
19.4395928564
 21
7.8506825759
  0
LINE
  5
266
100
AcDbEntity
  8
0
100
AcDbLine
 62
7
  6
CONTINUOUS
 10
19.2942593045
 20
9.5513406572
 11
18.8885663265
 21
6.1389662942
  0
LWPOLYLINE
  5
267
100
AcDbEntity
  8
0
100
AcDbPolyline
 62
7
  6
CONTINUOUS
 90
6
 70
0
 10
19.4395963109
 20
7.8506863109
 10
19.4450713543
 20
7.8878741164
 10
19.4601907773
 20
7.9283992779
 10
19.4840034032
 20
7.9645184963
 10
19.5152719164
 20
7.994369258
 10
19.552358085
 20
8.0164367737
  0
LINE
  5
268
100
AcDbEntity
  8
0
100
AcDbLine
 62
7
  6
CONTINUOUS
 10
22.1192845888
 20
9.647084676
 11
22.0767321098
 21
9.6843851589
  0
LINE
  5
269
100
AcDbEntity
  8
0
100
AcDbLine
 62
7
  6
CONTINUOUS
 10
22.085458069
 20
9.6748508261
 11
22.1005237054
 21
9.6609305322
  0
LINE
  5
26A
100
AcDbEntity
  8
0
100
AcDbLine
 62
7
  6
CONTINUOUS
 10
22.085458069
 20
9.6748508261
 11
22.0767319994
 21
9.6843852513
  0
LINE
  5
26B
100
AcDbEntity
  8
0
100
AcDbLine
 62
9
  6
CONTINUOUS
 10
20.1468510298
 20
11.3299796442
 11
20.1468510298
 21
12.0799796442
  0
LINE
  5
26C
100
AcDbEntity
  8
0
100
AcDbLine
 62
7
  6
CONTINUOUS
 10
20.1668510298
 20
12.0599796442
 11
20.1668510298
 21
11.3499796442
  0
LINE
  5
26D
100
AcDbEntity
  8
0
100
AcDbLine
 62
9
  6
CONTINUOUS
 10
20.1868510298
 20
12.0799796442
 11
20.1868510298
 21
11.3299796442
  0
LINE
  5
26E
100
AcDbEntity
  8
0
100
AcDbLine
 62
9
  6
CONTINUOUS
 10
20.2288315149
 20
11.3299796442
 11
20.2288510297
 21
11.9893549218
  0
LINE
  5
26F
100
AcDbEntity
  8
0
100
AcDbLine
 62
9
  6
CONTINUOUS
 10
20.2288510297
 20
11.9893549218
 11
20.2288510297
 21
12.0799796442
  0
LINE
  5
270
100
AcDbEntity
  8
0
100
AcDbLine
 62
9
  6
CONTINUOUS
 10
20.3548510298
 20
8.3224796442
 11
20.3548510298
 21
8.8684871922
  0
LINE
  5
271
100
AcDbEntity
  8
0
100
AcDbLine
 62
7
  6
CONTINUOUS
 10
20.3548504695
 20
8.2218724828
 11
20.3548510298
 21
9.5154759661
  0
LINE
  5
272
100
AcDbEntity
  8
0
100
AcDbLine
 62
9
  6
CONTINUOUS
 10
20.3548510298
 20
8.8699796442
 11
20.3548510298
 21
9.4174796442
  0
LINE
  5
273
100
AcDbEntity
  8
0
100
AcDbLine
 62
7
  6
CONTINUOUS
 10
20.3748510298
 20
8.2502006034
 11
20.3748510298
 21
9.489758685
  0
LINE
  5
274
100
AcDbEntity
  8
0
100
AcDbLine
 62
9
  6
CONTINUOUS
 10
20.4150431928
 20
8.2102010443
 11
20.4150431928
 21
9.5297582441
  0
LINE
  5
275
100
AcDbEntity
  8
0
100
AcDbLine
 62
7
  6
CONTINUOUS
 10
20.7818510298
 20
9.8295164335
 11
20.7818510298
 21
10.3999796442
  0
LINE
  5
276
100
AcDbEntity
  8
0
100
AcDbLine
 62
7
  6
CONTINUOUS
 10
20.7868510298
 20
10.4599796442
 11
20.7868510298
 21
10.5059620378
  0
LINE
  5
277
100
AcDbEntity
  8
0
100
AcDbLine
 62
7
  6
CONTINUOUS
 10
20.9293510298
 20
10.4399796442
 11
20.9293510298
 21
10.4199796442
  0
LINE
  5
278
100
AcDbEntity
  8
0
100
AcDbLine
 62
7
  6
CONTINUOUS
 10
20.7818518397
 20
9.8295553443
 11
20.7818510298
 21
9.8295164335
  0
LWPOLYLINE
  5
279
100
AcDbEntity
  8
0
100
AcDbPolyline
 62
7
  6
CONTINUOUS
 90
5
 70
0
 10
20.781829269
 20
9.8295489703
 10
20.7799695794
 20
9.7840321539
 10
20.7703172972
 20
9.7233359789
 10
20.7518790645
 20
9.6696953429
 10
20.7237172431
 20
9.6233505336
  0
LINE
  5
27A
100
AcDbEntity
  8
0
100
AcDbLine
 62
7
  6
CONTINUOUS
 10
22.0767321098
 20
9.6843851589
 11
22.04540325
 21
9.732671944
  0
LINE
  5
27B
100
AcDbEntity
  8
0
100
AcDbLine
 62
9
  6
CONTINUOUS
 10
21.5618510298
 20
8.1926559277
 11
21.5618510298
 21
9.1306375864
  0
LINE
  5
27C
100
AcDbEntity
  8
0
100
AcDbLine
 62
7
  6
CONTINUOUS
 10
21.8643510298
 20
10.4399796442
 11
21.8643510298
 21
10.4199796442
  0
LINE
  5
27D
100
AcDbEntity
  8
0
100
AcDbLine
 62
7
  6
CONTINUOUS
 10
22.0068510298
 20
10.4599796442
 11
22.0068510298
 21
12.0215243612
  0
LINE
  5
27E
100
AcDbEntity
  8
0
100
AcDbLine
 62
7
  6
CONTINUOUS
 10
22.0118510298
 20
9.9092782626
 11
22.0118510298
 21
10.3999796442
  0
LINE
  5
27F
100
AcDbEntity
  8
0
100
AcDbLine
 62
9
  6
CONTINUOUS
 10
22.2098510298
 20
8.1450321773
 11
22.2098510298
 21
9.5106045734
  0
LINE
  5
280
100
AcDbEntity
  8
0
100
AcDbLine
 62
7
  6
CONTINUOUS
 10
22.04540325
 20
9.732671944
 11
22.0250760667
 21
9.7895157857
  0
LWPOLYLINE
  5
281
100
AcDbEntity
  8
0
100
AcDbPolyline
 62
7
  6
CONTINUOUS
 90
3
 70
0
 10
22.0250760667
 20
9.7895157857
 10
22.0143827093
 20
9.8532856325
 10
22.0118657034
 20
9.9092795833
  0
LINE
  5
282
100
AcDbEntity
  8
0
100
AcDbLine
 62
9
  6
CONTINUOUS
 10
24.2979629887
 20
7.6528922492
 11
24.2979629887
 21
10.0870670392
  0
LINE
  5
283
100
AcDbEntity
  8
0
100
AcDbLine
 62
7
  6
CONTINUOUS
 10
24.3248510298
 20
7.6716686962
 11
24.3248510298
 21
10.0682905923
  0
LINE
  5
284
100
AcDbEntity
  8
0
100
AcDbLine
 62
7
  6
CONTINUOUS
 10
24.3448510298
 20
7.6471430998
 11
24.3448510298
 21
10.0928161886
  0
LINE
  5
285
100
AcDbEntity
  8
0
100
AcDbLine
 62
9
  6
CONTINUOUS
 10
24.3581976045
 20
7.6282822444
 11
24.3581976045
 21
10.111677044
  0
LINE
  5
286
100
AcDbEntity
  8
0
100
AcDbLine
 62
9
  6
CONTINUOUS
 10
24.9170617019
 20
7.4117807802
 11
24.9170617019
 21
10.3281785083
  0
LINE
  5
287
100
AcDbEntity
  8
0
100
AcDbLine
 62
7
  6
CONTINUOUS
 10
24.9448510298
 20
7.4302015937
 11
24.9448510298
 21
10.3097576948
  0
ARC
  5
288
100
AcDbEntity
  8
0
100
AcDbCircle
 62
7
  6
CONTINUOUS
 10
7.6118510298
 20
8.8384349272
 40
0.06
100
AcDbArc
 50
270.0
 51
360.0
  0
ARC
  5
289
100
AcDbEntity
  8
0
100
AcDbCircle
 62
7
  6
CONTINUOUS
 10
-3.4769667306
 20
6.0500804615
 40
0.048
100
AcDbArc
 50
176.6366057394
 51
260.7150146218
  0
ARC
  5
28A
100
AcDbEntity
  8
0
100
AcDbCircle
 62
7
  6
CONTINUOUS
 10
5.8518510298
 20
8.7999796442
 40
0.02
100
AcDbArc
 50
179.9999696043
 51
270.0
  0
ARC
  5
28B
100
AcDbEntity
  8
0
100
AcDbCircle
 62
7
  6
CONTINUOUS
 10
-2.1927078584
 20
8.3472107121
 40
0.02
100
AcDbArc
 50
3.41
 51
93.41
  0
ARC
  5
28C
100
AcDbEntity
  8
0
100
AcDbCircle
 62
7
  6
CONTINUOUS
 10
-0.0231489702
 20
8.7999796442
 40
0.02
100
AcDbArc
 50
180.0
 51
270.0
  0
ARC
  5
28D
100
AcDbEntity
  8
0
100
AcDbCircle
 62
7
  6
CONTINUOUS
 10
5.8118510298
 20
8.7999796442
 40
0.02
100
AcDbArc
 50
270.0
 51
360.0
  0
ARC
  5
28E
100
AcDbEntity
  8
0
100
AcDbCircle
 62
7
  6
CONTINUOUS
 10
-2.2010604753
 20
8.2183786477
 40
0.0160002762
100
AcDbArc
 50
286.7431633506
 51
3.444726456
  0
ARC
  5
28F
100
AcDbEntity
  8
0
100
AcDbCircle
 62
7
  6
CONTINUOUS
 10
6.5518510298
 20
8.7884349272
 40
0.01
100
AcDbArc
 50
226.5673496487
 51
270.0
  0
ARC
  5
290
100
AcDbEntity
  8
0
100
AcDbCircle
 62
7
  6
CONTINUOUS
 10
-0.8031489702
 20
7.9949796442
 40
0.01
100
AcDbArc
 50
270.0
 51
360.0
  0
ARC
  5
291
100
AcDbEntity
  8
0
100
AcDbCircle
 62
7
  6
CONTINUOUS
 10
-1.7831489702
 20
7.9949796442
 40
0.01
100
AcDbArc
 50
180.0
 51
270.0
  0
ARC
  5
292
100
AcDbEntity
  8
0
100
AcDbCircle
 62
7
  6
CONTINUOUS
 10
7.0421623848
 20
11.037475404
 40
2.2590408834
100
AcDbArc
 50
268.2447260208
 51
269.9656269773
  0
ARC
  5
293
100
AcDbEntity
  8
0
100
AcDbCircle
 62
7
  6
CONTINUOUS
 10
6.5118510298
 20
12.0215243612
 40
0.06
100
AcDbArc
 50
90.0
 51
180.0
  0
ARC
  5
294
100
AcDbEntity
  8
0
100
AcDbCircle
 62
7
  6
CONTINUOUS
 10
-3.2909351799
 20
9.4814865721
 40
0.032000144
100
AcDbArc
 50
90.6941608128
 51
176.6436265296
  0
ARC
  5
295
100
AcDbEntity
  8
0
100
AcDbCircle
 62
7
  6
CONTINUOUS
 10
-0.0631568473
 20
9.5099717606
 40
0.0200081545
100
AcDbArc
 50
0.0225566155
 51
89.977442593
  0
ARC
  5
296
100
AcDbEntity
  8
0
100
AcDbCircle
 62
7
  6
CONTINUOUS
 10
6.4718510298
 20
10.3999796442
 40
0.02
100
AcDbArc
 50
89.9999832029
 51
180.0
  0
ARC
  5
297
100
AcDbEntity
  8
0
100
AcDbCircle
 62
7
  6
CONTINUOUS
 10
7.6518510298
 20
10.3999796442
 40
0.02
100
AcDbArc
 50
0.0
 51
90.0000167971
  0
ARC
  5
298
100
AcDbEntity
  8
0
100
AcDbCircle
 62
7
  6
CONTINUOUS
 10
5.8518510298
 20
9.5099796442
 40
0.02
100
AcDbArc
 50
90.0
 51
180.0000303957
  0
ARC
  5
299
100
AcDbEntity
  8
0
100
AcDbCircle
 62
7
  6
CONTINUOUS
 10
8.2718510298
 20
12.0599796442
 40
0.02
100
AcDbArc
 50
0.0
 51
90.0
  0
ARC
  5
29A
100
AcDbEntity
  8
0
100
AcDbCircle
 62
7
  6
CONTINUOUS
 10
7.6518510298
 20
10.4599796442
 40
0.02
100
AcDbArc
 50
270.0
 51
360.0
  0
ARC
  5
29B
100
AcDbEntity
  8
0
100
AcDbCircle
 62
7
  6
CONTINUOUS
 10
8.2718510298
 20
11.3499796442
 40
0.02
100
AcDbArc
 50
270.0
 51
360.0
  0
ARC
  5
29C
100
AcDbEntity
  8
0
100
AcDbCircle
 62
7
  6
CONTINUOUS
 10
6.4718510298
 20
10.4599796442
 40
0.02
100
AcDbArc
 50
180.0
 51
270.0
  0
ARC
  5
29D
100
AcDbEntity
  8
0
100
AcDbCircle
 62
7
  6
CONTINUOUS
 10
-2.2545676807
 20
9.3853693524
 40
0.02
100
AcDbArc
 50
273.41
 51
3.41
  0
ARC
  5
29E
100
AcDbEntity
  8
0
100
AcDbCircle
 62
7
  6
CONTINUOUS
 10
5.8118510298
 20
9.5099796442
 40
0.02
100
AcDbArc
 50
0.0
 51
90.0
  0
ARC
  5
29F
100
AcDbEntity
  8
0
100
AcDbCircle
 62
7
  6
CONTINUOUS
 10
-0.0231489702
 20
9.5099796442
 40
0.02
100
AcDbArc
 50
90.0
 51
180.0
  0
ARC
  5
2A0
100
AcDbEntity
  8
0
100
AcDbCircle
 62
7
  6
CONTINUOUS
 10
8.3118510298
 20
12.0599796442
 40
0.02
100
AcDbArc
 50
90.0
 51
180.0
  0
ARC
  5
2A1
100
AcDbEntity
  8
0
100
AcDbCircle
 62
7
  6
CONTINUOUS
 10
8.3118510298
 20
11.3499796442
 40
0.02
100
AcDbArc
 50
180.0
 51
270.0
  0
ARC
  5
2A2
100
AcDbEntity
  8
0
100
AcDbCircle
 62
7
  6
CONTINUOUS
 10
-2.2219187942
 20
9.5099307254
 40
0.0199999981
100
AcDbArc
 50
89.9964466686
 51
183.4509758734
  0
ARC
  5
2A3
100
AcDbEntity
  8
0
100
AcDbCircle
 62
7
  6
CONTINUOUS
 10
-2.2780037521
 20
9.50969056
 40
0.016000095
100
AcDbArc
 50
3.4154739156
 51
90.6886124595
  0
ARC
  5
2A4
100
AcDbEntity
  8
0
100
AcDbCircle
 62
7
  6
CONTINUOUS
 10
20.5521033157
 20
-20.3194697305
 40
28.53
100
AcDbArc
 50
87.9717361541
 51
90.275254006
  0
ARC
  5
2A5
100
AcDbEntity
  8
0
100
AcDbCircle
 62
7
  6
CONTINUOUS
 10
21.0847123442
 20
-1.6512594603
 40
9.84
100
AcDbArc
 50
67.0786987876
 51
70.5690090844
  0
ARC
  5
2A6
100
AcDbEntity
  8
0
100
AcDbCircle
 62
7
  6
CONTINUOUS
 10
21.2155648879
 20
-0.7495670305
 40
8.95
100
AcDbArc
 50
69.8547027243
 51
83.6216495197
  0
ARC
  5
2A7
100
AcDbEntity
  8
0
100
AcDbCircle
 62
7
  6
CONTINUOUS
 10
18.9362313052
 20
6.1333050367
 40
0.048
100
AcDbArc
 50
173.2266057394
 51
257.3050146218
  0
ARC
  5
2A8
100
AcDbEntity
  8
0
100
AcDbCircle
 62
7
  6
CONTINUOUS
 10
20.4148510298
 20
8.2502005827
 40
0.04
100
AcDbArc
 50
179.9999703812
 51
270.2752541676
  0
ARC
  5
2A9
100
AcDbEntity
  8
0
100
AcDbCircle
 62
7
  6
CONTINUOUS
 10
20.3548510298
 20
8.3024796442
 40
0.02
100
AcDbArc
 50
0.0
 51
90.0
  0
ARC
  5
2AA
100
AcDbEntity
  8
0
100
AcDbCircle
 62
7
  6
CONTINUOUS
 10
24.3048510298
 20
7.6716686943
 40
0.02
100
AcDbArc
 50
249.8547007667
 51
0.0000053228
  0
ARC
  5
2AB
100
AcDbEntity
  8
0
100
AcDbCircle
 62
7
  6
CONTINUOUS
 10
24.3648510298
 20
7.6471431016
 40
0.02
100
AcDbArc
 50
180.0000050077
 51
250.5690090842
  0
ARC
  5
2AC
100
AcDbEntity
  8
0
100
AcDbCircle
 62
7
  6
CONTINUOUS
 10
24.9248510298
 20
7.4302015937
 40
0.02
100
AcDbArc
 50
247.0786987868
 51
360.0
  0
ARC
  5
2AD
100
AcDbEntity
  8
0
100
AcDbCircle
 62
7
  6
CONTINUOUS
 10
20.3388501933
 20
8.2218725005
 40
0.0160002762
100
AcDbArc
 50
283.3331633506
 51
0.034726456
  0
ARC
  5
2AE
100
AcDbEntity
  8
0
100
AcDbCircle
 62
7
  6
CONTINUOUS
 10
20.5521033157
 20
38.059429019
 40
28.53
100
AcDbArc
 50
269.724745994
 51
269.8574153884
  0
ARC
  5
2AF
100
AcDbEntity
  8
0
100
AcDbCircle
 62
9
  6
CONTINUOUS
 10
19.3555618116
 20
22.7233846793
 40
10.7880237878
100
AcDbArc
 50
276.4542855814
 51
276.9822138902
  0
ARC
  5
2B0
100
AcDbEntity
  8
0
100
AcDbCircle
 62
7
  6
CONTINUOUS
 10
21.0847123442
 20
19.3912187488
 40
9.84
100
AcDbArc
 50
289.4309909156
 51
292.9213012124
  0
ARC
  5
2B1
100
AcDbEntity
  8
0
100
AcDbCircle
 62
7
  6
CONTINUOUS
 10
21.2155648879
 20
18.4895263189
 40
8.95
100
AcDbArc
 50
277.2811504864
 51
290.1452972757
  0
ARC
  5
2B2
100
AcDbEntity
  8
0
100
AcDbCircle
 62
9
  6
CONTINUOUS
 10
21.3987918891
 20
9.6782707038
 40
2.4033635043
100
AcDbArc
 50
90.5463157832
 51
91.9361999681
  0
ARC
  5
2B3
100
AcDbEntity
  8
0
100
AcDbCircle
 62
7
  6
CONTINUOUS
 10
22.2781058482
 20
10.0516423439
 40
0.4447981284
100
AcDbArc
 50
266.5827960984
 51
270.8991102407
  0
ARC
  5
2B4
100
AcDbEntity
  8
0
100
AcDbCircle
 62
7
  6
CONTINUOUS
 10
22.4343255573
 20
9.8901872024
 40
0.42149658
100
AcDbArc
 50
188.6703824198
 51
191.9089494527
  0
ARC
  5
2B5
100
AcDbEntity
  8
0
100
AcDbCircle
 62
7
  6
CONTINUOUS
 10
22.2986582313
 20
9.8544242828
 40
0.2810100661
100
AcDbArc
 50
199.3438040392
 51
204.2223906605
  0
ARC
  5
2B6
100
AcDbEntity
  8
0
100
AcDbCircle
 62
7
  6
CONTINUOUS
 10
22.2532246687
 20
9.8690431176
 40
0.259980835
100
AcDbArc
 50
251.0621652184
 51
254.6478710745
  0
ARC
  5
2B7
100
AcDbEntity
  8
0
100
AcDbCircle
 62
7
  6
CONTINUOUS
 10
22.2305274168
 20
9.8166795798
 40
0.2028602783
100
AcDbArc
 50
221.1899504664
 51
224.3528557028
  0
ARC
  5
2B8
100
AcDbEntity
  8
0
100
AcDbCircle
 62
7
  6
CONTINUOUS
 10
22.2303304549
 20
9.8165053504
 40
0.2025973185
100
AcDbArc
 50
220.2826924362
 51
221.1895539034
  0
ARC
  5
2B9
100
AcDbEntity
  8
0
100
AcDbCircle
 62
7
  6
CONTINUOUS
 10
22.228090133
 20
9.8138596934
 40
0.1991311042
100
AcDbArc
 50
230.166699381
 51
236.1287630254
  0
ARC
  5
2BA
100
AcDbEntity
  8
0
100
AcDbCircle
 62
7
  6
CONTINUOUS
 10
21.9468510298
 20
12.0215243612
 40
0.06
100
AcDbArc
 50
0.0
 51
90.0
  0
ARC
  5
2BB
100
AcDbEntity
  8
0
100
AcDbCircle
 62
7
  6
CONTINUOUS
 10
20.4148510298
 20
9.4897587057
 40
0.04
100
AcDbArc
 50
89.7247458324
 51
180.0000296188
  0
ARC
  5
2BC
100
AcDbEntity
  8
0
100
AcDbCircle
 62
7
  6
CONTINUOUS
 10
19.3260355686
 20
9.5475704437
 40
0.032000144
100
AcDbArc
 50
87.2841608128
 51
173.2336265296
  0
ARC
  5
2BD
100
AcDbEntity
  8
0
100
AcDbCircle
 62
7
  6
CONTINUOUS
 10
20.1868510298
 20
12.0599796442
 40
0.02
100
AcDbArc
 50
90.0
 51
180.0
  0
ARC
  5
2BE
100
AcDbEntity
  8
0
100
AcDbCircle
 62
7
  6
CONTINUOUS
 10
20.8068510298
 20
10.4599796442
 40
0.02
100
AcDbArc
 50
180.0
 51
270.0
  0
ARC
  5
2BF
100
AcDbEntity
  8
0
100
AcDbCircle
 62
7
  6
CONTINUOUS
 10
21.9868510298
 20
10.4599796442
 40
0.02
100
AcDbArc
 50
270.0
 51
360.0
  0
ARC
  5
2C0
100
AcDbEntity
  8
0
100
AcDbCircle
 62
7
  6
CONTINUOUS
 10
20.1868510298
 20
11.3499796442
 40
0.02
100
AcDbArc
 50
180.0
 51
270.0
  0
ARC
  5
2C1
100
AcDbEntity
  8
0
100
AcDbCircle
 62
7
  6
CONTINUOUS
 10
20.1468510298
 20
12.0599796442
 40
0.02
100
AcDbArc
 50
0.0
 51
90.0
  0
ARC
  5
2C2
100
AcDbEntity
  8
0
100
AcDbCircle
 62
7
  6
CONTINUOUS
 10
20.1468510298
 20
11.3499796442
 40
0.02
100
AcDbArc
 50
270.0
 51
360.0
  0
ARC
  5
2C3
100
AcDbEntity
  8
0
100
AcDbCircle
 62
7
  6
CONTINUOUS
 10
21.9918510298
 20
10.3999796442
 40
0.02
100
AcDbArc
 50
0.0
 51
90.0
  0
ARC
  5
2C4
100
AcDbEntity
  8
0
100
AcDbCircle
 62
7
  6
CONTINUOUS
 10
20.8018510298
 20
10.3999796442
 40
0.02
100
AcDbArc
 50
90.0
 51
180.0
  0
ARC
  5
2C5
100
AcDbEntity
  8
0
100
AcDbCircle
 62
7
  6
CONTINUOUS
 10
20.3548510298
 20
9.4374796442
 40
0.02
100
AcDbArc
 50
270.0
 51
360.0
  0
ARC
  5
2C6
100
AcDbEntity
  8
0
100
AcDbCircle
 62
7
  6
CONTINUOUS
 10
24.3048510298
 20
10.0682905941
 40
0.02
100
AcDbArc
 50
359.9999946772
 51
110.1452992333
  0
ARC
  5
2C7
100
AcDbEntity
  8
0
100
AcDbCircle
 62
7
  6
CONTINUOUS
 10
24.3648510298
 20
10.0928161869
 40
0.02
100
AcDbArc
 50
109.4309909158
 51
179.9999949923
  0
ARC
  5
2C8
100
AcDbEntity
  8
0
100
AcDbCircle
 62
7
  6
CONTINUOUS
 10
24.9248510298
 20
10.3097576948
 40
0.02
100
AcDbArc
 50
0.0
 51
112.9213012132
  0
ARC
  5
2C9
100
AcDbEntity
  8
0
100
AcDbCircle
 62
7
  6
CONTINUOUS
 10
20.3388511528
 20
9.515474728
 40
0.016000095
100
AcDbArc
 50
0.0054739156
 51
87.2786124595
  0
LINE
  5
2CA
100
AcDbEntity
  8
0
100
AcDbLine
 62
7
  6
CONTINUOUS
 10
6.5368510298
 20
8.7791137608
 11
5.8938510296
 21
8.7799796442
  0
SPLINE
  5
2CB
100
AcDbEntity
  8
0
100
AcDbSpline
 62
7
  6
CONTINUOUS
 70
0
 71
3
 72
16
 73
12
 74
0
 42
0.0000001
 43
0.0000001
 44
0.0000000001
 40
0.0
 40
0.0
 40
0.0
 40
0.0
 40
0.1269116671
 40
0.2533329775
 40
0.3791532379
 40
0.4418406683
 40
0.5043815967
 40
0.6290468955
 40
0.7531885259
 40
0.8768379212
 40
1.0
 40
1.0
 40
1.0
 40
1.0
 10
5.8938510296
 20
8.8706051271
 30
0.0
 10
5.9082101003
 20
8.8717108251
 30
0.0
 10
5.9369145711
 20
8.873406723
 30
0.0
 10
5.9799340152
 20
8.8744739508
 30
0.0
 10
6.0156768517
 20
8.8741880151
 30
0.0
 10
6.0441519224
 20
8.873290465
 30
0.0
 10
6.0724792039
 20
8.8719668124
 30
0.0
 10
6.1077337221
 20
8.869580197
 30
0.0
 10
6.149827696
 20
8.865748655
 30
0.0
 10
6.1916797625
 20
8.8612232628
 30
0.0
 10
6.2194908177
 20
8.85790924
 30
0.0
 10
6.2333634562
 20
8.8562119216
 30
0.0
  0
LINE
  5
2CC
100
AcDbEntity
  8
0
100
AcDbLine
 62
7
  6
CONTINUOUS
 10
6.2333634562
 20
8.8562119216
 11
6.3318527032
 21
8.8437589761
  0
SPLINE
  5
2CD
100
AcDbEntity
  8
0
100
AcDbSpline
 62
7
  6
CONTINUOUS
 70
0
 71
3
 72
16
 73
12
 74
0
 42
0.0000001
 43
0.0000001
 44
0.0000000001
 40
0.0
 40
0.0
 40
0.0
 40
0.0
 40
0.0624396903
 40
0.1246304607
 40
0.2483765017
 40
0.3715706134
 40
0.4947093716
 40
0.6184727318
 40
0.7436092368
 40
0.8707117931
 40
1.0
 40
1.0
 40
1.0
 40
1.0
 10
6.3318527032
 20
8.8437589761
 30
0.0
 10
6.3451592361
 20
8.8420535464
 30
0.0
 10
6.3717192324
 20
8.8386492995
 30
0.0
 10
6.4246565075
 20
8.831910053
 30
0.0
 10
6.4905586015
 20
8.8236484533
 30
0.0
 10
6.569492384
 20
8.8140685435
 30
0.0
 10
6.6484859901
 20
8.8049596723
 30
0.0
 10
6.7279699177
 20
8.7964785816
 30
0.0
 10
6.8084104759
 20
8.7889820797
 30
0.0
 10
6.8901674717
 20
8.7829621128
 30
0.0
 10
6.9452016582
 20
8.7803399824
 30
0.0
 10
6.9729667913
 20
8.7794945178
 30
0.0
  0
SPLINE
  5
2CE
100
AcDbEntity
  8
0
100
AcDbSpline
 62
7
  6
CONTINUOUS
 70
0
 71
3
 72
31
 73
27
 74
0
 42
0.0000001
 43
0.0000001
 44
0.0000000001
 40
0.0
 40
0.0
 40
0.0
 40
0.0
 40
0.0596870249
 40
0.1229357589
 40
0.1885487615
 40
0.2218946939
 40
0.2554265924
 40
0.2890268478
 40
0.322589301
 40
0.3560212686
 40
0.389246079
 40
0.4222059403
 40
0.4548653192
 40
0.4872180538
 40
0.5192826939
 40
0.5825854088
 40
0.6448860815
 40
0.7062133061
 40
0.7665750728
 40
0.825994906
 40
0.85538793
 40
0.8845816229
 40
0.9136009881
 40
0.9424796483
 40
0.9712611227
 40
1.0
 40
1.0
 40
1.0
 40
1.0
 10
6.4518510298
 20
10.3539972506
 30
0.0
 10
6.4518510298
 20
10.3318147426
 30
0.0
 10
6.4513104329
 20
10.2861227515
 30
0.0
 10
6.4482677705
 20
10.2161014225
 30
0.0
 10
6.4431945776
 20
10.1560069876
 30
0.0
 10
6.4371743316
 20
10.1071310691
 30
0.0
 10
6.4315453922
 20
10.0702094661
 30
0.0
 10
6.4247235974
 20
10.0334064623
 30
0.0
 10
6.4166049886
 20
9.9969039327
 30
0.0
 10
6.4070854332
 20
9.9608837031
 30
0.0
 10
6.3960603209
 20
9.9255273934
 30
0.0
 10
6.3834244751
 20
9.8910167846
 30
0.0
 10
6.369065941
 20
9.8575347615
 30
0.0
 10
6.352872003
 20
9.8252692579
 30
0.0
 10
6.3290770952
 20
9.7841710587
 30
0.0
 10
6.2952572266
 20
9.7361373559
 30
0.0
 10
6.2487797308
 20
9.6842937969
 30
0.0
 10
6.1973672263
 20
9.6389672095
 30
0.0
 10
6.1418194385
 20
9.6006763696
 30
0.0
 10
6.0925271642
 20
9.5749553615
 30
0.0
 10
6.0518519064
 20
9.5584867698
 30
0.0
 10
6.0209137155
 20
9.548263726
 30
0.0
 10
5.9895425242
 20
9.540194971
 30
0.0
 10
5.957836264
 20
9.5343462238
 30
0.0
 10
5.9258977739
 20
9.5307844
 30
0.0
 10
5.9045122345
 20
9.5299791546
 30
0.0
 10
5.8938315149
 20
9.5299796447
 30
0.0
  0
SPLINE
  5
2CF
100
AcDbEntity
  8
0
100
AcDbSpline
 62
7
  6
CONTINUOUS
 70
0
 71
3
 72
30
 73
26
 74
0
 42
0.0000001
 43
0.0000001
 44
0.0000000001
 40
0.0
 40
0.0
 40
0.0
 40
0.0
 40
0.0002497293
 40
0.0005617859
 40
0.0009985437
 40
0.002245884
 40
0.0039911933
 40
0.0062339171
 40
0.0089735033
 40
0.0159410641
 40
0.0248895059
 40
0.0358144952
 40
0.0487117364
 40
0.0635769717
 40
0.080405981
 40
0.0991945828
 40
0.1426339939
 40
0.193862549
 40
0.2528481851
 40
0.3195594652
 40
0.393965584
 40
0.4760363724
 40
0.5657404909
 40
0.7678734347
 40
1.0
 40
1.0
 40
1.0
 40
1.0
 10
6.5368510298
 20
8.7791137608
 30
0.0
 10
6.5368510298
 20
8.7791126675
 30
0.0
 10
6.536855021
 20
8.7791156486
 30
0.0
 10
6.5368583414
 20
8.7791157974
 30
0.0
 10
6.5368671666
 20
8.7791190704
 30
0.0
 10
6.5368811388
 20
8.7791230508
 30
0.0
 10
6.5369032016
 20
8.7791300889
 30
0.0
 10
6.536931273
 20
8.7791387021
 30
0.0
 10
6.5369813054
 20
8.7791541461
 30
0.0
 10
6.5370593903
 20
8.7791780044
 30
0.0
 10
6.5371718595
 20
8.779212108
 30
0.0
 10
6.5373092638
 20
8.7792533848
 30
0.0
 10
6.5374716028
 20
8.7793017162
 30
0.0
 10
6.5376588534
 20
8.7793569521
 30
0.0
 10
6.5378710002
 20
8.7794189535
 30
0.0
 10
6.5382034695
 20
8.7795152097
 30
0.0
 10
6.5386811495
 20
8.7796514582
 30
0.0
 10
6.5393289924
 20
8.779832708
 30
0.0
 10
6.5400760079
 20
8.7800376112
 30
0.0
 10
6.5409220578
 20
8.7802650337
 30
0.0
 10
6.5418670044
 20
8.7805138402
 30
0.0
 10
6.5429107031
 20
8.7807828923
 30
0.0
 10
6.5444980025
 20
8.7811833173
 30
0.0
 10
6.5467269227
 20
8.7817259998
 30
0.0
 10
6.5485791223
 20
8.7821552817
 30
0.0
 10
6.549570381
 20
8.7823794168
 30
0.0
  0
SPLINE
  5
2D0
100
AcDbEntity
  8
0
100
AcDbSpline
 62
7
  6
CONTINUOUS
 70
0
 71
3
 72
29
 73
25
 74
0
 42
0.0000001
 43
0.0000001
 44
0.0000000001
 40
0.0
 40
0.0
 40
0.0
 40
0.0
 40
0.023712264
 40
0.0537958885
 40
0.0900432242
 40
0.110416809
 40
0.1322562945
 40
0.1555370343
 40
0.1802338406
 40
0.2063168603
 40
0.233755232
 40
0.2625181602
 40
0.2925709458
 40
0.3238721555
 40
0.3563788866
 40
0.3900474322
 40
0.4248324056
 40
0.4606857958
 40
0.4975584818
 40
0.5741593352
 40
0.6542142202
 40
0.7372848619
 40
0.8229102278
 40
1.0
 40
1.0
 40
1.0
 40
1.0
 10
6.549570381
 20
8.7823794168
 30
0.0
 10
6.5528420604
 20
8.7831191815
 30
0.0
 10
6.5602942288
 20
8.7846674335
 30
0.0
 10
6.5728441079
 20
8.7868569432
 30
0.0
 10
6.5849939767
 20
8.7885532979
 30
0.0
 10
6.5960220125
 20
8.7898082782
 30
0.0
 10
6.6052442441
 20
8.7906980138
 30
0.0
 10
6.6150898526
 20
8.7914796751
 30
0.0
 10
6.6255462836
 20
8.7921338208
 30
0.0
 10
6.6365991884
 20
8.7926502745
 30
0.0
 10
6.6482335009
 20
8.7930185367
 30
0.0
 10
6.6604334013
 20
8.7932268641
 30
0.0
 10
6.6731813757
 20
8.7932698455
 30
0.0
 10
6.6864584375
 20
8.7931540667
 30
0.0
 10
6.7002447944
 20
8.7928840488
 30
0.0
 10
6.7145203825
 20
8.7924640498
 30
0.0
 10
6.7292648009
 20
8.791902178
 30
0.0
 10
6.7444576398
 20
8.7912162409
 30
0.0
 10
6.7655538797
 20
8.7901440761
 30
0.0
 10
6.7928849484
 20
8.788572479
 30
0.0
 10
6.8267329376
 20
8.7865066238
 30
0.0
 10
6.8618574699
 20
8.7843981665
 30
0.0
 10
6.9106969685
 20
8.7817043493
 30
0.0
 10
6.9478309002
 20
8.7801311239
 30
0.0
 10
6.9728716121
 20
8.7794262229
 30
0.0
  0
SPLINE
  5
2D1
100
AcDbEntity
  8
0
100
AcDbSpline
 62
9
  6
CONTINUOUS
 70
0
 71
3
 72
23
 73
19
 74
0
 42
0.0000001
 43
0.0000001
 44
0.0000000001
 40
0.0
 40
0.0
 40
0.0
 40
0.0
 40
0.0684147168
 40
0.1354516059
 40
0.2007711703
 40
0.2644243055
 40
0.3266952532
 40
0.3879489489
 40
0.4485432177
 40
0.508766092
 40
0.5688695286
 40
0.6290103899
 40
0.6893350169
 40
0.7500349246
 40
0.8113140212
 40
0.8733825822
 40
0.9363243398
 40
1.0
 40
1.0
 40
1.0
 40
1.0
 10
7.0386271912
 20
8.8384173727
 30
0.0
 10
7.0124868341
 20
8.8383922512
 30
0.0
 10
6.9607292058
 20
8.8392080733
 30
0.0
 10
6.8840811917
 20
8.8424873107
 30
0.0
 10
6.8093302545
 20
8.8471471515
 30
0.0
 10
6.7364643669
 20
8.8526405466
 30
0.0
 10
6.665181579
 20
8.8584382371
 30
0.0
 10
6.5950623465
 20
8.8641260849
 30
0.0
 10
6.5256865827
 20
8.8692907525
 30
0.0
 10
6.4566957147
 20
8.8736659603
 30
0.0
 10
6.3878184115
 20
8.876981805
 30
0.0
 10
6.3188569068
 20
8.8791759788
 30
0.0
 10
6.2496402759
 20
8.8801822182
 30
0.0
 10
6.1799827528
 20
8.8802128862
 30
0.0
 10
6.1096632445
 20
8.8794808573
 30
0.0
 10
6.0384984824
 20
8.8779778383
 30
0.0
 10
5.9664482674
 20
8.8753497933
 30
0.0
 10
5.9181487017
 20
8.8724507355
 30
0.0
 10
5.8938889486
 20
8.8706080078
 30
0.0
  0
SPLINE
  5
2D2
100
AcDbEntity
  8
0
100
AcDbSpline
 62
9
  6
CONTINUOUS
 70
0
 71
3
 72
27
 73
23
 74
0
 42
0.0000001
 43
0.0000001
 44
0.0000000001
 40
0.0
 40
0.0
 40
0.0
 40
0.0
 40
0.1816692169
 40
0.3671463591
 40
0.45804563
 40
0.5457545857
 40
0.6287081215
 40
0.7053417873
 40
0.7742538462
 40
0.8346899598
 40
0.8860588705
 40
0.9277727697
 40
0.9448522701
 40
0.9594479119
 40
0.9716361718
 40
0.9814965526
 40
0.9891148961
 40
0.9921147521
 40
0.9945951513
 40
0.9965772395
 40
0.9980935658
 40
1.0
 40
1.0
 40
1.0
 40
1.0
 10
7.0386271883
 20
8.8384173447
 30
0.0
 10
7.0386272285
 20
8.8347752613
 30
0.0
 10
7.038651849
 20
8.8274147369
 30
0.0
 10
7.03874521
 20
8.8182322682
 30
0.0
 10
7.0388660719
 20
8.8109341055
 30
0.0
 10
7.0389768231
 20
8.8056914947
 30
0.0
 10
7.0391068593
 20
8.8007354115
 30
0.0
 10
7.03925469
 20
8.7961568337
 30
0.0
 10
7.0394197618
 20
8.7920305889
 30
0.0
 10
7.0395979338
 20
8.7884119044
 30
0.0
 10
7.0397854666
 20
8.7853398287
 30
0.0
 10
7.0399548499
 20
8.7831376203
 30
0.0
 10
7.0400977472
 20
8.7816732258
 30
0.0
 10
7.0401981046
 20
8.7807995508
 30
0.0
 10
7.0402981664
 20
8.7800716685
 30
0.0
 10
7.0403976957
 20
8.7794851708
 30
0.0
 10
7.0404845815
 20
8.7790836877
 30
0.0
 10
7.0405566592
 20
8.7788308998
 30
0.0
 10
7.0406054213
 20
8.7786897387
 30
0.0
 10
7.0406549857
 20
8.7785792354
 30
0.0
 10
7.0407086038
 20
8.7784883556
 30
0.0
 10
7.0407689195
 20
8.7784349636
 30
0.0
 10
7.0408071395
 20
8.778434963
 30
0.0
  0
SPLINE
  5
2D3
100
AcDbEntity
  8
0
100
AcDbSpline
 62
9
  6
CONTINUOUS
 70
0
 71
3
 72
30
 73
26
 74
0
 42
0.0000001
 43
0.0000001
 44
0.0000000001
 40
0.0
 40
0.0
 40
0.0
 40
0.0
 40
0.1947723072
 40
0.2899132059
 40
0.3821808107
 40
0.4707412811
 40
0.5547786891
 40
0.6335057816
 40
0.7061495557
 40
0.7719849761
 40
0.8304082092
 40
0.8808389192
 40
0.9029006564
 40
0.9227966783
 40
0.940481154
 40
0.9559087317
 40
0.9690356345
 40
0.9798347088
 40
0.9882960527
 40
0.9916494615
 40
0.9944194842
 40
0.9966105678
 40
0.9982341706
 40
0.9993232244
 40
1.0
 40
1.0
 40
1.0
 40
1.0
 10
7.0467320953
 20
8.838429044
 30
0.0
 10
7.0467317614
 20
8.8345286046
 30
0.0
 10
7.0467452996
 20
8.8287228922
 30
0.0
 10
7.0467922707
 20
8.8210696162
 30
0.0
 10
7.0468410818
 20
8.8155433699
 30
0.0
 10
7.0469029814
 20
8.8102396235
 30
0.0
 10
7.0469773678
 20
8.8052072218
 30
0.0
 10
7.0470634101
 20
8.8004937956
 30
0.0
 10
7.0471602428
 20
8.796145166
 30
0.0
 10
7.0472670158
 20
8.7922034958
 30
0.0
 10
7.047382395
 20
8.7887071117
 30
0.0
 10
7.0474887521
 20
8.7860875575
 30
0.0
 10
7.0475792364
 20
8.784239623
 30
0.0
 10
7.047645474
 20
8.7830470773
 30
0.0
 10
7.0477129393
 20
8.7819876873
 30
0.0
 10
7.0477814248
 20
8.7810642403
 30
0.0
 10
7.0478506581
 20
8.7802791635
 30
0.0
 10
7.0479204168
 20
8.7796343142
 30
0.0
 10
7.0479821229
 20
8.7791855332
 30
0.0
 10
7.0480337
 20
8.7788980073
 30
0.0
 10
7.0480694232
 20
8.7787353195
 30
0.0
 10
7.0481042959
 20
8.7786080868
 30
0.0
 10
7.0481400873
 20
8.7785162064
 30
0.0
 10
7.0481726396
 20
8.778456802
 30
0.0
 10
7.0482055128
 20
8.7784348963
 30
0.0
 10
7.0482190656
 20
8.7784349274
 30
0.0
  0
SPLINE
  5
2D4
100
AcDbEntity
  8
0
100
AcDbSpline
 62
9
  6
CONTINUOUS
 70
0
 71
3
 72
35
 73
31
 74
0
 42
0.0000001
 43
0.0000001
 44
0.0000000001
 40
0.0
 40
0.0
 40
0.0
 40
0.0
 40
0.0645536244
 40
0.1291147959
 40
0.1936730538
 40
0.2259517978
 40
0.2582296718
 40
0.2905076447
 40
0.3227866528
 40
0.3873368679
 40
0.451879115
 40
0.4841541515
 40
0.516422661
 40
0.5808766573
 40
0.6451651119
 40
0.6772211448
 40
0.7091667615
 40
0.7409587296
 40
0.7725237324
 40
0.8037779575
 40
0.8346148087
 40
0.8498272177
 40
0.8648735312
 40
0.8797327392
 40
0.8943804716
 40
0.9087852245
 40
0.9229141326
 40
0.950209003
 40
0.9759965954
 40
1.0
 40
1.0
 40
1.0
 40
1.0
 10
7.0467844704
 20
8.8384305082
 30
0.0
 10
7.0496167246
 20
8.8717976285
 30
0.0
 10
7.0537290465
 20
8.9386772523
 30
0.0
 10
7.0554270822
 20
9.0391593247
 30
0.0
 10
7.0532745964
 20
9.1228850042
 30
0.0
 10
7.0493797336
 20
9.1897542039
 30
0.0
 10
7.045364309
 20
9.2398304511
 30
0.0
 10
7.0402461007
 20
9.289806254
 30
0.0
 10
7.0319444579
 20
9.3562685303
 30
0.0
 10
7.0187292698
 20
9.4389628166
 30
0.0
 10
7.0015256078
 20
9.520923192
 30
0.0
 10
6.9852603292
 20
9.5858879534
 30
0.0
 10
6.9672864894
 20
9.6503532949
 30
0.0
 10
6.9415097257
 20
9.7298513804
 30
0.0
 10
6.9110041452
 20
9.8075523568
 30
0.0
 10
6.88363935
 20
9.8682283444
 30
0.0
 10
6.8616498871
 20
9.912803154
 30
0.0
 10
6.8381719813
 20
9.9563235521
 30
0.0
 10
6.8132491367
 20
9.9986183312
 30
0.0
 10
6.7869433624
 20
10.0394798419
 30
0.0
 10
6.7638596949
 20
10.0722861847
 30
0.0
 10
6.7448152135
 20
10.0976217738
 30
0.0
 10
6.7303567342
 20
10.1160290545
 30
0.0
 10
6.7156877496
 20
10.1338915401
 30
0.0
 10
6.7008451015
 20
10.151173511
 30
0.0
 10
6.6858852841
 20
10.1678486132
 30
0.0
 10
6.6660862171
 20
10.1889870372
 30
0.0
 10
6.6414498593
 20
10.2136754446
 30
0.0
 10
6.6119934905
 20
10.2407358656
 30
0.0
 10
6.5922791747
 20
10.2574356065
 30
0.0
 10
6.5826205595
 20
10.2652941589
 30
0.0
  0
SPLINE
  5
2D5
100
AcDbEntity
  8
0
100
AcDbSpline
 62
9
  6
CONTINUOUS
 70
0
 71
3
 72
20
 73
16
 74
0
 42
0.0000001
 43
0.0000001
 44
0.0000000001
 40
0.0
 40
0.0
 40
0.0
 40
0.0
 40
0.2249132954
 40
0.4247799304
 40
0.5974160914
 40
0.6728315505
 40
0.7407338707
 40
0.8010005733
 40
0.8535036039
 40
0.8981097421
 40
0.9346976283
 40
0.9632147834
 40
0.9836273827
 40
0.9959008773
 40
1.0
 40
1.0
 40
1.0
 40
1.0
 10
6.5826205595
 20
10.2652941589
 30
0.0
 10
6.5734189655
 20
10.2727808645
 30
0.0
 10
6.5557688366
 20
10.2865909983
 30
0.0
 10
6.530244648
 20
10.3050770263
 30
0.0
 10
6.5106682318
 20
10.3183080109
 30
0.0
 10
6.4966668465
 20
10.3273452469
 30
0.0
 10
6.4875722366
 20
10.3330540534
 30
0.0
 10
6.4794424161
 20
10.3380253986
 30
0.0
 10
6.472316132
 20
10.3422816387
 30
0.0
 10
6.4662308154
 20
10.3458445228
 30
0.0
 10
6.4612208078
 20
10.3487399245
 30
0.0
 10
6.457303749
 20
10.3509761974
 30
0.0
 10
6.4544917528
 20
10.3525614154
 30
0.0
 10
6.452797142
 20
10.3535061614
 30
0.0
 10
6.4520406087
 20
10.3539225199
 30
0.0
 10
6.4518510297
 20
10.3540264529
 30
0.0
  0
LINE
  5
2D6
100
AcDbEntity
  8
0
100
AcDbLine
 62
7
  6
CONTINUOUS
 10
21.351023419
 20
12.0815150965
 11
21.3176073215
 21
12.0814787014
  0
LINE
  5
2D7
100
AcDbEntity
  8
0
100
AcDbLine
 62
7
  6
CONTINUOUS
 10
21.3176073215
 20
12.0814787014
 11
20.2288510296
 21
12.0799796442
  0
SPLINE
  5
2D8
100
AcDbEntity
  8
0
100
AcDbSpline
 62
7
  6
CONTINUOUS
 70
0
 71
3
 72
31
 73
27
 74
0
 42
0.0000001
 43
0.0000001
 44
0.0000000001
 40
0.0
 40
0.0
 40
0.0
 40
0.0
 40
0.0596870249
 40
0.1229357589
 40
0.1885487615
 40
0.2218946939
 40
0.2554265924
 40
0.2890268478
 40
0.322589301
 40
0.3560212686
 40
0.389246079
 40
0.4222059403
 40
0.4548653192
 40
0.4872180538
 40
0.5192826939
 40
0.5825854088
 40
0.6448860815
 40
0.7062133061
 40
0.7665750728
 40
0.825994906
 40
0.85538793
 40
0.8845816229
 40
0.9136009881
 40
0.9424796483
 40
0.9712611227
 40
1.0
 40
1.0
 40
1.0
 40
1.0
 10
20.7868510298
 20
10.5059620378
 30
0.0
 10
20.7868510298
 20
10.5281445458
 30
0.0
 10
20.7863104329
 20
10.5738365369
 30
0.0
 10
20.7832677705
 20
10.643857866
 30
0.0
 10
20.7781945776
 20
10.7039523008
 30
0.0
 10
20.7721743316
 20
10.7528282193
 30
0.0
 10
20.7665453922
 20
10.7897498223
 30
0.0
 10
20.7597235974
 20
10.8265528261
 30
0.0
 10
20.7516049886
 20
10.8630553557
 30
0.0
 10
20.7420854332
 20
10.8990755854
 30
0.0
 10
20.7310603209
 20
10.934431895
 30
0.0
 10
20.7184244751
 20
10.9689425038
 30
0.0
 10
20.704065941
 20
11.0024245269
 30
0.0
 10
20.687872003
 20
11.0346900306
 30
0.0
 10
20.6640770952
 20
11.0757882297
 30
0.0
 10
20.6302572266
 20
11.1238219325
 30
0.0
 10
20.5837797308
 20
11.1756654915
 30
0.0
 10
20.5323672263
 20
11.2209920789
 30
0.0
 10
20.4768194385
 20
11.2592829188
 30
0.0
 10
20.4275271642
 20
11.2850039269
 30
0.0
 10
20.3868519064
 20
11.3014725186
 30
0.0
 10
20.3559137155
 20
11.3116955624
 30
0.0
 10
20.3245425242
 20
11.3197643175
 30
0.0
 10
20.292836264
 20
11.3256130646
 30
0.0
 10
20.2608977739
 20
11.3291748884
 30
0.0
 10
20.2395122345
 20
11.3299801338
 30
0.0
 10
20.2288315149
 20
11.3299796438
 30
0.0
  0
SPLINE
  5
2D9
100
AcDbEntity
  8
0
100
AcDbSpline
 62
7
  6
CONTINUOUS
 70
0
 71
3
 72
27
 73
23
 74
0
 42
0.0000001
 43
0.0000001
 44
0.0000000001
 40
0.0
 40
0.0
 40
0.0
 40
0.0
 40
0.0020044197
 40
0.0037082775
 40
0.0059579336
 40
0.008772987
 40
0.0121622258
 40
0.0161297582
 40
0.0206773713
 40
0.0315137707
 40
0.0446671653
 40
0.0778007609
 40
0.1197565521
 40
0.1701732731
 40
0.2285635653
 40
0.2943597917
 40
0.366959559
 40
0.4456330559
 40
0.5296182732
 40
0.6181283243
 40
0.8054075812
 40
1.0
 40
1.0
 40
1.0
 40
1.0
 10
21.3833118928
 20
12.0815243463
 30
0.0
 10
21.3832716967
 20
12.0815243457
 30
0.0
 10
21.3832121509
 20
12.0814560623
 30
0.0
 10
21.3831620456
 20
12.0813530366
 30
0.0
 10
21.3831142004
 20
12.081223917
 30
0.0
 10
21.3830679092
 20
12.0810614094
 30
0.0
 10
21.383021015
 20
12.0808626028
 30
0.0
 10
21.3829744596
 20
12.0806284991
 30
0.0
 10
21.3829086945
 20
12.0802459765
 30
0.0
 10
21.3828295802
 20
12.0796790841
 30
0.0
 10
21.3827008105
 20
12.0785407277
 30
0.0
 10
21.3825527728
 20
12.0767770405
 30
0.0
 10
21.3823929411
 20
12.0742651913
 30
0.0
 10
21.3822441856
 20
12.0712454059
 30
0.0
 10
21.3821081667
 20
12.0677465623
 30
0.0
 10
21.3819871399
 20
12.0638020824
 30
0.0
 10
21.3818830845
 20
12.0594502472
 30
0.0
 10
21.3817972824
 20
12.054733196
 30
0.0
 10
21.3817311388
 20
12.0496967411
 30
0.0
 10
21.3816696684
 20
12.0424821619
 30
0.0
 10
21.3816512894
 20
12.0330491594
 30
0.0
 10
21.3816971074
 20
12.025391256
 30
0.0
 10
21.3817358693
 20
12.0214891456
 30
0.0
  0
SPLINE
  5
2DA
100
AcDbEntity
  8
0
100
AcDbSpline
 62
9
  6
CONTINUOUS
 70
0
 71
3
 72
23
 73
19
 74
0
 42
0.0000001
 43
0.0000001
 44
0.0000000001
 40
0.0
 40
0.0
 40
0.0
 40
0.0
 40
0.063637415
 40
0.1265163856
 40
0.1885938625
 40
0.2500070609
 40
0.3109163563
 40
0.3714586554
 40
0.4317687291
 40
0.4919889131
 40
0.55228186
 40
0.6128983683
 40
0.6741273883
 40
0.7363374439
 40
0.7998846422
 40
0.8650003494
 40
0.9318051111
 40
1.0
 40
1.0
 40
1.0
 40
1.0
 10
20.2288510252
 20
11.9893542156
 30
0.0
 10
20.2530863499
 20
11.9875135652
 30
0.0
 10
20.3013114704
 20
11.9844168424
 30
0.0
 10
20.3732617546
 20
11.9809867642
 30
0.0
 10
20.4444037602
 20
11.9785768194
 30
0.0
 10
20.5148222838
 20
11.9772459201
 30
0.0
 10
20.5846673415
 20
11.9770958896
 30
0.0
 10
20.6540834282
 20
11.9781602877
 30
0.0
 10
20.7232054955
 20
11.9804734301
 30
0.0
 10
20.7921853194
 20
11.9838957736
 30
0.0
 10
20.861226372
 20
11.9882912121
 30
0.0
 10
20.9306014398
 20
11.9934310764
 30
0.0
 10
21.0006699863
 20
11.9990907925
 30
0.0
 10
21.0718473734
 20
12.0049221541
 30
0.0
 10
21.1445287802
 20
12.01057515
 30
0.0
 10
21.2190170808
 20
12.0155968607
 30
0.0
 10
21.2953506605
 20
12.0195226614
 30
0.0
 10
21.3468966266
 20
12.0210098661
 30
0.0
 10
21.3729395195
 20
12.0213965923
 30
0.0
  0
SPLINE
  5
2DB
100
AcDbEntity
  8
0
100
AcDbSpline
 62
9
  6
CONTINUOUS
 70
0
 71
3
 72
51
 73
47
 74
0
 42
0.0000001
 43
0.0000001
 44
0.0000000001
 40
0.0
 40
0.0
 40
0.0
 40
0.0
 40
0.000550671
 40
0.0021988242
 40
0.0049387763
 40
0.0087649851
 40
0.0136700806
 40
0.0196357569
 40
0.0266405324
 40
0.0346639513
 40
0.0536624608
 40
0.0763107234
 40
0.1022430531
 40
0.116293109
 40
0.1309770528
 40
0.1462317688
 40
0.1619955662
 40
0.1782069138
 40
0.1948051405
 40
0.2117309893
 40
0.2289348081
 40
0.2463777227
 40
0.2640212277
 40
0.2818267625
 40
0.2997628813
 40
0.3178101769
 40
0.3359497424
 40
0.3541620089
 40
0.3724300984
 40
0.4090937577
 40
0.4458679873
 40
0.4827105639
 40
0.5196098485
 40
0.5565473875
 40
0.5934976339
 40
0.6304462469
 40
0.6673969498
 40
0.7043510394
 40
0.741306166
 40
0.7782600209
 40
0.8152143637
 40
0.8521705744
 40
0.8891291388
 40
0.9260886991
 40
0.9630460774
 40
1.0
 40
1.0
 40
1.0
 40
1.0
 10
20.7868510297
 20
10.5059339401
 30
0.0
 10
20.7871269288
 20
10.5060853475
 30
0.0
 10
20.7882273962
 20
10.5066920793
 30
0.0
 10
20.7906901216
 20
10.5080711717
 30
0.0
 10
20.7947729498
 20
10.5103883673
 30
0.0
 10
20.800453279
 20
10.513661632
 30
0.0
 10
20.8077038466
 20
10.5179020472
 30
0.0
 10
20.8164674457
 20
10.5231528441
 30
0.0
 10
20.826678749
 20
10.5294532049
 30
0.0
 10
20.84307722
 20
10.5399068482
 30
0.0
 10
20.8666298145
 20
10.555764111
 30
0.0
 10
20.8978036203
 20
10.5785836874
 30
0.0
 10
20.9256975498
 20
10.6010382529
 30
0.0
 10
20.9493183327
 20
10.6214904606
 30
0.0
 10
20.9678989613
 20
10.6384293467
 30
0.0
 10
20.9867210509
 20
10.6565432457
 30
0.0
 10
21.0056527731
 20
10.6757876613
 30
0.0
 10
21.0245828512
 20
10.6960966616
 30
0.0
 10
21.0433962294
 20
10.7174083688
 30
0.0
 10
21.061978265
 20
10.73966643
 30
0.0
 10
21.0802373441
 20
10.7628082039
 30
0.0
 10
21.0981166732
 20
10.7867582303
 30
0.0
 10
21.115559309
 20
10.8114503445
 30
0.0
 10
21.1325106187
 20
10.8368219845
 30
0.0
 10
21.1489274496
 20
10.8628158769
 30
0.0
 10
21.1647916077
 20
10.8893731015
 30
0.0
 10
21.1800869587
 20
10.9164431699
 30
0.0
 10
21.1947991087
 20
10.9439777497
 30
0.0
 10
21.2136447272
 20
10.9812943551
 30
0.0
 10
21.235698598
 20
11.0288589104
 30
0.0
 10
21.2597933061
 20
11.0871157681
 30
0.0
 10
21.2815991908
 20
11.1464098137
 30
0.0
 10
21.3011859495
 20
11.2065697183
 30
0.0
 10
21.3186323319
 20
11.2674473612
 30
0.0
 10
21.3340234711
 20
11.3289045398
 30
0.0
 10
21.347430794
 20
11.3908316089
 30
0.0
 10
21.3589066187
 20
11.4531470483
 30
0.0
 10
21.3685109238
 20
11.5157812578
 30
0.0
 10
21.3763062521
 20
11.5786673772
 30
0.0
 10
21.3823413706
 20
11.6417465967
 30
0.0
 10
21.3866273083
 20
11.7049692515
 30
0.0
 10
21.3891807738
 20
11.7682880581
 30
0.0
 10
21.3900196519
 20
11.8316555203
 30
0.0
 10
21.3891517246
 20
11.8950236299
 30
0.0
 10
21.3865247505
 20
11.9583405296
 30
0.0
 10
21.383569702
 20
12.0004848555
 30
0.0
 10
21.3817834466
 20
12.0215285916
 30
0.0
  0
SPLINE
  5
2DC
100
AcDbEntity
  8
0
100
AcDbSpline
 62
9
  6
CONTINUOUS
 70
0
 71
3
 72
20
 73
16
 74
0
 42
0.0000001
 43
0.0000001
 44
0.0000000001
 40
0.0
 40
0.0
 40
0.0
 40
0.0
 40
0.0634817256
 40
0.12685048
 40
0.1901027724
 40
0.2532409894
 40
0.3162625802
 40
0.3791560336
 40
0.4419079654
 40
0.5045157335
 40
0.6292874858
 40
0.6914495968
 40
0.7534592696
 40
0.8770259207
 40
1.0
 40
1.0
 40
1.0
 40
1.0
 10
20.2288496746
 20
11.9893543182
 30
0.0
 10
20.2360312936
 20
11.9888486655
 30
0.0
 10
20.2503886986
 20
11.9879332403
 30
0.0
 10
20.2719238796
 20
11.9868931939
 30
0.0
 10
20.2934354174
 20
11.9862311301
 30
0.0
 10
20.3149165853
 20
11.985999226
 30
0.0
 10
20.3363573644
 20
11.9861623138
 30
0.0
 10
20.357748644
 20
11.986671509
 30
0.0
 10
20.3790834974
 20
11.9874824993
 30
0.0
 10
20.4074145049
 20
11.9889267197
 30
0.0
 10
20.4356509178
 20
11.9908625921
 30
0.0
 10
20.4637887772
 20
11.993173328
 30
0.0
 10
20.4917723357
 20
11.9956847547
 30
0.0
 10
20.526593003
 20
11.9991551568
 30
0.0
 10
20.554388877
 20
12.0021821156
 30
0.0
 10
20.5682483069
 20
12.0037368908
 30
0.0
  0
SPLINE
  5
2DD
100
AcDbEntity
  8
0
100
AcDbSpline
 62
9
  6
CONTINUOUS
 70
0
 71
3
 72
15
 73
11
 74
0
 42
0.0000001
 43
0.0000001
 44
0.0000000001
 40
0.0
 40
0.0
 40
0.0
 40
0.0
 40
0.1244299273
 40
0.2480786516
 40
0.4944740017
 40
0.5562735481
 40
0.6183349375
 40
0.7435709987
 40
0.870722741
 40
1.0
 40
1.0
 40
1.0
 40
1.0
 10
20.666967201
 20
12.0153655745
 30
0.0
 10
20.6938966411
 20
12.0186423638
 30
0.0
 10
20.7475742556
 20
12.0252756535
 30
0.0
 10
20.8545669138
 20
12.0384792548
 30
0.0
 10
20.9480610339
 20
12.0495957074
 30
0.0
 10
21.0283133809
 20
12.0583018709
 30
0.0
 10
21.0823338399
 20
12.063882625
 30
0.0
 10
21.1505942153
 20
12.0702730764
 30
0.0
 10
21.2335761566
 20
12.0765030545
 30
0.0
 10
21.2894214046
 20
12.079313855
 30
0.0
 10
21.3175903284
 20
12.0802620527
 30
0.0
  0
SPLINE
  5
2DE
100
AcDbEntity
  8
0
100
AcDbSpline
 62
9
  6
CONTINUOUS
 70
0
 71
3
 72
28
 73
24
 74
0
 42
0.0000001
 43
0.0000001
 44
0.0000000001
 40
0.0
 40
0.0
 40
0.0
 40
0.0
 40
0.1940370319
 40
0.3808475999
 40
0.4691620359
 40
0.5529802518
 40
0.6315175794
 40
0.7040140848
 40
0.7697432752
 40
0.8281081762
 40
0.8785493575
 40
0.9205885366
 40
0.9383456509
 40
0.9538712479
 40
0.9671256751
 40
0.9780853845
 40
0.9867546398
 40
0.9902389389
 40
0.9931658397
 40
0.9955510832
 40
0.9974259615
 40
0.9988581033
 40
1.0
 40
1.0
 40
1.0
 40
1.0
 10
21.3729395072
 20
12.0213972892
 30
0.0
 10
21.372933809
 20
12.025303316
 30
0.0
 10
21.3729612082
 20
12.0329700047
 30
0.0
 10
21.3730919012
 20
12.0424136932
 30
0.0
 10
21.3732562416
 20
12.0496375141
 30
0.0
 10
21.3734037001
 20
12.0546814703
 30
0.0
 10
21.3735759297
 20
12.0594060287
 30
0.0
 10
21.373770752
 20
12.063765249
 30
0.0
 10
21.3739863125
 20
12.0677168833
 30
0.0
 10
21.3742208596
 20
12.0712226239
 30
0.0
 10
21.3744736206
 20
12.0742488119
 30
0.0
 10
21.3747076005
 20
12.0764558647
 30
0.0
 10
21.3749038796
 20
12.0779594383
 30
0.0
 10
21.3750430953
 20
12.078885909
 30
0.0
 10
21.3751813771
 20
12.0796739738
 30
0.0
 10
21.3753179517
 20
12.0803217975
 30
0.0
 10
21.3754365255
 20
12.0807721632
 30
0.0
 10
21.3755339972
 20
12.0810598124
 30
0.0
 10
21.3756011441
 20
12.0812238132
 30
0.0
 10
21.3756676482
 20
12.0813526431
 30
0.0
 10
21.3757339992
 20
12.0814466411
 30
0.0
 10
21.3758013601
 20
12.081507632
 30
0.0
 10
21.3758531595
 20
12.0815242561
 30
0.0
 10
21.3758761459
 20
12.0815243751
 30
0.0
  0
SPLINE
  5
2DF
100
AcDbEntity
  8
0
100
AcDbSpline
 62
7
  6
CONTINUOUS
 70
0
 71
3
 72
16
 73
12
 74
0
 42
0.0000001
 43
0.0000001
 44
0.0000000001
 40
0.0
 40
0.0
 40
0.0
 40
0.0
 40
0.1269116629
 40
0.2533329998
 40
0.3791532742
 40
0.4418407129
 40
0.5043816485
 40
0.6290469517
 40
0.7531885513
 40
0.8768379113
 40
1.0
 40
1.0
 40
1.0
 40
1.0
 10
8.22985103
 20
11.9893541613
 30
0.0
 10
8.2154919713
 20
11.9882484373
 30
0.0
 10
8.1867875159
 20
11.9865525383
 30
0.0
 10
8.143768095
 20
11.9854853475
 30
0.0
 10
8.1080252768
 20
11.9857712858
 30
0.0
 10
8.0795502208
 20
11.9866688209
 30
0.0
 10
8.0512229554
 20
11.9879924699
 30
0.0
 10
8.0159684625
 20
11.9903790863
 30
0.0
 10
7.9738745229
 20
11.9942106214
 30
0.0
 10
7.9320224871
 20
11.9987359822
 30
0.0
 10
7.9042114544
 20
12.0020500158
 30
0.0
 10
7.8903388245
 20
12.0037473384
 30
0.0
  0
LINE
  5
2E0
100
AcDbEntity
  8
0
100
AcDbLine
 62
7
  6
CONTINUOUS
 10
7.8903388245
 20
12.0037473384
 11
7.7918494719
 21
12.0162002982
  0
SPLINE
  5
2E1
100
AcDbEntity
  8
0
100
AcDbSpline
 62
7
  6
CONTINUOUS
 70
0
 71
3
 72
22
 73
18
 74
0
 42
0.0000001
 43
0.0000001
 44
0.0000000001
 40
0.0
 40
0.0
 40
0.0
 40
0.0
 40
0.0621626169
 40
0.1240548169
 40
0.1857086506
 40
0.2471719623
 40
0.3085052272
 40
0.3697819912
 40
0.431091186
 40
0.4925403907
 40
0.6163152693
 40
0.6788610446
 40
0.7419570053
 40
0.8056539095
 40
0.8699618215
 40
0.9347977293
 40
1.0
 40
1.0
 40
1.0
 40
1.0
 10
7.7918494719
 20
12.0162002982
 30
0.0
 10
7.7772073982
 20
12.0180768977
 30
0.0
 10
7.7479869507
 20
12.0218219823
 30
0.0
 10
7.7042386483
 20
12.0273843473
 30
0.0
 10
7.6606468381
 20
12.032860586
 30
0.0
 10
7.6171765722
 20
12.0382389385
 30
0.0
 10
7.5737824912
 20
12.0435029964
 30
0.0
 10
7.5304090288
 20
12.0486315687
 30
0.0
 10
7.4869896167
 20
12.0536042775
 30
0.0
 10
7.4287961152
 20
12.0600064791
 30
0.0
 10
7.3702556395
 20
12.0659436147
 30
0.0
 10
7.311252864
 20
12.0711292008
 30
0.0
 10
7.2664218235
 20
12.0745788678
 30
0.0
 10
7.2211322558
 20
12.0774796788
 30
0.0
 10
7.175391215
 20
12.0797266287
 30
0.0
 10
7.1292598197
 20
12.0811775184
 30
0.0
 10
7.0983785958
 20
12.0815243612
 30
0.0
 10
7.0828949241
 20
12.0815243612
 30
0.0
  0
LINE
  5
2E2
100
AcDbEntity
  8
0
100
AcDbLine
 62
7
  6
CONTINUOUS
 10
7.0828949241
 20
12.0815243612
 11
8.22985103
 21
12.0799796442
  0
SPLINE
  5
2E3
100
AcDbEntity
  8
0
100
AcDbSpline
 62
7
  6
CONTINUOUS
 70
0
 71
3
 72
31
 73
27
 74
0
 42
0.0000001
 43
0.0000001
 44
0.0000000001
 40
0.0
 40
0.0
 40
0.0
 40
0.0
 40
0.0596870249
 40
0.1229357589
 40
0.1885487615
 40
0.2218946939
 40
0.2554265924
 40
0.2890268478
 40
0.322589301
 40
0.3560212686
 40
0.389246079
 40
0.4222059403
 40
0.4548653192
 40
0.4872180538
 40
0.5192826939
 40
0.5825854088
 40
0.6448860815
 40
0.7062133061
 40
0.7665750728
 40
0.825994906
 40
0.85538793
 40
0.8845816229
 40
0.9136009881
 40
0.9424796483
 40
0.9712611227
 40
1.0
 40
1.0
 40
1.0
 40
1.0
 10
7.6718510298
 20
10.5059620378
 30
0.0
 10
7.6718510298
 20
10.5281445458
 30
0.0
 10
7.6723916267
 20
10.5738365369
 30
0.0
 10
7.6754342892
 20
10.643857866
 30
0.0
 10
7.6805074821
 20
10.7039523008
 30
0.0
 10
7.6865277281
 20
10.7528282193
 30
0.0
 10
7.6921566675
 20
10.7897498223
 30
0.0
 10
7.6989784623
 20
10.8265528261
 30
0.0
 10
7.707097071
 20
10.8630553557
 30
0.0
 10
7.7166166265
 20
10.8990755854
 30
0.0
 10
7.7276417388
 20
10.934431895
 30
0.0
 10
7.7402775845
 20
10.9689425038
 30
0.0
 10
7.7546361186
 20
11.0024245269
 30
0.0
 10
7.7708300567
 20
11.0346900306
 30
0.0
 10
7.7946249645
 20
11.0757882297
 30
0.0
 10
7.8284448331
 20
11.1238219325
 30
0.0
 10
7.8749223289
 20
11.1756654915
 30
0.0
 10
7.9263348334
 20
11.2209920789
 30
0.0
 10
7.9818826212
 20
11.2592829188
 30
0.0
 10
8.0311748955
 20
11.2850039269
 30
0.0
 10
8.0718501533
 20
11.3014725186
 30
0.0
 10
8.1027883442
 20
11.3116955624
 30
0.0
 10
8.1341595355
 20
11.3197643175
 30
0.0
 10
8.1658657956
 20
11.3256130646
 30
0.0
 10
8.1978042858
 20
11.3291748884
 30
0.0
 10
8.2191898252
 20
11.3299801338
 30
0.0
 10
8.2298705448
 20
11.3299796438
 30
0.0
  0
SPLINE
  5
2E4
100
AcDbEntity
  8
0
100
AcDbSpline
 62
9
  6
CONTINUOUS
 70
0
 71
3
 72
30
 73
26
 74
0
 42
0.0000001
 43
0.0000001
 44
0.0000000001
 40
0.0
 40
0.0
 40
0.0
 40
0.0
 40
0.1947723072
 40
0.2899132059
 40
0.3821808107
 40
0.4707412811
 40
0.5547786891
 40
0.6335057816
 40
0.7061495557
 40
0.7719849761
 40
0.8304082092
 40
0.8808389192
 40
0.9029006564
 40
0.9227966783
 40
0.940481154
 40
0.9559087317
 40
0.9690356345
 40
0.9798347088
 40
0.9882960527
 40
0.9916494615
 40
0.9944194842
 40
0.9966105678
 40
0.9982341706
 40
0.9993232244
 40
1.0
 40
1.0
 40
1.0
 40
1.0
 10
7.0769699644
 20
12.0215302444
 30
0.0
 10
7.0769702983
 20
12.0254306838
 30
0.0
 10
7.0769567601
 20
12.0312363962
 30
0.0
 10
7.076909789
 20
12.0388896722
 30
0.0
 10
7.0768609778
 20
12.0444159186
 30
0.0
 10
7.0767990782
 20
12.0497196649
 30
0.0
 10
7.0767246919
 20
12.0547520667
 30
0.0
 10
7.0766386495
 20
12.0594654928
 30
0.0
 10
7.0765418168
 20
12.0638141225
 30
0.0
 10
7.0764350439
 20
12.0677557926
 30
0.0
 10
7.0763196646
 20
12.0712521768
 30
0.0
 10
7.0762133076
 20
12.0738717309
 30
0.0
 10
7.0761228233
 20
12.0757196654
 30
0.0
 10
7.0760565857
 20
12.0769122111
 30
0.0
 10
7.0759891204
 20
12.0779716012
 30
0.0
 10
7.0759206349
 20
12.0788950481
 30
0.0
 10
7.0758514016
 20
12.0796801249
 30
0.0
 10
7.0757816428
 20
12.0803249742
 30
0.0
 10
7.0757199368
 20
12.0807737552
 30
0.0
 10
7.0756683597
 20
12.0810612811
 30
0.0
 10
7.0756326365
 20
12.0812239689
 30
0.0
 10
7.0755977638
 20
12.0813512016
 30
0.0
 10
7.0755619724
 20
12.0814430821
 30
0.0
 10
7.0755294201
 20
12.0815024865
 30
0.0
 10
7.0754965469
 20
12.0815243921
 30
0.0
 10
7.0754829941
 20
12.081524361
 30
0.0
  0
SPLINE
  5
2E5
100
AcDbEntity
  8
0
100
AcDbSpline
 62
9
  6
CONTINUOUS
 70
0
 71
3
 72
27
 73
23
 74
0
 42
0.0000001
 43
0.0000001
 44
0.0000000001
 40
0.0
 40
0.0
 40
0.0
 40
0.0
 40
0.1816692169
 40
0.3671463591
 40
0.45804563
 40
0.5457545857
 40
0.6287081215
 40
0.7053417873
 40
0.7742538462
 40
0.8346899598
 40
0.8860588705
 40
0.9277727697
 40
0.9448522701
 40
0.9594479119
 40
0.9716361718
 40
0.9814965526
 40
0.9891148961
 40
0.9921147521
 40
0.9945951513
 40
0.9965772395
 40
0.9980935658
 40
1.0
 40
1.0
 40
1.0
 40
1.0
 10
7.0850748713
 20
12.0215419437
 30
0.0
 10
7.0850748312
 20
12.0251840271
 30
0.0
 10
7.0850502106
 20
12.0325445515
 30
0.0
 10
7.0849568497
 20
12.0417270202
 30
0.0
 10
7.0848359877
 20
12.0490251829
 30
0.0
 10
7.0847252365
 20
12.0542677938
 30
0.0
 10
7.0845952004
 20
12.0592238769
 30
0.0
 10
7.0844473696
 20
12.0638024548
 30
0.0
 10
7.0842822979
 20
12.0679286996
 30
0.0
 10
7.0841041258
 20
12.0715473841
 30
0.0
 10
7.0839165931
 20
12.0746194597
 30
0.0
 10
7.0837472098
 20
12.0768216681
 30
0.0
 10
7.0836043125
 20
12.0782860627
 30
0.0
 10
7.083503955
 20
12.0791597376
 30
0.0
 10
7.0834038933
 20
12.0798876199
 30
0.0
 10
7.083304364
 20
12.0804741176
 30
0.0
 10
7.0832174782
 20
12.0808756008
 30
0.0
 10
7.0831454005
 20
12.0811283887
 30
0.0
 10
7.0830966383
 20
12.0812695498
 30
0.0
 10
7.0830470739
 20
12.081380053
 30
0.0
 10
7.0829934559
 20
12.0814709328
 30
0.0
 10
7.0829331402
 20
12.0815243248
 30
0.0
 10
7.0828949202
 20
12.0815243254
 30
0.0
  0
SPLINE
  5
2E6
100
AcDbEntity
  8
0
100
AcDbSpline
 62
9
  6
CONTINUOUS
 70
0
 71
3
 72
51
 73
47
 74
0
 42
0.0000001
 43
0.0000001
 44
0.0000000001
 40
0.0
 40
0.0
 40
0.0
 40
0.0
 40
0.0369539582
 40
0.0739112462
 40
0.1108706741
 40
0.1478291394
 40
0.1847852854
 40
0.2217395673
 40
0.2586933336
 40
0.2956483156
 40
0.3326022132
 40
0.3695527072
 40
0.4065011247
 40
0.443451218
 40
0.4803886544
 40
0.5172878786
 40
0.5541304287
 40
0.5909046576
 40
0.6275683259
 40
0.6458364153
 40
0.664048675
 40
0.6821882305
 40
0.7002355185
 40
0.7181716382
 40
0.7359771877
 40
0.7536207198
 40
0.7710636684
 40
0.7882675224
 40
0.8051934024
 40
0.8217916611
 40
0.8380030531
 40
0.8537669188
 40
0.8690217379
 40
0.8837058166
 40
0.8977560228
 40
0.9236886351
 40
0.9463370993
 40
0.9653357589
 40
0.9733592437
 40
0.9803640785
 40
0.9863298063
 40
0.9912349439
 40
0.9950611847
 40
0.9978011588
 40
0.9994493249
 40
1.0
 40
1.0
 40
1.0
 40
1.0
 10
7.0769176019
 20
12.0215287792
 30
0.0
 10
7.0751313723
 20
12.0004849994
 30
0.0
 10
7.0721763263
 20
11.9583406635
 30
0.0
 10
7.069549281
 20
11.8950238111
 30
0.0
 10
7.0686812737
 20
11.8316558232
 30
0.0
 10
7.0695201232
 20
11.7682884665
 30
0.0
 10
7.0720735957
 20
11.7049697255
 30
0.0
 10
7.0763595519
 20
11.6417471315
 30
0.0
 10
7.0823946797
 20
11.5786680186
 30
0.0
 10
7.0901899878
 20
11.5157820782
 30
0.0
 10
7.099794244
 20
11.4531481131
 30
0.0
 10
7.1112699991
 20
11.3908329435
 30
0.0
 10
7.1246772399
 20
11.3289061185
 30
0.0
 10
7.140068288
 20
11.2674491182
 30
0.0
 10
7.1575145764
 20
11.206571571
 30
0.0
 10
7.1771012475
 20
11.1464116858
 30
0.0
 10
7.1989070557
 20
11.0871175986
 30
0.0
 10
7.2230017047
 20
11.0288606599
 30
0.0
 10
7.2450555317
 20
10.9812960218
 30
0.0
 10
7.2639011082
 20
10.9439793474
 30
0.0
 10
7.2786132183
 20
10.9164447221
 30
0.0
 10
7.2939085267
 20
10.8893746101
 30
0.0
 10
7.3097726468
 20
10.8628173383
 30
0.0
 10
7.3261894519
 20
10.8368233878
 30
0.0
 10
7.3431407533
 20
10.8114516763
 30
0.0
 10
7.3605833976
 20
10.7867594782
 30
0.0
 10
7.3784627476
 20
10.7628093617
 30
0.0
 10
7.3967218542
 20
10.739667499
 30
0.0
 10
7.4153039226
 20
10.7174093544
 30
0.0
 10
7.4341173415
 20
10.6960975635
 30
0.0
 10
7.453047474
 20
10.6757884631
 30
0.0
 10
7.4719792737
 20
10.6565439133
 30
0.0
 10
7.4908014656
 20
10.6384298311
 30
0.0
 10
7.5093822197
 20
10.6214907164
 30
0.0
 10
7.5330031932
 20
10.6010381859
 30
0.0
 10
7.5608973525
 20
10.5785832683
 30
0.0
 10
7.5920714764
 20
10.5557634445
 30
0.0
 10
7.6156243132
 20
10.5399060639
 30
0.0
 10
7.632022938
 20
10.5294523333
 30
0.0
 10
7.6422343376
 20
10.5231519135
 30
0.0
 10
7.6509980188
 20
10.517901064
 30
0.0
 10
7.6582486541
 20
10.5136606058
 30
0.0
 10
7.6639290365
 20
10.5103873103
 30
0.0
 10
7.6680119027
 20
10.5080700948
 30
0.0
 10
7.6704746508
 20
10.5066909916
 30
0.0
 10
7.6715751284
 20
10.5060842555
 30
0.0
 10
7.67185103
 20
10.5059328471
 30
0.0
  0
SPLINE
  5
2E7
100
AcDbEntity
  8
0
100
AcDbSpline
 62
9
  6
CONTINUOUS
 70
0
 71
3
 72
23
 73
19
 74
0
 42
0.0000001
 43
0.0000001
 44
0.0000000001
 40
0.0
 40
0.0
 40
0.0
 40
0.0
 40
0.0684147168
 40
0.1354516059
 40
0.2007711703
 40
0.2644243055
 40
0.3266952532
 40
0.3879489489
 40
0.4485432177
 40
0.508766092
 40
0.5688695286
 40
0.6290103899
 40
0.6893350169
 40
0.7500349246
 40
0.8113140212
 40
0.8733825822
 40
0.9363243398
 40
1.0
 40
1.0
 40
1.0
 40
1.0
 10
7.0850748685
 20
12.0215419158
 30
0.0
 10
7.1112152256
 20
12.0215670372
 30
0.0
 10
7.1629728539
 20
12.0207512152
 30
0.0
 10
7.2396208679
 20
12.0174719777
 30
0.0
 10
7.3143718051
 20
12.0128121369
 30
0.0
 10
7.3872376927
 20
12.0073187418
 30
0.0
 10
7.4585204807
 20
12.0015210514
 30
0.0
 10
7.5286397131
 20
11.9958332035
 30
0.0
 10
7.5980154769
 20
11.990668536
 30
0.0
 10
7.6670063449
 20
11.9862933282
 30
0.0
 10
7.7358836481
 20
11.9829774834
 30
0.0
 10
7.8048451528
 20
11.9807833096
 30
0.0
 10
7.8740617837
 20
11.9797770702
 30
0.0
 10
7.9437193068
 20
11.9797464022
 30
0.0
 10
8.014038815
 20
11.9804784311
 30
0.0
 10
8.0852035771
 20
11.9819814501
 30
0.0
 10
8.1572537922
 20
11.9846094951
 30
0.0
 10
8.2055533579
 20
11.9875085529
 30
0.0
 10
8.229813111
 20
11.9893512806
 30
0.0
  0
SPLINE
  5
2E8
100
AcDbEntity
  8
0
100
AcDbSpline
 62
7
  6
CONTINUOUS
 70
0
 71
3
 72
36
 73
32
 74
0
 42
0.0000001
 43
0.0000001
 44
0.0000000001
 40
0.0
 40
0.0
 40
0.0
 40
0.0
 40
0.0522832855
 40
0.0779973542
 40
0.1036258383
 40
0.1293238679
 40
0.1552511115
 40
0.1815748194
 40
0.2084731291
 40
0.2361032731
 40
0.2645428978
 40
0.2938697598
 40
0.3240603931
 40
0.3549791397
 40
0.3865141604
 40
0.4185910045
 40
0.4511552478
 40
0.4841717029
 40
0.5176111637
 40
0.5514188183
 40
0.5855344069
 40
0.6199064619
 40
0.6544767404
 40
0.7240096468
 40
0.7588978785
 40
0.793799631
 40
0.8286655614
 40
0.8634296503
 40
0.8980098324
 40
0.9323356557
 40
1.0
 40
1.0
 40
1.0
 40
1.0
 10
-0.7931489702
 20
8.285393384
 30
0.0
 10
-0.7931489702
 20
8.2953054521
 30
0.0
 10
-0.7929924395
 20
8.3100943341
 30
0.0
 10
-0.7922732623
 20
8.3297279874
 30
0.0
 10
-0.7914437795
 20
8.344311237
 30
0.0
 10
-0.7902767126
 20
8.3589121053
 30
0.0
 10
-0.7887330306
 20
8.3736108738
 30
0.0
 10
-0.7867350347
 20
8.3884851218
 30
0.0
 10
-0.7841946214
 20
8.4036044478
 30
0.0
 10
-0.7810281067
 20
8.4190158658
 30
0.0
 10
-0.7771056799
 20
8.4347288859
 30
0.0
 10
-0.772310916
 20
8.450706895
 30
0.0
 10
-0.7665516196
 20
8.4668643088
 30
0.0
 10
-0.7597511737
 20
8.4830688685
 30
0.0
 10
-0.7518301156
 20
8.4991574031
 30
0.0
 10
-0.7427762757
 20
8.5149976832
 30
0.0
 10
-0.7325865555
 20
8.5304710716
 30
0.0
 10
-0.7212684129
 20
8.5454630203
 30
0.0
 10
-0.7089557801
 20
8.5599568129
 30
0.0
 10
-0.6957668644
 20
8.5739438479
 30
0.0
 10
-0.681801682
 20
8.5874103493
 30
0.0
 10
-0.6671353547
 20
8.6003291155
 30
0.0
 10
-0.6467093001
 20
8.6168303467
 30
0.0
 10
-0.6251965218
 20
8.6321070038
 30
0.0
 10
-0.6027848147
 20
8.6460942262
 30
0.0
 10
-0.5855474617
 20
8.6559307817
 30
0.0
 10
-0.567961206
 20
8.665077186
 30
0.0
 10
-0.5500791817
 20
8.6734895235
 30
0.0
 10
-0.5319430953
 20
8.6810835636
 30
0.0
 10
-0.5076168354
 20
8.6899637889
 30
0.0
 10
-0.4889577549
 20
8.6952253233
 30
0.0
 10
-0.4764247698
 20
8.6979609473
 30
0.0
  0
SPLINE
  5
2E9
100
AcDbEntity
  8
0
100
AcDbSpline
 62
7
  6
CONTINUOUS
 70
0
 71
3
 72
36
 73
32
 74
0
 42
0.0000001
 43
0.0000001
 44
0.0000000001
 40
0.0
 40
0.0
 40
0.0
 40
0.0
 40
0.0728474293
 40
0.1469907941
 40
0.1840269698
 40
0.2207834251
 40
0.256999648
 40
0.2923869516
 40
0.3267422181
 40
0.3600543807
 40
0.3923635696
 40
0.4237934562
 40
0.4545626774
 40
0.4849027523
 40
0.5149174155
 40
0.5446184748
 40
0.5740059058
 40
0.6031065137
 40
0.6319284788
 40
0.6604905227
 40
0.6888417214
 40
0.7170237147
 40
0.7450798239
 40
0.7730660978
 40
0.8010506835
 40
0.8291139194
 40
0.8573460423
 40
0.8857528021
 40
0.9426999982
 40
0.9712686974
 40
1.0
 40
1.0
 40
1.0
 40
1.0
 10
-1.7931489702
 20
8.0888384498
 30
0.0
 10
-1.7931489702
 20
8.0958838451
 30
0.0
 10
-1.7931347154
 20
8.1100997484
 30
0.0
 10
-1.7935608651
 20
8.1278980119
 30
0.0
 10
-1.7944641726
 20
8.1421791956
 30
0.0
 10
-1.7954973209
 20
8.1527708141
 30
0.0
 10
-1.7969299942
 20
8.1631555873
 30
0.0
 10
-1.798798196
 20
8.1732360103
 30
0.0
 10
-1.8011431273
 20
8.1829285943
 30
0.0
 10
-1.8039640992
 20
8.1921833121
 30
0.0
 10
-1.8072667365
 20
8.200976695
 30
0.0
 10
-1.8110689246
 20
8.2092973373
 30
0.0
 10
-1.8153942447
 20
8.2171432026
 30
0.0
 10
-1.8202631797
 20
8.2245005196
 30
0.0
 10
-1.8256266906
 20
8.2313734035
 30
0.0
 10
-1.8314193309
 20
8.2377636954
 30
0.0
 10
-1.8375810134
 20
8.2436706574
 30
0.0
 10
-1.8440502029
 20
8.2491063862
 30
0.0
 10
-1.8507719111
 20
8.2540923651
 30
0.0
 10
-1.8577067514
 20
8.2586460125
 30
0.0
 10
-1.8648309333
 20
8.2627745072
 30
0.0
 10
-1.8721211076
 20
8.2664955164
 30
0.0
 10
-1.8795727867
 20
8.2697963876
 30
0.0
 10
-1.8871856469
 20
8.2726535122
 30
0.0
 10
-1.8949582301
 20
8.2750461953
 30
0.0
 10
-1.9028888619
 20
8.276951719
 30
0.0
 10
-1.9109672436
 20
8.2783506757
 30
0.0
 10
-1.9218982774
 20
8.2794896923
 30
0.0
 10
-1.9329815197
 20
8.2793675529
 30
0.0
 10
-1.9439143268
 20
8.2776642166
 30
0.0
 10
-1.9492821444
 20
8.2762313926
 30
0.0
 10
-1.9519211711
 20
8.2753614029
 30
0.0
  0
LINE
  5
2EA
100
AcDbEntity
  8
0
100
AcDbLine
 62
9
  6
CONTINUOUS
 10
-2.2219216848
 20
9.5299298734
 11
-2.1811860287
 21
8.8711021603
  0
SPLINE
  5
2EB
100
AcDbEntity
  8
0
100
AcDbSpline
 62
9
  6
CONTINUOUS
 70
0
 71
3
 72
71
 73
67
 74
0
 42
0.0000001
 43
0.0000001
 44
0.0000000001
 40
0.0
 40
0.0
 40
0.0
 40
0.0
 40
0.0298149857
 40
0.0618178856
 40
0.078563223
 40
0.0957714457
 40
0.1314986691
 40
0.149978174
 40
0.1688391279
 40
0.2076011532
 40
0.2274513678
 40
0.247581205
 40
0.2679660558
 40
0.2885808195
 40
0.3093999699
 40
0.3303975348
 40
0.3728154005
 40
0.4156045301
 40
0.458533841
 40
0.5013634595
 40
0.5438478561
 40
0.5857389261
 40
0.6267894187
 40
0.6667573286
 40
0.7054016063
 40
0.7424906923
 40
0.7778003098
 40
0.811120173
 40
0.8422504731
 40
0.8710043968
 40
0.8844361315
 40
0.8972093953
 40
0.9093060787
 40
0.9207093191
 40
0.9314021766
 40
0.9413678204
 40
0.9505916546
 40
0.9590607424
 40
0.966762196
 40
0.9736832112
 40
0.9798132554
 40
0.9825792574
 40
0.9851446619
 40
0.9875085281
 40
0.9896699134
 40
0.9916278738
 40
0.9933814701
 40
0.9949300099
 40
0.9962731412
 40
0.9974105365
 40
0.9979019808
 40
0.9983418682
 40
0.9987301577
 40
0.9990668084
 40
0.9993517793
 40
0.9995850293
 40
0.9996822461
 40
0.9997665174
 40
0.9998378379
 40
0.9998962026
 40
0.9999416062
 40
0.9999740438
 40
0.9999853987
 40
0.9999935101
 40
0.9999983774
 40
1.0
 40
1.0
 40
1.0
 40
1.0
 10
-0.9107349966
 20
8.236853019
 30
0.0
 10
-0.9191249041
 20
8.2337887527
 30
0.0
 10
-0.9365318599
 20
8.2274664763
 30
0.0
 10
-0.9587521586
 20
8.2197038022
 30
0.0
 10
-0.9775014327
 20
8.2134663124
 30
0.0
 10
-0.9973725282
 20
8.2070697843
 30
0.0
 10
-1.0178193493
 20
8.2007697792
 30
0.0
 10
-1.0387957419
 20
8.1945128134
 30
0.0
 10
-1.0606798882
 20
8.1881195941
 30
0.0
 10
-1.0830277108
 20
8.181849811
 30
0.0
 10
-1.1058266018
 20
8.1757921594
 30
0.0
 10
-1.1233524995
 20
8.1713322547
 30
0.0
 10
-1.1411432863
 20
8.1669883421
 30
0.0
 10
-1.1591723222
 20
8.1627527408
 30
0.0
 10
-1.1774133423
 20
8.158619583
 30
0.0
 10
-1.2020630666
 20
8.1532154553
 30
0.0
 10
-1.2332116668
 20
8.1467232516
 30
0.0
 10
-1.2709100938
 20
8.1394752019
 30
0.0
 10
-1.3088478616
 20
8.1328486396
 30
0.0
 10
-1.3467870782
 20
8.1267879399
 30
0.0
 10
-1.3844907154
 20
8.1212438547
 30
0.0
 10
-1.4217327545
 20
8.116243588
 30
0.0
 10
-1.4582896069
 20
8.1118303355
 30
0.0
 10
-1.493929156
 20
8.1079583473
 30
0.0
 10
-1.528423847
 20
8.104553653
 30
0.0
 10
-1.5615585327
 20
8.1015920322
 30
0.0
 10
-1.5931300571
 20
8.0990754039
 30
0.0
 10
-1.6229417135
 20
8.0969635608
 30
0.0
 10
-1.6508069481
 20
8.0951798198
 30
0.0
 10
-1.6727343818
 20
8.0939098264
 30
0.0
 10
-1.6891762916
 20
8.0930449555
 30
0.0
 10
-1.7006370747
 20
8.0924850433
 30
0.0
 10
-1.7114925198
 20
8.0919896301
 30
0.0
 10
-1.7217264216
 20
8.0915465811
 30
0.0
 10
-1.7313230921
 20
8.0911450984
 30
0.0
 10
-1.7402674586
 20
8.0907717066
 30
0.0
 10
-1.7485461562
 20
8.0904248694
 30
0.0
 10
-1.7561473274
 20
8.0901108725
 30
0.0
 10
-1.76305956
 20
8.0898339517
 30
0.0
 10
-1.7692722051
 20
8.0895999198
 30
0.0
 10
-1.7740078665
 20
8.0894363297
 30
0.0
 10
-1.777439664
 20
8.0893243307
 30
0.0
 10
-1.7797438698
 20
8.0892516397
 30
0.0
 10
-1.7818670924
 20
8.0891865342
 30
0.0
 10
-1.783808459
 20
8.0891282208
 30
0.0
 10
-1.7855670994
 20
8.0890759389
 30
0.0
 10
-1.7871422159
 20
8.0890288216
 30
0.0
 10
-1.7885331993
 20
8.088986393
 30
0.0
 10
-1.7897396474
 20
8.0889489572
 30
0.0
 10
-1.7906295478
 20
8.0889208632
 30
0.0
 10
-1.7912489806
 20
8.0889010466
 30
0.0
 10
-1.7916441075
 20
8.0888882994
 30
0.0
 10
-1.7919928823
 20
8.088876954
 30
0.0
 10
-1.7922952694
 20
8.0888670361
 30
0.0
 10
-1.7925512314
 20
8.0888585734
 30
0.0
 10
-1.7927355038
 20
8.0888524296
 30
0.0
 10
-1.7928596784
 20
8.0888482673
 30
0.0
 10
-1.7929353787
 20
8.0888457111
 30
0.0
 10
-1.7929994194
 20
8.0888435657
 30
0.0
 10
-1.7930518973
 20
8.0888417293
 30
0.0
 10
-1.7930925372
 20
8.0888404858
 30
0.0
 10
-1.7931195354
 20
8.0888392694
 30
0.0
 10
-1.7931346826
 20
8.0888391434
 30
0.0
 10
-1.7931426141
 20
8.0888382235
 30
0.0
 10
-1.793145845
 20
8.0888392551
 30
0.0
 10
-1.7931489696
 20
8.0888379637
 30
0.0
 10
-1.7931489702
 20
8.0888384498
 30
0.0
  0
SPLINE
  5
2EC
100
AcDbEntity
  8
0
100
AcDbSpline
 62
9
  6
CONTINUOUS
 70
0
 71
3
 72
51
 73
47
 74
0
 42
0.0000001
 43
0.0000001
 44
0.0000000001
 40
0.0
 40
0.0
 40
0.0
 40
0.0
 40
0.0000047494
 40
0.0000189915
 40
0.0000427215
 40
0.0000759338
 40
0.0001186227
 40
0.0001707824
 40
0.0003034909
 40
0.0004740132
 40
0.0006823028
 40
0.0009283135
 40
0.0012119989
 40
0.0018922083
 40
0.0027225604
 40
0.0037026842
 40
0.004832209
 40
0.0061107638
 40
0.007537978
 40
0.0091134807
 40
0.0108369011
 40
0.0147260115
 40
0.0192024891
 40
0.0242640391
 40
0.0299084842
 40
0.0361336473
 40
0.0429373512
 40
0.0503174188
 40
0.0582716729
 40
0.07589014
 40
0.0957449851
 40
0.1177774286
 40
0.1419286515
 40
0.1681392365
 40
0.1963485219
 40
0.2264956908
 40
0.2585183227
 40
0.2923389187
 40
0.3650308599
 40
0.4438651881
 40
0.5280710417
 40
0.6168399975
 40
0.7093239663
 40
0.8046453536
 40
0.901887329
 40
1.0
 40
1.0
 40
1.0
 40
1.0
 10
-0.0631489702
 20
9.5299796442
 30
0.0
 10
-0.063149566
 20
9.5299796442
 30
0.0
 10
-0.0631481949
 20
9.5299758116
 30
0.0
 10
-0.0631495146
 20
9.5299718519
 30
0.0
 10
-0.0631487039
 20
9.5299621229
 30
0.0
 10
-0.0631489523
 20
9.5299499759
 30
0.0
 10
-0.063148696
 20
9.529933773
 30
0.0
 10
-0.0631485181
 20
9.5299052892
 30
0.0
 10
-0.0631480766
 20
9.5298606601
 30
0.0
 10
-0.0631474926
 20
9.5297965049
 30
0.0
 10
-0.0631467312
 20
9.5297181099
 30
0.0
 10
-0.0631458261
 20
9.529625527
 30
0.0
 10
-0.0631443196
 20
9.5294737356
 30
0.0
 10
-0.0631420586
 20
9.5292486367
 30
0.0
 10
-0.0631388932
 20
9.5289361646
 30
0.0
 10
-0.0631351415
 20
9.5285673236
 30
0.0
 10
-0.0631308108
 20
9.5281422528
 30
0.0
 10
-0.0631259091
 20
9.5276610918
 30
0.0
 10
-0.063120444
 20
9.5271239801
 30
0.0
 10
-0.0631144235
 20
9.5265310571
 30
0.0
 10
-0.0631052914
 20
9.5256292739
 30
0.0
 10
-0.0630925382
 20
9.5243635448
 30
0.0
 10
-0.0630756959
 20
9.5226790253
 30
0.0
 10
-0.0630567804
 20
9.5207742865
 30
0.0
 10
-0.0630358181
 20
9.5186501627
 30
0.0
 10
-0.0630128342
 20
9.5163074729
 30
0.0
 10
-0.0629878542
 20
9.5137470366
 30
0.0
 10
-0.0629609031
 20
9.5109696729
 30
0.0
 10
-0.0629209969
 20
9.5068355226
 30
0.0
 10
-0.0628664055
 20
9.501136323
 30
0.0
 10
-0.0627958922
 20
9.4936709086
 30
0.0
 10
-0.0627190027
 20
9.4853859013
 30
0.0
 10
-0.0626364441
 20
9.4763035048
 30
0.0
 10
-0.0625488175
 20
9.4664461598
 30
0.0
 10
-0.0624563465
 20
9.4558365612
 30
0.0
 10
-0.0623593352
 20
9.4444977801
 30
0.0
 10
-0.0622580187
 20
9.4324550006
 30
0.0
 10
-0.0621147817
 20
9.4150746069
 30
0.0
 10
-0.0619308057
 20
9.3918212321
 30
0.0
 10
-0.0617127716
 20
9.3622464672
 30
0.0
 10
-0.0614932264
 20
9.3306545978
 30
0.0
 10
-0.0612754037
 20
9.2973501577
 30
0.0
 10
-0.0610669876
 20
9.2626510469
 30
0.0
 10
-0.0608717224
 20
9.226888796
 30
0.0
 10
-0.0606918041
 20
9.1904202646
 30
0.0
 10
-0.0605820487
 20
9.1659108058
 30
0.0
 10
-0.0605292624
 20
9.1536014472
 30
0.0
  0
SPLINE
  5
2ED
100
AcDbEntity
  8
0
100
AcDbSpline
 62
9
  6
CONTINUOUS
 70
0
 71
3
 72
32
 73
28
 74
0
 42
0.0000001
 43
0.0000001
 44
0.0000000001
 40
0.0
 40
0.0
 40
0.0
 40
0.0
 40
0.195200175
 40
0.2904525001
 40
0.3829095054
 40
0.4716553889
 40
0.5558427523
 40
0.6346876765
 40
0.7074152595
 40
0.7732644775
 40
0.8316595944
 40
0.8820849289
 40
0.9041372321
 40
0.9240012055
 40
0.9416324011
 40
0.9569877849
 40
0.9700365406
 40
0.9807606877
 40
0.9852456044
 40
0.989142728
 40
0.9924489906
 40
0.9951610346
 40
0.9972755018
 40
0.9987890339
 40
0.9993193999
 40
0.9996982728
 40
1.0
 40
1.0
 40
1.0
 40
1.0
 10
-2.1811861649
 20
8.8711021145
 30
0.0
 10
-2.1785026203
 20
8.8282932146
 30
0.0
 10
-2.1745039766
 20
8.7645950978
 30
0.0
 10
-2.1692130915
 20
8.6806217805
 30
0.0
 10
-2.1653829367
 20
8.6199948846
 30
0.0
 10
-2.1616974785
 20
8.5617950898
 30
0.0
 10
-2.1581967398
 20
8.5065806828
 30
0.0
 10
-2.154912196
 20
8.4548794683
 30
0.0
 10
-2.1518758824
 20
8.4072001985
 30
0.0
 10
-2.1491213555
 20
8.3640056899
 30
0.0
 10
-2.1466757267
 20
8.3257020921
 30
0.0
 10
-2.1448410723
 20
8.2970029362
 30
0.0
 10
-2.1435449191
 20
8.2767533986
 30
0.0
 10
-2.1427083642
 20
8.2636953195
 30
0.0
 10
-2.1419654334
 20
8.2521058111
 30
0.0
 10
-2.141318142
 20
8.2420108605
 30
0.0
 10
-2.1407679301
 20
8.2334303926
 30
0.0
 10
-2.1403705077
 20
8.2272340787
 30
0.0
 10
-2.1401016453
 20
8.2230438849
 30
0.0
 10
-2.1399372022
 20
8.2204818495
 30
0.0
 10
-2.1397973551
 20
8.218304428
 30
0.0
 10
-2.1396834243
 20
8.2165296303
 30
0.0
 10
-2.139592468
 20
8.215117205
 30
0.0
 10
-2.1395372211
 20
8.2142513447
 30
0.0
 10
-2.1394985409
 20
8.213658142
 30
0.0
 10
-2.1394894071
 20
8.2135010989
 30
0.0
 10
-2.1394645339
 20
8.2131428599
 30
0.0
 10
-2.1394699673
 20
8.2132089379
 30
0.0
  0
SPLINE
  5
2EE
100
AcDbEntity
  8
0
100
AcDbSpline
 62
9
  6
CONTINUOUS
 70
0
 71
3
 72
23
 73
19
 74
0
 42
0.0000001
 43
0.0000001
 44
0.0000000001
 40
0.0
 40
0.0
 40
0.0
 40
0.0
 40
0.2213630398
 40
0.4189869974
 40
0.5082764033
 40
0.5908826182
 40
0.6665529836
 40
0.7350334836
 40
0.7960796032
 40
0.849488823
 40
0.9326258034
 40
0.9619863007
 40
0.9735614016
 40
0.9830535638
 40
0.9904531503
 40
0.9957505185
 40
0.9989360198
 40
1.0
 40
1.0
 40
1.0
 40
1.0
 10
-0.9107353053
 20
8.2368530191
 30
0.0
 10
-0.9019348735
 20
8.240123918
 30
0.0
 10
-0.8853251184
 20
8.2464432195
 30
0.0
 10
-0.8652911367
 20
8.2544052358
 30
0.0
 10
-0.8507871337
 20
8.2603432306
 30
0.0
 10
-0.8410949368
 20
8.2643820832
 30
0.0
 10
-0.8322390496
 20
8.2681328216
 30
0.0
 10
-0.8242430927
 20
8.2715692695
 30
0.0
 10
-0.8171293518
 20
8.2746658654
 30
0.0
 10
-0.8094583806
 20
8.2780438859
 30
0.0
 10
-0.8030394768
 20
8.2809127034
 30
0.0
 10
-0.7982347798
 20
8.2830809282
 30
0.0
 10
-0.7962954609
 20
8.283959651
 30
0.0
 10
-0.7951774892
 20
8.2844673258
 30
0.0
 10
-0.7943694626
 20
8.2848357366
 30
0.0
 10
-0.7936467394
 20
8.2851645114
 30
0.0
 10
-0.7934718449
 20
8.2852467759
 30
0.0
 10
-0.7931075581
 20
8.2854113124
 30
0.0
 10
-0.7931489702
 20
8.285393384
 30
0.0
  0
SPLINE
  5
2EF
100
AcDbEntity
  8
0
100
AcDbSpline
 62
9
  6
CONTINUOUS
 70
0
 71
3
 72
11
 73
7
 74
0
 42
0.0000001
 43
0.0000001
 44
0.0000000001
 40
0.0
 40
0.0
 40
0.0
 40
0.0
 40
0.2484961379
 40
0.4982816199
 40
0.7488901484
 40
1.0
 40
1.0
 40
1.0
 40
1.0
 10
-2.1811861595
 20
8.8711021147
 30
0.0
 10
-2.006185511
 20
8.8992908467
 30
0.0
 10
-1.655252854
 20
8.955675047
 30
0.0
 10
-1.1269455403
 20
9.0349142455
 30
0.0
 10
-0.5952862033
 20
9.103825601
 30
0.0
 10
-0.2390805078
 20
9.1393285398
 30
0.0
 10
-0.0605292624
 20
9.1536014472
 30
0.0
  0
SPLINE
  5
2F0
100
AcDbEntity
  8
0
100
AcDbSpline
 62
9
  6
CONTINUOUS
 70
0
 71
3
 72
18
 73
14
 74
0
 42
0.0000001
 43
0.0000001
 44
0.0000000001
 40
0.0
 40
0.0
 40
0.0
 40
0.0
 40
0.1952580974
 40
0.38302909
 40
0.5559973048
 40
0.7075106778
 40
0.8317159017
 40
0.9240434707
 40
0.9570072672
 40
0.9807902331
 40
0.9891758966
 40
0.9951885419
 40
1.0
 40
1.0
 40
1.0
 40
1.0
 10
-0.0605292624
 20
9.1536014472
 30
0.0
 10
-0.0604218629
 20
9.1291098016
 30
0.0
 10
-0.0602522768
 20
9.0810646885
 30
0.0
 10
-0.0600616213
 20
9.0113275895
 30
0.0
 10
-0.0599515967
 20
8.9470635874
 30
0.0
 10
-0.059904409
 20
8.890815283
 30
0.0
 10
-0.0599037531
 20
8.8445617388
 30
0.0
 10
-0.0599243036
 20
8.8134587007
 30
0.0
 10
-0.0599455214
 20
8.7944943371
 30
0.0
 10
-0.059956545
 20
8.7867323523
 30
0.0
 10
-0.0599642807
 20
8.7813862521
 30
0.0
 10
-0.0599676006
 20
8.7799605402
 30
0.0
 10
-0.059971111
 20
8.7766987238
 30
0.0
 10
-0.05997138
 20
8.7773022412
 30
0.0
  0
SPLINE
  5
2F1
100
AcDbEntity
  8
0
100
AcDbSpline
 62
9
  6
CONTINUOUS
 70
0
 71
3
 72
61
 73
57
 74
0
 42
0.0000001
 43
0.0000001
 44
0.0000000001
 40
0.0
 40
0.0
 40
0.0
 40
0.0
 40
0.0352916121
 40
0.0713897652
 40
0.1080210415
 40
0.1450110865
 40
0.1822334437
 40
0.2196105883
 40
0.294589913
 40
0.3697991513
 40
0.4452008229
 40
0.5208234367
 40
0.5587360035
 40
0.5966756989
 40
0.6346017349
 40
0.6724129206
 40
0.691241721
 40
0.7099723844
 40
0.7285615745
 40
0.7469685206
 40
0.7651504334
 40
0.7830443163
 40
0.8005790422
 40
0.8176810395
 40
0.8503144518
 40
0.8804788986
 40
0.894481071
 40
0.9077108222
 40
0.9201420082
 40
0.9317442623
 40
0.9424871693
 40
0.9523524498
 40
0.9613235947
 40
0.9693823282
 40
0.9765118445
 40
0.9827064314
 40
0.9854521544
 40
0.9879629153
 40
0.9902382499
 40
0.9922776714
 40
0.994080599
 40
0.9956461423
 40
0.9969733332
 40
0.9975472436
 40
0.9980612022
 40
0.9985150873
 40
0.9989087775
 40
0.9992421509
 40
0.9995150858
 40
0.9997274602
 40
0.9998108991
 40
0.9998791521
 40
0.999932204
 40
0.9999700394
 40
0.9999926431
 40
1.0
 40
1.0
 40
1.0
 40
1.0
 10
-0.7319427272
 20
8.8778163143
 30
0.0
 10
-0.7486225056
 20
8.8860452699
 30
0.0
 10
-0.7828698263
 20
8.9016863169
 30
0.0
 10
-0.8360439744
 20
8.9221218021
 30
0.0
 10
-0.8913083335
 20
8.939283014
 30
0.0
 10
-0.9481847765
 20
8.9528065655
 30
0.0
 10
-1.0062669546
 20
8.9623536332
 30
0.0
 10
-1.0848228581
 20
8.9695619149
 30
0.0
 10
-1.1840447225
 20
8.9677735507
 30
0.0
 10
-1.3017323824
 20
8.9484743176
 30
0.0
 10
-1.4161779127
 20
8.9139631896
 30
0.0
 10
-1.507480891
 20
8.873549292
 30
0.0
 10
-1.5772099992
 20
8.8345948659
 30
0.0
 10
-1.6276319814
 20
8.8020614793
 30
0.0
 10
-1.6757707449
 20
8.7663273305
 30
0.0
 10
-1.7136937521
 20
8.7339205074
 30
0.0
 10
-1.7424457369
 20
8.7065029898
 30
0.0
 10
-1.7630903983
 20
8.6852928113
 30
0.0
 10
-1.7827531772
 20
8.6634675098
 30
0.0
 10
-1.8013383858
 20
8.6410910814
 30
0.0
 10
-1.8187402325
 20
8.6182413363
 30
0.0
 10
-1.834923928
 20
8.5950726443
 30
0.0
 10
-1.8498480401
 20
8.5717460418
 30
0.0
 10
-1.8677336259
 20
8.5411259325
 30
0.0
 10
-1.886747077
 20
8.5035035209
 30
0.0
 10
-1.9024028199
 20
8.4661463878
 30
0.0
 10
-1.9127673045
 20
8.4377248834
 30
0.0
 10
-1.9193660846
 20
8.4178878157
 30
0.0
 10
-1.9250772417
 20
8.3990962787
 30
0.0
 10
-1.9299960339
 20
8.3814395135
 30
0.0
 10
-1.9342208405
 20
8.3649971821
 30
0.0
 10
-1.9378197948
 20
8.3498287247
 30
0.0
 10
-1.940862994
 20
8.33598453
 30
0.0
 10
-1.9434206825
 20
8.3235113806
 30
0.0
 10
-1.9455662549
 20
8.3124482542
 30
0.0
 10
-1.94709706
 20
8.3041185748
 30
0.0
 10
-1.9481477324
 20
8.2981758383
 30
0.0
 10
-1.9488235762
 20
8.2942644059
 30
0.0
 10
-1.9494241582
 20
8.2907177409
 30
0.0
 10
-1.9499540613
 20
8.2875374714
 30
0.0
 10
-1.9504180042
 20
8.2847254444
 30
0.0
 10
-1.9508170899
 20
8.28228315
 30
0.0
 10
-1.9511089613
 20
8.2804796409
 30
0.0
 10
-1.951310803
 20
8.2792229727
 30
0.0
 10
-1.9514390539
 20
8.2784206338
 30
0.0
 10
-1.9515517884
 20
8.2777119857
 30
0.0
 10
-1.9516491208
 20
8.2770972971
 30
0.0
 10
-1.9517311742
 20
8.2765766185
 30
0.0
 10
-1.9517980468
 20
8.276150626
 30
0.0
 10
-1.9518443459
 20
8.2758539077
 30
0.0
 10
-1.9518738522
 20
8.2756652018
 30
0.0
 10
-1.9518905155
 20
8.2755567487
 30
0.0
 10
-1.9519032136
 20
8.275478602
 30
0.0
 10
-1.9519128292
 20
8.275408834
 30
0.0
 10
-1.951917602
 20
8.2753921206
 30
0.0
 10
-1.9519208187
 20
8.2753575418
 30
0.0
 10
-1.9519211711
 20
8.2753614029
 30
0.0
  0
SPLINE
  5
2F2
100
AcDbEntity
  8
0
100
AcDbSpline
 62
9
  6
CONTINUOUS
 70
0
 71
3
 72
35
 73
31
 74
0
 42
0.0000001
 43
0.0000001
 44
0.0000000001
 40
0.0
 40
0.0
 40
0.0
 40
0.0
 40
0.0417876391
 40
0.0635560481
 40
0.0860423819
 40
0.1093473597
 40
0.1335713235
 40
0.1588084931
 40
0.1851523659
 40
0.2126791171
 40
0.2414061809
 40
0.2713458606
 40
0.3024230754
 40
0.3344623889
 40
0.3672940713
 40
0.4007809081
 40
0.4348012239
 40
0.4692569542
 40
0.5041054471
 40
0.5393032819
 40
0.57479974
 40
0.6105412309
 40
0.6464698262
 40
0.7186401304
 40
0.7547558033
 40
0.7908029752
 40
0.8267130891
 40
0.8623888898
 40
0.9324883321
 40
1.0
 40
1.0
 40
1.0
 40
1.0
 10
-0.9107353052
 20
8.2368530191
 30
0.0
 10
-0.9106860662
 20
8.2462874784
 30
0.0
 10
-0.9107904236
 20
8.2606373654
 30
0.0
 10
-0.9110614159
 20
8.2800615189
 30
0.0
 10
-0.9112904634
 20
8.295313101
 30
0.0
 10
-0.9114923059
 20
8.3111194994
 30
0.0
 10
-0.9116221999
 20
8.3275478509
 30
0.0
 10
-0.9115974863
 20
8.3446630618
 30
0.0
 10
-0.9113246735
 20
8.36252223
 30
0.0
 10
-0.9107104016
 20
8.3811618145
 30
0.0
 10
-0.9096263483
 20
8.4005939754
 30
0.0
 10
-0.9079430275
 20
8.4207887133
 30
0.0
 10
-0.9055689072
 20
8.4416671736
 30
0.0
 10
-0.9024499289
 20
8.4631079684
 30
0.0
 10
-0.8985187797
 20
8.4849682733
 30
0.0
 10
-0.8937568545
 20
8.5071205084
 30
0.0
 10
-0.8881512283
 20
8.5294530406
 30
0.0
 10
-0.8816926271
 20
8.5518735254
 30
0.0
 10
-0.8744892012
 20
8.5743439728
 30
0.0
 10
-0.866639376
 20
8.5968450995
 30
0.0
 10
-0.8582263823
 20
8.6193566245
 30
0.0
 10
-0.8493088515
 20
8.6418503727
 30
0.0
 10
-0.83681516
 20
8.6718278208
 30
0.0
 10
-0.8235716181
 20
8.7015789999
 30
0.0
 10
-0.8097149939
 20
8.7310735304
 30
0.0
 10
-0.7990621484
 20
8.7530260964
 30
0.0
 10
-0.7882024221
 20
8.7747659331
 30
0.0
 10
-0.7735918225
 20
8.8032239618
 30
0.0
 10
-0.7551146911
 20
8.8377141611
 30
0.0
 10
-0.7397136673
 20
8.8647035772
 30
0.0
 10
-0.7319427273
 20
8.877816314
 30
0.0
  0
SPLINE
  5
2F3
100
AcDbEntity
  8
0
100
AcDbSpline
 62
9
  6
CONTINUOUS
 70
0
 71
3
 72
39
 73
35
 74
0
 42
0.0000001
 43
0.0000001
 44
0.0000000001
 40
0.0
 40
0.0
 40
0.0
 40
0.0
 40
0.0000207877
 40
0.0000807366
 40
0.0001797863
 40
0.0003178762
 40
0.000710932
 40
0.0012594167
 40
0.0019628431
 40
0.0028207245
 40
0.0038325747
 40
0.0049979078
 40
0.007787082
 40
0.0111843704
 40
0.0151859033
 40
0.0197878189
 40
0.024986263
 40
0.0307773893
 40
0.044122335
 40
0.0597920505
 40
0.0777560558
 40
0.0979751106
 40
0.1203746724
 40
0.144871826
 40
0.1713842682
 40
0.2301287423
 40
0.295964589
 40
0.3682500879
 40
0.4463125914
 40
0.5294794803
 40
0.6170718099
 40
0.7084461467
 40
0.8030612104
 40
1.0
 40
1.0
 40
1.0
 40
1.0
 10
-0.4764247695
 20
8.6979609474
 30
0.0
 10
-0.4764259818
 20
8.697962751
 30
0.0
 10
-0.4764327601
 20
8.6979680455
 30
0.0
 10
-0.4764455334
 20
8.6979817204
 30
0.0
 10
-0.4764682347
 20
8.6980030083
 30
0.0
 10
-0.4765153668
 20
8.6980489892
 30
0.0
 10
-0.4765968028
 20
8.6981271745
 30
0.0
 10
-0.4767206765
 20
8.6982464356
 30
0.0
 10
-0.4768798725
 20
8.6983990965
 30
0.0
 10
-0.4770741838
 20
8.6985851159
 30
0.0
 10
-0.4773036276
 20
8.6988042682
 30
0.0
 10
-0.4776794409
 20
8.6991624852
 30
0.0
 10
-0.4782366377
 20
8.6996918448
 30
0.0
 10
-0.4790102826
 20
8.7004238494
 30
0.0
 10
-0.4799233404
 20
8.7012842364
 30
0.0
 10
-0.4809754577
 20
8.7022716069
 30
0.0
 10
-0.4821662826
 20
8.7033845608
 30
0.0
 10
-0.4840284528
 20
8.7051177697
 30
0.0
 10
-0.4866999626
 20
8.7075881373
 30
0.0
 10
-0.4903196721
 20
8.7109074163
 30
0.0
 10
-0.4944850497
 20
8.7146948442
 30
0.0
 10
-0.4991893004
 20
8.7189353333
 30
0.0
 10
-0.504426522
 20
8.7236044957
 30
0.0
 10
-0.5101871546
 20
8.7286750209
 30
0.0
 10
-0.5188533887
 20
8.736194725
 30
0.0
 10
-0.5309076325
 20
8.7464032217
 30
0.0
 10
-0.5468468913
 20
8.7594242274
 30
0.0
 10
-0.5646296452
 20
8.7733744609
 30
0.0
 10
-0.5841614315
 20
8.7880220041
 30
0.0
 10
-0.6053401474
 20
8.803129189
 30
0.0
 10
-0.6280528788
 20
8.8184675593
 30
0.0
 10
-0.6521935364
 20
8.8338123053
 30
0.0
 10
-0.6865851141
 20
8.8543066029
 30
0.0
 10
-0.7134792763
 20
8.8687073849
 30
0.0
 10
-0.7319427274
 20
8.8778163141
 30
0.0
  0
SPLINE
  5
2F4
100
AcDbEntity
  8
0
100
AcDbSpline
 62
9
  6
CONTINUOUS
 70
0
 71
3
 72
51
 73
47
 74
0
 42
0.0000001
 43
0.0000001
 44
0.0000000001
 40
0.0
 40
0.0
 40
0.0
 40
0.0
 40
0.0770834727
 40
0.115619144
 40
0.1541051984
 40
0.1924933056
 40
0.2307535405
 40
0.2688720114
 40
0.3068340281
 40
0.3446237658
 40
0.3822160201
 40
0.4566390938
 40
0.5297529791
 40
0.6011311749
 40
0.6360223067
 40
0.6703002505
 40
0.7038985539
 40
0.73674917
 40
0.7687793999
 40
0.799877287
 40
0.8299061445
 40
0.8587186198
 40
0.8860821951
 40
0.911719391
 40
0.9237925169
 40
0.9352869136
 40
0.9461339598
 40
0.9562650573
 40
0.9656111418
 40
0.9740817363
 40
0.9815574419
 40
0.9848842323
 40
0.9879167046
 40
0.9906396476
 40
0.9930378473
 40
0.9950973006
 40
0.9968083382
 40
0.9975304896
 40
0.998162287
 40
0.9987026568
 40
0.9991505377
 40
0.9995048949
 40
0.9997647584
 40
0.9999293785
 40
0.999976068
 40
1.0
 40
1.0
 40
1.0
 40
1.0
 10
-3.3962071584
 20
7.7068290524
 30
0.0
 10
-3.3886034912
 20
7.7107413
 30
0.0
 10
-3.376968224
 20
7.7161669773
 30
0.0
 10
-3.3611964417
 20
7.7227631657
 30
0.0
 10
-3.3492829224
 20
7.7274538866
 30
0.0
 10
-3.3373311829
 20
7.7319585643
 30
0.0
 10
-3.3253636759
 20
7.7363032719
 30
0.0
 10
-3.3133905849
 20
7.7404913544
 30
0.0
 10
-3.3014222225
 20
7.7445324983
 30
0.0
 10
-3.2894694069
 20
7.7484351537
 30
0.0
 10
-3.2736238937
 20
7.7534446931
 30
0.0
 10
-3.2539552917
 20
7.7593579759
 30
0.0
 10
-3.2305709452
 20
7.7659151846
 30
0.0
 10
-3.2113009576
 20
7.7708889245
 30
0.0
 10
-3.196132174
 20
7.7744959554
 30
0.0
 10
-3.1850072719
 20
7.7769880544
 30
0.0
 10
-3.1740747699
 20
7.7792995214
 30
0.0
 10
-3.1633615065
 20
7.7814390307
 30
0.0
 10
-3.1528990815
 20
7.7834150505
 30
0.0
 10
-3.1427264213
 20
7.7852358905
 30
0.0
 10
-3.1328902518
 20
7.7869083662
 30
0.0
 10
-3.1234503957
 20
7.7884385319
 30
0.0
 10
-3.1144804526
 20
7.789821238
 30
0.0
 10
-3.1073367623
 20
7.7908609527
 30
0.0
 10
-3.1019297075
 20
7.7916082366
 30
0.0
 10
-3.0981453979
 20
7.7921122915
 30
0.0
 10
-3.0945721788
 20
7.7925690715
 30
0.0
 10
-3.0912329534
 20
7.792976433
 30
0.0
 10
-3.0881529906
 20
7.7933314766
 30
0.0
 10
-3.0853634196
 20
7.7936326793
 30
0.0
 10
-3.0832361988
 20
7.7938475245
 30
0.0
 10
-3.0817083701
 20
7.7939932093
 30
0.0
 10
-3.0807050468
 20
7.7940850686
 30
0.0
 10
-3.0798039811
 20
7.7941639099
 30
0.0
 10
-3.0790101428
 20
7.7942298062
 30
0.0
 10
-3.0783278873
 20
7.7942828686
 30
0.0
 10
-3.0778307647
 20
7.7943183359
 30
0.0
 10
-3.0774914522
 20
7.7943401546
 30
0.0
 10
-3.0772816776
 20
7.7943524635
 30
0.0
 10
-3.0771021731
 20
7.7943617433
 30
0.0
 10
-3.0769534303
 20
7.7943679443
 30
0.0
 10
-3.0768354689
 20
7.7943713946
 30
0.0
 10
-3.0767494833
 20
7.7943715807
 30
0.0
 10
-3.0766964543
 20
7.7943702873
 30
0.0
 10
-3.0766713343
 20
7.794366382
 30
0.0
 10
-3.0766630938
 20
7.7943642946
 30
0.0
 10
-3.0766613584
 20
7.7943622854
 30
0.0
  0
LINE
  5
2F5
100
AcDbEntity
  8
0
100
AcDbLine
 62
9
  6
CONTINUOUS
 10
-2.2370803584
 20
8.8640469862
 11
-2.2781960131
 21
9.5256895186
  0
SPLINE
  5
2F6
100
AcDbEntity
  8
0
100
AcDbSpline
 62
9
  6
CONTINUOUS
 70
0
 71
3
 72
24
 73
20
 74
0
 42
0.0000001
 43
0.0000001
 44
0.0000000001
 40
0.0
 40
0.0
 40
0.0
 40
0.0
 40
0.0016347814
 40
0.0050882197
 40
0.0106563931
 40
0.0184395392
 40
0.0285058216
 40
0.040914023
 40
0.0729741049
 40
0.1148747832
 40
0.1661783139
 40
0.226272084
 40
0.294541486
 40
0.3702474558
 40
0.4521560758
 40
0.5389092673
 40
0.6291485985
 40
0.8149268466
 40
1.0
 40
1.0
 40
1.0
 40
1.0
 10
-3.5248834493
 20
6.0529020734
 30
0.0
 10
-3.5248825402
 20
6.0529175398
 30
0.0
 10
-3.5248329906
 20
6.0529490554
 30
0.0
 10
-3.5247407847
 20
6.0529708659
 30
0.0
 10
-3.5245803819
 20
6.0529983461
 30
0.0
 10
-3.5243607983
 20
6.0530194228
 30
0.0
 10
-3.5240741213
 20
6.0530387559
 30
0.0
 10
-3.5235579758
 20
6.0530606556
 30
0.0
 10
-3.5227392915
 20
6.0530747697
 30
0.0
 10
-3.5215521907
 20
6.0530736649
 30
0.0
 10
-3.5200994203
 20
6.0530551706
 30
0.0
 10
-3.5183970672
 20
6.0530189726
 30
0.0
 10
-3.5164638066
 20
6.0529649555
 30
0.0
 10
-3.5143242534
 20
6.0528933726
 30
0.0
 10
-3.5120099831
 20
6.0528058855
 30
0.0
 10
-3.5095584316
 20
6.0527042595
 30
0.0
 10
-3.5061238089
 20
6.0525508172
 30
0.0
 10
-3.5017592091
 20
6.0523364433
 30
0.0
 10
-3.4982496431
 20
6.052147707
 30
0.0
 10
-3.496498411
 20
6.0520497204
 30
0.0
  0
SPLINE
  5
2F7
100
AcDbEntity
  8
0
100
AcDbSpline
 62
9
  6
CONTINUOUS
 70
0
 71
3
 72
23
 73
19
 74
0
 42
0.0000001
 43
0.0000001
 44
0.0000000001
 40
0.0
 40
0.0
 40
0.0
 40
0.0
 40
0.0041415557
 40
0.0091439002
 40
0.0155443483
 40
0.0236666687
 40
0.0337204125
 40
0.0458596264
 40
0.0768756354
 40
0.1174062389
 40
0.1673051329
 40
0.2261968886
 40
0.2936850541
 40
0.369179039
 40
0.451341489
 40
0.6295449387
 40
0.8162149301
 40
1.0
 40
1.0
 40
1.0
 40
1.0
 10
-3.4847113709
 20
6.0027093675
 30
0.0
 10
-3.484756323
 20
6.002716715
 30
0.0
 10
-3.4848519209
 20
6.0027586369
 30
0.0
 10
-3.484971987
 20
6.0028839532
 30
0.0
 10
-3.4850802134
 20
6.0030707984
 30
0.0
 10
-3.4851782043
 20
6.0033234641
 30
0.0
 10
-3.4852659772
 20
6.0036455251
 30
0.0
 10
-3.4853773295
 20
6.0042204222
 30
0.0
 10
-3.4854737452
 20
6.0051371102
 30
0.0
 10
-3.4855293227
 20
6.0064719569
 30
0.0
 10
-3.4855283694
 20
6.0081145951
 30
0.0
 10
-3.4854672911
 20
6.0100525484
 30
0.0
 10
-3.4853427444
 20
6.0122694428
 30
0.0
 10
-3.4851531468
 20
6.0147384371
 30
0.0
 10
-3.4848107984
 20
6.018416421
 30
0.0
 10
-3.4842539203
 20
6.0233018387
 30
0.0
 10
-3.4834358813
 20
6.0292806158
 30
0.0
 10
-3.4828089602
 20
6.0333065978
 30
0.0
 10
-3.482479717
 20
6.0353008584
 30
0.0
  0
SPLINE
  5
2F8
100
AcDbEntity
  8
0
100
AcDbSpline
 62
9
  6
CONTINUOUS
 70
0
 71
3
 72
14
 73
10
 74
0
 42
0.0000001
 43
0.0000001
 44
0.0000000001
 40
0.0
 40
0.0
 40
0.0
 40
0.0
 40
0.1248681274
 40
0.2498173688
 40
0.3746970955
 40
0.4997767421
 40
0.6250069209
 40
0.7501983314
 40
1.0
 40
1.0
 40
1.0
 40
1.0
 10
-3.4824797786
 20
6.0353008659
 30
0.0
 10
-3.4834579077
 20
6.0354793182
 30
0.0
 10
-3.4853938134
 20
6.0359693797
 30
0.0
 10
-3.4881514665
 20
6.037145859
 30
0.0
 10
-3.4906477098
 20
6.0388153704
 30
0.0
 10
-3.4927985556
 20
6.0409118783
 30
0.0
 10
-3.4945368283
 20
6.0433663059
 30
0.0
 10
-3.4961990474
 20
6.0470093637
 30
0.0
 10
-3.496579227
 20
6.050062284
 30
0.0
 10
-3.4964983876
 20
6.0520497105
 30
0.0
  0
SPLINE
  5
2F9
100
AcDbEntity
  8
0
100
AcDbSpline
 62
9
  6
CONTINUOUS
 70
0
 71
3
 72
11
 73
7
 74
0
 42
0.0000001
 43
0.0000001
 44
0.0000000001
 40
0.0
 40
0.0
 40
0.0
 40
0.0
 40
0.2500000555
 40
0.5000001367
 40
0.7500001654
 40
1.0
 40
1.0
 40
1.0
 40
1.0
 10
-3.4965076027
 20
6.0520523995
 30
0.0
 10
-3.4882396225
 20
6.189956128
 30
0.0
 10
-3.471664943
 20
6.4657612786
 30
0.0
 10
-3.4466997254
 20
6.8794627678
 30
0.0
 10
-3.4215843812
 20
7.2931550561
 30
0.0
 10
-3.404693472
 20
7.5689408834
 30
0.0
 10
-3.3962090379
 20
7.7068313416
 30
0.0
  0
SPLINE
  5
2FA
100
AcDbEntity
  8
0
100
AcDbSpline
 62
9
  6
CONTINUOUS
 70
0
 71
3
 72
15
 73
11
 74
0
 42
0.0000001
 43
0.0000001
 44
0.0000000001
 40
0.0
 40
0.0
 40
0.0
 40
0.0
 40
0.3119072126
 40
0.4610112188
 40
0.6011500154
 40
0.7287212001
 40
0.8399791
 40
0.9313379264
 40
0.9686686279
 40
1.0
 40
1.0
 40
1.0
 40
1.0
 10
-3.3962072793
 20
7.7068290696
 30
0.0
 10
-3.3931860263
 20
7.7276466893
 30
0.0
 10
-3.3889563857
 20
7.7584509851
 30
0.0
 10
-3.3839189065
 20
7.7986799907
 30
0.0
 10
-3.3806506861
 20
7.8266005811
 30
0.0
 10
-3.377903916
 20
7.8520113422
 30
0.0
 10
-3.3757117224
 20
7.8741720797
 30
0.0
 10
-3.3742845055
 20
7.8902920518
 30
0.0
 10
-3.3734451237
 20
7.9010516005
 30
0.0
 10
-3.3731224938
 20
7.9056711582
 30
0.0
 10
-3.3729880225
 20
7.9077799323
 30
0.0
  0
SPLINE
  5
2FB
100
AcDbEntity
  8
0
100
AcDbSpline
 62
9
  6
CONTINUOUS
 70
0
 71
3
 72
20
 73
16
 74
0
 42
0.0000001
 43
0.0000001
 44
0.0000000001
 40
0.0
 40
0.0
 40
0.0
 40
0.0
 40
0.1155302009
 40
0.1773956312
 40
0.2415652226
 40
0.307861888
 40
0.3755711527
 40
0.4438529692
 40
0.5119964833
 40
0.6458279938
 40
0.7108952675
 40
0.7738400605
 40
0.8342019649
 40
0.892078923
 40
1.0
 40
1.0
 40
1.0
 40
1.0
 10
-3.3730005241
 20
7.9077766131
 30
0.0
 10
-3.375206061
 20
7.9071985464
 30
0.0
 10
-3.3786959045
 20
7.9066568902
 30
0.0
 10
-3.3834693874
 20
7.906642452
 30
0.0
 10
-3.3872522533
 20
7.9070505331
 30
0.0
 10
-3.3910730019
 20
7.9079258956
 30
0.0
 10
-3.3948472168
 20
7.909252448
 30
0.0
 10
-3.3984788725
 20
7.9110189295
 30
0.0
 10
-3.4029661691
 20
7.9139237554
 30
0.0
 10
-3.4067860701
 20
7.9176546044
 30
0.0
 10
-3.4097633453
 20
7.9218891708
 30
0.0
 10
-3.4115153603
 20
7.925180395
 30
0.0
 10
-3.4127686427
 20
7.9285407735
 30
0.0
 10
-3.4137935317
 20
7.9328927071
 30
0.0
 10
-3.4139849386
 20
7.9361967649
 30
0.0
 10
-3.4138597386
 20
7.9383229467
 30
0.0
  0
LINE
  5
2FC
100
AcDbEntity
  8
0
100
AcDbLine
 62
9
  6
CONTINUOUS
 10
-3.3730055577
 20
7.9077928321
 11
-3.3330708631
 21
8.6811784707
  0
SPLINE
  5
2FD
100
AcDbEntity
  8
0
100
AcDbSpline
 62
9
  6
CONTINUOUS
 70
0
 71
3
 72
42
 73
38
 74
0
 42
0.0000001
 43
0.0000001
 44
0.0000000001
 40
0.0
 40
0.0
 40
0.0
 40
0.0
 40
0.0000477402
 40
0.0001773001
 40
0.0003880385
 40
0.0006792978
 40
0.0010504183
 40
0.00150074
 40
0.0026362969
 40
0.004079062
 40
0.0058202437
 40
0.007850938
 40
0.0101622385
 40
0.012745127
 40
0.0155903944
 40
0.0220311575
 40
0.0294115082
 40
0.037662344
 40
0.046716015
 40
0.0565106296
 40
0.0669901906
 40
0.0780999896
 40
0.1020293494
 40
0.1279676845
 40
0.1556502282
 40
0.1848545075
 40
0.2154057165
 40
0.2471536209
 40
0.3137736796
 40
0.3839246745
 40
0.4570035278
 40
0.5323321906
 40
0.6091538745
 40
0.6868652311
 40
0.8434451202
 40
0.9218146994
 40
1.0
 40
1.0
 40
1.0
 40
1.0
 10
-3.0558769594
 20
5.9706177169
 30
0.0
 10
-3.0558837309
 20
5.9706165795
 30
0.0
 10
-3.0559093143
 20
5.9706225507
 30
0.0
 10
-3.0559645652
 20
5.9706258647
 30
0.0
 10
-3.0560548634
 20
5.9706383583
 30
0.0
 10
-3.0561794577
 20
5.9706529471
 30
0.0
 10
-3.0563382776
 20
5.9706730761
 30
0.0
 10
-3.05661751
 20
5.9707083107
 30
0.0
 10
-3.0570495445
 20
5.9707640923
 30
0.0
 10
-3.057665564
 20
5.9708446073
 30
0.0
 10
-3.0584091427
 20
5.9709426489
 30
0.0
 10
-3.0592764884
 20
5.9710576062
 30
0.0
 10
-3.0602637889
 20
5.9711889053
 30
0.0
 10
-3.0613671729
 20
5.9713360407
 30
0.0
 10
-3.063059169
 20
5.9715625006
 30
0.0
 10
-3.0654348012
 20
5.971882549
 30
0.0
 10
-3.0685803711
 20
5.9723106427
 30
0.0
 10
-3.0720976231
 20
5.9727944947
 30
0.0
 10
-3.0759580268
 20
5.9733317953
 30
0.0
 10
-3.0801350295
 20
5.9739196697
 30
0.0
 10
-3.084604037
 20
5.9745546832
 30
0.0
 10
-3.0910846615
 20
5.9754836728
 30
0.0
 10
-3.0997641153
 20
5.9767426075
 30
0.0
 10
-3.1107996435
 20
5.9783633192
 30
0.0
 10
-3.1225835571
 20
5.9801094703
 30
0.0
 10
-3.1350220918
 20
5.9819641234
 30
0.0
 10
-3.1480375398
 20
5.9839144121
 30
0.0
 10
-3.1663735365
 20
5.9866719914
 30
0.0
 10
-3.1903392449
 20
5.9902932693
 30
0.0
 10
-3.2201837232
 20
5.9947964547
 30
0.0
 10
-3.2512680078
 20
5.9994780026
 30
0.0
 10
-3.2832966521
 20
6.0043314432
 30
0.0
 10
-3.3159767004
 20
6.009333044
 30
0.0
 10
-3.3602006916
 20
6.0161530609
 30
0.0
 10
-3.4046344051
 20
6.0230736498
 30
0.0
 10
-3.4491280915
 20
6.0300517798
 30
0.0
 10
-3.4713717058
 20
6.0335498239
 30
0.0
 10
-3.4824797786
 20
6.0353008659
 30
0.0
  0
LINE
  5
2FE
100
AcDbEntity
  8
0
100
AcDbLine
 62
9
  6
CONTINUOUS
 10
-3.3330381605
 20
8.6811768472
 11
-3.2913227859
 21
9.5134843937
  0
LINE
  5
2FF
100
AcDbEntity
  8
0
100
AcDbLine
 62
7
  6
CONTINUOUS
 10
-2.1964512295
 20
8.2030579675
 11
-2.237082063
 21
8.8640468825
  0
SPLINE
  5
300
100
AcDbEntity
  8
0
100
AcDbSpline
 62
9
  6
CONTINUOUS
 70
0
 71
3
 72
19
 73
15
 74
0
 42
0.0000001
 43
0.0000001
 44
0.0000000001
 40
0.0
 40
0.0
 40
0.0
 40
0.0
 40
0.1510648681
 40
0.299990682
 40
0.4453480376
 40
0.5160891052
 40
0.5851640287
 40
0.6522508575
 40
0.71690225
 40
0.8361669987
 40
0.8888190237
 40
0.9349725943
 40
0.9727379136
 40
1.0
 40
1.0
 40
1.0
 40
1.0
 10
-3.3729867603
 20
7.9077802103
 30
0.0
 10
-3.3519714007
 20
7.9134931443
 30
0.0
 10
-3.3100592728
 20
7.9241860289
 30
0.0
 10
-3.2474420838
 20
7.9384010809
 30
0.0
 10
-3.1957916128
 20
7.9485187471
 30
0.0
 10
-3.1552787245
 20
7.9555161347
 30
0.0
 10
-3.1258162501
 20
7.9601765343
 30
0.0
 10
-3.0971650921
 20
7.9643303445
 30
0.0
 10
-3.0612930497
 20
7.9690875706
 30
0.0
 10
-3.0274090551
 20
7.9729902469
 30
0.0
 10
-2.9961219269
 20
7.9760684128
 30
0.0
 10
-2.9765097535
 20
7.9778043619
 30
0.0
 10
-2.9605315009
 20
7.9790720688
 30
0.0
 10
-2.9511800346
 20
7.9797313273
 30
0.0
 10
-2.9472586167
 20
7.9799938794
 30
0.0
  0
LINE
  5
301
100
AcDbEntity
  8
0
100
AcDbLine
 62
9
  6
CONTINUOUS
 10
-2.9472586167
 20
7.9799938794
 11
-2.9397790212
 21
7.980464444
  0
SPLINE
  5
302
100
AcDbEntity
  8
0
100
AcDbSpline
 62
9
  6
CONTINUOUS
 70
0
 71
3
 72
25
 73
21
 74
0
 42
0.0000001
 43
0.0000001
 44
0.0000000001
 40
0.0
 40
0.0
 40
0.0
 40
0.0
 40
0.0017485633
 40
0.0055409481
 40
0.0116651043
 40
0.0202086373
 40
0.0312275573
 40
0.044768712
 40
0.060875347
 40
0.0795890111
 40
0.1247858397
 40
0.1796121541
 40
0.2431021365
 40
0.3142879432
 40
0.3921028062
 40
0.4750872643
 40
0.561683222
 40
0.6503322038
 40
0.8282689455
 40
1.0
 40
1.0
 40
1.0
 40
1.0
 10
-3.4274334664
 20
7.7078126135
 30
0.0
 10
-3.4274323946
 20
7.7078308127
 30
0.0
 10
-3.4273705534
 20
7.7078662433
 30
0.0
 10
-3.4272603226
 20
7.707890539
 30
0.0
 10
-3.4270654024
 20
7.7079211625
 30
0.0
 10
-3.4268005159
 20
7.707944185
 30
0.0
 10
-3.4264551906
 20
7.7079649034
 30
0.0
 10
-3.4260317312
 20
7.7079803728
 30
0.0
 10
-3.4255275174
 20
7.7079912005
 30
0.0
 10
-3.4246933142
 20
7.707999041
 30
0.0
 10
-3.4234552912
 20
7.7079929707
 30
0.0
 10
-3.4217506983
 20
7.7079657986
 30
0.0
 10
-3.4197754842
 20
7.7079181764
 30
0.0
 10
-3.4175610568
 20
7.7078506419
 30
0.0
 10
-3.4151439039
 20
7.7077639433
 30
0.0
 10
-3.4125666061
 20
7.7076605458
 30
0.0
 10
-3.4098768456
 20
7.7075430026
 30
0.0
 10
-3.4061985748
 20
7.7073706059
 30
0.0
 10
-3.4016346124
 20
7.7071366979
 30
0.0
 10
-3.397994634
 20
7.7069328745
 30
0.0
 10
-3.3962071798
 20
7.7068287709
 30
0.0
  0
SPLINE
  5
303
100
AcDbEntity
  8
0
100
AcDbSpline
 62
9
  6
CONTINUOUS
 70
0
 71
3
 72
51
 73
47
 74
0
 42
0.0000001
 43
0.0000001
 44
0.0000000001
 40
0.0
 40
0.0
 40
0.0
 40
0.0
 40
0.0770834727
 40
0.115619144
 40
0.1541051984
 40
0.1924933056
 40
0.2307535405
 40
0.2688720114
 40
0.3068340281
 40
0.3446237658
 40
0.3822160201
 40
0.4566390938
 40
0.5297529791
 40
0.6011311749
 40
0.6360223067
 40
0.6703002505
 40
0.7038985539
 40
0.73674917
 40
0.7687793999
 40
0.799877287
 40
0.8299061445
 40
0.8587186198
 40
0.8860821951
 40
0.911719391
 40
0.9237925169
 40
0.9352869136
 40
0.9461339598
 40
0.9562650573
 40
0.9656111418
 40
0.9740817363
 40
0.9815574419
 40
0.9848842323
 40
0.9879167046
 40
0.9906396476
 40
0.9930378473
 40
0.9950973006
 40
0.9968083382
 40
0.9975304896
 40
0.998162287
 40
0.9987026568
 40
0.9991505377
 40
0.9995048949
 40
0.9997647584
 40
0.9999293785
 40
0.999976068
 40
1.0
 40
1.0
 40
1.0
 40
1.0
 10
19.115392287
 20
7.7823166633
 30
0.0
 10
19.1232151945
 20
7.7857697134
 30
0.0
 10
19.1351525835
 20
7.7904937116
 30
0.0
 10
19.1512887865
 20
7.7961401062
 30
0.0
 10
19.1634602193
 20
7.8001138987
 30
0.0
 10
19.1756587388
 20
7.8038997041
 30
0.0
 10
19.1878634826
 20
7.8075248848
 30
0.0
 10
19.2000644845
 20
7.8109933855
 30
0.0
 10
19.2122520261
 20
7.814315489
 30
0.0
 10
19.2244158111
 20
7.817500274
 30
0.0
 10
19.2405312395
 20
7.8215584432
 30
0.0
 10
19.2605167432
 20
7.8262913561
 30
0.0
 10
19.2842497135
 20
7.8314460401
 30
0.0
 10
19.3037814238
 20
7.8352647834
 30
0.0
 10
19.3191378989
 20
7.8379631796
 30
0.0
 10
19.3303913354
 20
7.8397891504
 30
0.0
 10
19.3414419685
 20
7.8414462531
 30
0.0
 10
19.352263523
 20
7.842944743
 30
0.0
 10
19.3628249587
 20
7.8442949529
 30
0.0
 10
19.3730879125
 20
7.8455074931
 30
0.0
 10
19.3830061465
 20
7.8465919464
 30
0.0
 10
19.3925203041
 20
7.8475579145
 30
0.0
 10
19.4015566098
 20
7.8484046349
 30
0.0
 10
19.4087494947
 20
7.8490175979
 30
0.0
 10
19.414191425
 20
7.8494419437
 30
0.0
 10
19.4179990159
 20
7.8497200132
 30
0.0
 10
19.421593078
 20
7.8499634473
 30
0.0
 10
19.4249506213
 20
7.8501714684
 30
0.0
 10
19.4280462491
 20
7.8503426853
 30
0.0
 10
19.4308487968
 20
7.8504774294
 30
0.0
 10
19.4329850304
 20
7.8505653659
 30
0.0
 10
19.4345188194
 20
7.8506199165
 30
0.0
 10
19.4355258302
 20
7.850651935
 30
0.0
 10
19.43642999
 20
7.8506770407
 30
0.0
 10
19.4372263423
 20
7.8506956023
 30
0.0
 10
19.437910546
 20
7.8507079899
 30
0.0
 10
19.438408898
 20
7.8507138252
 30
0.0
 10
19.4387489076
 20
7.8507154228
 30
0.0
 10
19.438959043
 20
7.8507152324
 30
0.0
 10
19.4391387815
 20
7.8507138187
 30
0.0
 10
19.4392876299
 20
7.8507111614
 30
0.0
 10
19.4394055876
 20
7.8507075892
 30
0.0
 10
19.439491432
 20
7.8507026604
 30
0.0
 10
19.4395442902
 20
7.8506982151
 30
0.0
 10
19.4395691335
 20
7.8506928226
 30
0.0
 10
19.4395772353
 20
7.8506902487
 30
0.0
 10
19.4395788481
 20
7.8506881399
 30
0.0
  0
LINE
  5
304
100
AcDbEntity
  8
0
100
AcDbLine
 62
9
  6
CONTINUOUS
 10
20.3412988239
 20
8.8685401428
 11
20.3396108598
 21
9.5314567956
  0
SPLINE
  5
305
100
AcDbEntity
  8
0
100
AcDbSpline
 62
9
  6
CONTINUOUS
 70
0
 71
3
 72
24
 73
20
 74
0
 42
0.0000001
 43
0.0000001
 44
0.0000000001
 40
0.0
 40
0.0
 40
0.0
 40
0.0
 40
0.0016347814
 40
0.0050882197
 40
0.0106563931
 40
0.0184395392
 40
0.0285058216
 40
0.040914023
 40
0.0729741049
 40
0.1148747832
 40
0.1661783139
 40
0.226272084
 40
0.294541486
 40
0.3702474558
 40
0.4521560758
 40
0.5389092673
 40
0.6291485985
 40
0.8149268466
 40
1.0
 40
1.0
 40
1.0
 40
1.0
 10
18.888567256
 20
6.1389717679
 30
0.0
 10
18.8885690834
 20
6.1389871529
 30
0.0
 10
18.8886204199
 20
6.1390156654
 30
0.0
 10
18.8887137598
 20
6.1390319528
 30
0.0
 10
18.8888755132
 20
6.1390498435
 30
0.0
 10
18.8890959616
 20
6.1390578219
 30
0.0
 10
18.889383281
 20
6.1390600691
 30
0.0
 10
18.8898998152
 20
6.1390512293
 30
0.0
 10
18.8907178896
 20
6.1390166226
 30
0.0
 10
18.8919028229
 20
6.1389449103
 30
0.0
 10
18.893351921
 20
6.1388400371
 30
0.0
 10
18.8950491069
 20
6.1387026462
 30
0.0
 10
18.8969757316
 20
6.1385337333
 30
0.0
 10
18.8991072389
 20
6.1383350152
 30
0.0
 10
18.9014122079
 20
6.1381100288
 30
0.0
 10
18.9038533741
 20
6.137862763
 30
0.0
 10
18.9072727888
 20
6.137505299
 30
0.0
 10
18.9116169098
 20
6.1370316957
 30
0.0
 10
18.9151090358
 20
6.1366345424
 30
0.0
 10
18.916851339
 20
6.1364325649
 30
0.0
  0
SPLINE
  5
306
100
AcDbEntity
  8
0
100
AcDbSpline
 62
9
  6
CONTINUOUS
 70
0
 71
3
 72
23
 73
19
 74
0
 42
0.0000001
 43
0.0000001
 44
0.0000000001
 40
0.0
 40
0.0
 40
0.0
 40
0.0
 40
0.0041415557
 40
0.0091439002
 40
0.0155443483
 40
0.0236666687
 40
0.0337204125
 40
0.0458596264
 40
0.0768756354
 40
0.1174062389
 40
0.1673051329
 40
0.2261968886
 40
0.2936850541
 40
0.369179039
 40
0.451341489
 40
0.6295449387
 40
0.8162149301
 40
1.0
 40
1.0
 40
1.0
 40
1.0
 10
18.925682716
 20
6.0864784709
 30
0.0
 10
18.9256382806
 20
6.0864884791
 30
0.0
 10
18.9255453454
 20
6.086536013
 30
0.0
 10
18.9254329458
 20
6.086668249
 30
0.0
 10
18.9253360247
 20
6.0868612008
 30
0.0
 10
18.925253236
 20
6.0871192477
 30
0.0
 10
18.9251847749
 20
6.0874459592
 30
0.0
 10
18.925107815
 20
6.0880264617
 30
0.0
 10
18.9250660952
 20
6.0889472616
 30
0.0
 10
18.9250900135
 20
6.0902830507
 30
0.0
 10
18.9251886702
 20
6.0919227238
 30
0.0
 10
18.925364911
 20
6.0938536129
 30
0.0
 10
18.9256210993
 20
6.0960591742
 30
0.0
 10
18.9259572185
 20
6.0985125196
 30
0.0
 10
18.9265177295
 20
6.1021636284
 30
0.0
 10
18.9273642092
 20
6.1070072729
 30
0.0
 10
18.928536421
 20
6.1129268069
 30
0.0
 10
18.9294017
 20
6.116908371
 30
0.0
 10
18.9298489801
 20
6.1188795172
 30
0.0
  0
SPLINE
  5
307
100
AcDbEntity
  8
0
100
AcDbSpline
 62
9
  6
CONTINUOUS
 70
0
 71
3
 72
14
 73
10
 74
0
 42
0.0000001
 43
0.0000001
 44
0.0000000001
 40
0.0
 40
0.0
 40
0.0
 40
0.0
 40
0.1248681274
 40
0.2498173688
 40
0.3746970955
 40
0.4997767421
 40
0.6250069209
 40
0.7501983314
 40
1.0
 40
1.0
 40
1.0
 40
1.0
 10
18.929848919
 20
6.1188795283
 30
0.0
 10
18.9288831362
 20
6.1191158444
 30
0.0
 10
18.9269798072
 20
6.119720187
 30
0.0
 10
18.9242970144
 20
6.1210586101
 30
0.0
 10
18.9219044943
 20
6.1228736437
 30
0.0
 10
18.9198821582
 20
6.1250943732
 30
0.0
 10
18.918292954
 20
6.1276478487
 30
0.0
 10
18.9168503692
 20
6.1313833261
 30
0.0
 10
18.9166524522
 20
6.1344534544
 30
0.0
 10
18.9168513618
 20
6.1364325537
 30
0.0
  0
SPLINE
  5
308
100
AcDbEntity
  8
0
100
AcDbSpline
 62
9
  6
CONTINUOUS
 70
0
 71
3
 72
11
 73
7
 74
0
 42
0.0000001
 43
0.0000001
 44
0.0000000001
 40
0.0
 40
0.0
 40
0.0
 40
0.0
 40
0.2500000555
 40
0.5000001367
 40
0.7500001654
 40
1.0
 40
1.0
 40
1.0
 40
1.0
 10
18.916842323
 20
6.1364357861
 30
0.0
 10
18.9332982606
 20
6.2736035663
 30
0.0
 10
18.9662486495
 20
6.5479345215
 30
0.0
 10
19.0157768774
 20
6.9594185903
 30
0.0
 10
19.0654544187
 20
7.3708845449
 30
0.0
 10
19.0987193279
 20
7.6451774015
 30
0.0
 10
19.115390547
 20
7.7823190601
 30
0.0
  0
SPLINE
  5
309
100
AcDbEntity
  8
0
100
AcDbSpline
 62
9
  6
CONTINUOUS
 70
0
 71
3
 72
15
 73
11
 74
0
 42
0.0000001
 43
0.0000001
 44
0.0000000001
 40
0.0
 40
0.0
 40
0.0
 40
0.0
 40
0.3119072126
 40
0.4610112188
 40
0.6011500154
 40
0.7287212001
 40
0.8399791
 40
0.9313379264
 40
0.9686686279
 40
1.0
 40
1.0
 40
1.0
 40
1.0
 10
19.1153921673
 20
7.7823166875
 30
0.0
 10
19.1196463156
 20
7.802917743
 30
0.0
 10
19.1257007254
 20
7.8334159171
 30
0.0
 10
19.1331221309
 20
7.8732740634
 30
0.0
 10
19.1380452982
 20
7.9009508236
 30
0.0
 10
19.1422986523
 20
7.9261532144
 30
0.0
 10
19.1458050985
 20
7.9481443225
 30
0.0
 10
19.148188614
 20
7.9641508619
 30
0.0
 10
19.149666494
 20
7.9748414335
 30
0.0
 10
19.1502633268
 20
7.9794336218
 30
0.0
 10
19.1505229911
 20
7.9815306638
 30
0.0
  0
SPLINE
  5
30A
100
AcDbEntity
  8
0
100
AcDbSpline
 62
9
  6
CONTINUOUS
 70
0
 71
3
 72
20
 73
16
 74
0
 42
0.0000001
 43
0.0000001
 44
0.0000000001
 40
0.0
 40
0.0
 40
0.0
 40
0.0
 40
0.1155302009
 40
0.1773956312
 40
0.2415652226
 40
0.307861888
 40
0.3755711527
 40
0.4438529692
 40
0.5119964833
 40
0.6458279938
 40
0.7108952675
 40
0.7738400605
 40
0.8342019649
 40
0.892078923
 40
1.0
 40
1.0
 40
1.0
 40
1.0
 10
19.1505103143
 20
7.9815280941
 30
0.0
 10
19.1482742986
 20
7.9810822375
 30
0.0
 10
19.1447584159
 20
7.9807491183
 30
0.0
 10
19.1399925259
 20
7.9810186353
 30
0.0
 10
19.1362406306
 20
7.9816510011
 30
0.0
 10
19.1324787138
 20
7.9827520741
 30
0.0
 10
19.1287900855
 20
7.9843007703
 30
0.0
 10
19.1252699311
 20
7.9862801373
 30
0.0
 10
19.1209633603
 20
7.9894467271
 30
0.0
 10
19.1173721356
 20
7.9933981805
 30
0.0
 10
19.1146520064
 20
7.9978023396
 30
0.0
 10
19.1130988574
 20
8.0011919474
 30
0.0
 10
19.1120476713
 20
8.0046209223
 30
0.0
 10
19.1112834525
 20
8.0090261116
 30
0.0
 10
19.1112889119
 20
8.0123357045
 30
0.0
 10
19.1115403568
 20
8.0144506747
 30
0.0
  0
LINE
  5
30B
100
AcDbEntity
  8
0
100
AcDbLine
 62
9
  6
CONTINUOUS
 10
19.1505062543
 20
7.9815445838
 11
19.2363716835
 21
8.7511855741
  0
SPLINE
  5
30C
100
AcDbEntity
  8
0
100
AcDbSpline
 62
9
  6
CONTINUOUS
 70
0
 71
3
 72
42
 73
38
 74
0
 42
0.0000001
 43
0.0000001
 44
0.0000000001
 40
0.0
 40
0.0
 40
0.0
 40
0.0
 40
0.0000477402
 40
0.0001773001
 40
0.0003880385
 40
0.0006792978
 40
0.0010504183
 40
0.00150074
 40
0.0026362969
 40
0.004079062
 40
0.0058202437
 40
0.007850938
 40
0.0101622385
 40
0.012745127
 40
0.0155903944
 40
0.0220311575
 40
0.0294115082
 40
0.037662344
 40
0.046716015
 40
0.0565106296
 40
0.0669901906
 40
0.0780999896
 40
0.1020293494
 40
0.1279676845
 40
0.1556502282
 40
0.1848545075
 40
0.2154057165
 40
0.2471536209
 40
0.3137736796
 40
0.3839246745
 40
0.4570035278
 40
0.5323321906
 40
0.6091538745
 40
0.6868652311
 40
0.8434451202
 40
0.9218146994
 40
1.0
 40
1.0
 40
1.0
 40
1.0
 10
19.3518490293
 20
6.0289363123
 30
0.0
 10
19.3518422021
 20
6.0289355797
 30
0.0
 10
19.3518170192
 20
6.028943062
 30
0.0
 10
19.3517620632
 20
6.0289496565
 30
0.0
 10
19.351672668
 20
6.028967499
 30
0.0
 10
19.3515491621
 20
6.0289894729
 30
0.0
 10
19.3513918206
 20
6.029019013
 30
0.0
 10
19.3511151784
 20
6.0290707941
 30
0.0
 10
19.3506872267
 20
6.0291521746
 30
0.0
 10
19.350077087
 20
6.0292691883
 30
0.0
 10
19.3493406564
 20
6.0294112848
 30
0.0
 10
19.3484816841
 20
6.0295776288
 30
0.0
 10
19.3475039414
 20
6.0297674207
 30
0.0
 10
19.3464112627
 20
6.0299799255
 30
0.0
 10
19.3447357323
 20
6.0303066254
 30
0.0
 10
19.3423833429
 20
6.0307674111
 30
0.0
 10
19.3392688056
 20
6.0313818473
 30
0.0
 10
19.3357865609
 20
6.0320740508
 30
0.0
 10
19.3319649511
 20
6.0328400192
 30
0.0
 10
19.3278303111
 20
6.0336753034
 30
0.0
 10
19.3234069871
 20
6.0345750118
 30
0.0
 10
19.3169930937
 20
6.035887828
 30
0.0
 10
19.3084038893
 20
6.0376607928
 30
0.0
 10
19.2974843009
 20
6.0399350348
 30
0.0
 10
19.2858251133
 20
6.0423790086
 30
0.0
 10
19.2735189173
 20
6.0449702294
 30
0.0
 10
19.260642518
 20
6.0476912317
 30
0.0
 10
19.2425030084
 20
6.0515345646
 30
0.0
 10
19.218795128
 20
6.0565749256
 30
0.0
 10
19.1892713426
 20
6.0628453053
 30
0.0
 10
19.1585205552
 20
6.0693674763
 30
0.0
 10
19.1268373044
 20
6.0761174066
 30
0.0
 10
19.0945126156
 20
6.0830539807
 30
0.0
 10
19.0507725833
 20
6.092492392
 30
0.0
 10
19.0068291821
 20
6.1020436715
 30
0.0
 10
18.9628293369
 20
6.1116559576
 30
0.0
 10
18.9408331715
 20
6.1164708718
 30
0.0
 10
18.929848919
 20
6.1188795283
 30
0.0
  0
LINE
  5
30D
100
AcDbEntity
  8
0
100
AcDbLine
 62
9
  6
CONTINUOUS
 10
19.2364042316
 20
8.7511820083
 11
19.3275518985
 21
9.579534667
  0
LINE
  5
30E
100
AcDbEntity
  8
0
100
AcDbLine
 62
7
  6
CONTINUOUS
 10
20.342539995
 20
8.2063047855
 11
20.3423135292
 21
8.3217125615
  0
LINE
  5
30F
100
AcDbEntity
  8
0
100
AcDbLine
 62
7
  6
CONTINUOUS
 10
20.3423135292
 20
8.3217125615
 11
20.3412971162
 21
8.8685401407
  0
SPLINE
  5
310
100
AcDbEntity
  8
0
100
AcDbSpline
 62
9
  6
CONTINUOUS
 70
0
 71
3
 72
19
 73
15
 74
0
 42
0.0000001
 43
0.0000001
 44
0.0000000001
 40
0.0
 40
0.0
 40
0.0
 40
0.0
 40
0.1510648681
 40
0.299990682
 40
0.4453480376
 40
0.5160891052
 40
0.5851640287
 40
0.6522508575
 40
0.71690225
 40
0.8361669987
 40
0.8888190237
 40
0.9349725943
 40
0.9727379136
 40
1.0
 40
1.0
 40
1.0
 40
1.0
 10
19.1505242676
 20
7.9815308663
 30
0.0
 10
19.1718422275
 20
7.9859836791
 30
0.0
 10
19.2143161675
 20
7.9941646731
 30
0.0
 10
19.2776680102
 20
8.004630049
 30
0.0
 10
19.3298288369
 20
8.0116576006
 30
0.0
 10
19.3706862044
 20
8.0162328682
 30
0.0
 10
19.4003737177
 20
8.0191325707
 30
0.0
 10
19.4292212189
 20
8.0215748383
 30
0.0
 10
19.4653127111
 20
8.0241899511
 30
0.0
 10
19.4993688463
 20
8.0260702773
 30
0.0
 10
19.5307836706
 20
8.0272820161
 30
0.0
 10
19.5504643752
 20
8.0278483478
 30
0.0
 10
19.5664897417
 20
8.0281634141
 30
0.0
 10
19.5758638639
 20
8.0282652746
 30
0.0
 10
19.5797939556
 20
8.0282941135
 30
0.0
  0
LINE
  5
311
100
AcDbEntity
  8
0
100
AcDbLine
 62
9
  6
CONTINUOUS
 10
19.5797939556
 20
8.0282941135
 11
19.5872882976
 21
8.0283189542
  0
SPLINE
  5
312
100
AcDbEntity
  8
0
100
AcDbSpline
 62
9
  6
CONTINUOUS
 70
0
 71
3
 72
25
 73
21
 74
0
 42
0.0000001
 43
0.0000001
 44
0.0000000001
 40
0.0
 40
0.0
 40
0.0
 40
0.0
 40
0.0017485633
 40
0.0055409481
 40
0.0116651043
 40
0.0202086373
 40
0.0312275573
 40
0.044768712
 40
0.060875347
 40
0.0795890111
 40
0.1247858397
 40
0.1796121541
 40
0.2431021365
 40
0.3142879432
 40
0.3921028062
 40
0.4750872643
 40
0.561683222
 40
0.6503322038
 40
0.8282689455
 40
1.0
 40
1.0
 40
1.0
 40
1.0
 10
19.0842797692
 20
7.7851558424
 30
0.0
 10
19.0842819216
 20
7.7851739456
 30
0.0
 10
19.0843457608
 20
7.7852056351
 30
0.0
 10
19.0844572415
 20
7.7852233312
 30
0.0
 10
19.084653638
 20
7.7852423065
 30
0.0
 10
19.084919425
 20
7.7852495327
 30
0.0
 10
19.0852653712
 20
7.7852496742
 30
0.0
 10
19.085689001
 20
7.7852399286
 30
0.0
 10
19.0861929661
 20
7.7852207462
 30
0.0
 10
19.0870261586
 20
7.7851789539
 30
0.0
 10
19.0882616287
 20
7.7850992559
 30
0.0
 10
19.0899615873
 20
7.7849707418
 30
0.0
 10
19.0919304716
 20
7.784805717
 30
0.0
 10
19.0941369612
 20
7.7846065866
 30
0.0
 10
19.0965446776
 20
7.7843762678
 30
0.0
 10
19.0991112621
 20
7.7841197542
 30
0.0
 10
19.1017892687
 20
7.7838424305
 30
0.0
 10
19.1054507727
 20
7.7834515533
 30
0.0
 10
19.1099927415
 20
7.7829465922
 30
0.0
 10
19.1136141516
 20
7.7825266216
 30
0.0
 10
19.1153922489
 20
7.7823163834
 30
0.0
  0
SPLINE
  5
313
100
AcDbEntity
  8
0
100
AcDbSpline
 62
7
  6
CONTINUOUS
 70
0
 71
3
 72
29
 73
25
 74
0
 42
0.0000001
 43
0.0000001
 44
0.0000000001
 40
0.0
 40
0.0
 40
0.0
 40
0.0
 40
0.0624644212
 40
0.1249631121
 40
0.1874646988
 40
0.2187308678
 40
0.2499880167
 40
0.3124693767
 40
0.375000704
 40
0.4062711312
 40
0.4375430861
 40
0.4688289305
 40
0.5001173295
 40
0.5313978325
 40
0.5626682259
 40
0.5939414315
 40
0.6252187026
 40
0.6564824223
 40
0.6877251249
 40
0.7501803982
 40
0.8126275844
 40
0.8750987762
 40
0.9375589768
 40
1.0
 40
1.0
 40
1.0
 40
1.0
 10
20.7818301663
 20
9.8295476239
 30
0.0
 10
20.7818315706
 20
9.8193919617
 30
0.0
 10
20.7813311443
 20
9.7990694849
 30
0.0
 10
20.7787667639
 20
9.7686792307
 30
0.0
 10
20.7748606931
 20
9.7435477324
 30
0.0
 10
20.7705199128
 20
9.7236837042
 30
0.0
 10
20.7652976722
 20
9.7040364802
 30
0.0
 10
20.7569831431
 20
9.6799779816
 30
0.0
 10
20.7459944644
 20
9.6569932438
 30
0.0
 10
20.7355100975
 20
9.6395545263
 30
0.0
 10
20.7267718397
 20
9.6270347462
 30
0.0
 10
20.7171686959
 20
9.6151617733
 30
0.0
 10
20.7067514435
 20
9.6039943411
 30
0.0
 10
20.695566682
 20
9.5935984395
 30
0.0
 10
20.6836572968
 20
9.5840454072
 30
0.0
 10
20.6711091637
 20
9.5753516337
 30
0.0
 10
20.6580119612
 20
9.5675137287
 30
0.0
 10
20.6444458049
 20
9.5605307241
 30
0.0
 10
20.6258397096
 20
9.5523452974
 30
0.0
 10
20.6017732486
 20
9.5441043013
 30
0.0
 10
20.5720973399
 20
9.5370531041
 30
0.0
 10
20.5419511295
 20
9.5324615928
 30
0.0
 10
20.5115698268
 20
9.5299663784
 30
0.0
 10
20.4912563379
 20
9.5295122525
 30
0.0
 10
20.4811045134
 20
9.5295383747
 30
0.0
  0
SPLINE
  5
314
100
AcDbEntity
  8
0
100
AcDbSpline
 62
7
  6
CONTINUOUS
 70
0
 71
3
 72
9
 73
5
 74
0
 42
0.0000001
 43
0.0000001
 44
0.0000000001
 40
0.0
 40
0.0
 40
0.0
 40
0.0
 40
0.250042301
 40
1.0
 40
1.0
 40
1.0
 40
1.0
 10
22.1171087203
 20
9.648522696
 30
0.0
 10
22.1190116072
 20
9.6472460127
 30
0.0
 10
22.1267096089
 20
9.6422717184
 30
0.0
 10
22.13474079
 20
9.6378165599
 30
0.0
 10
22.1408991745
 20
9.6347651554
 30
0.0
  0
SPLINE
  5
315
100
AcDbEntity
  8
0
100
AcDbSpline
 62
7
  6
CONTINUOUS
 70
0
 71
3
 72
9
 73
5
 74
0
 42
0.0000001
 43
0.0000001
 44
0.0000000001
 40
0.0
 40
0.0
 40
0.0
 40
0.0
 40
0.2501285607
 40
1.0
 40
1.0
 40
1.0
 40
1.0
 10
22.1408991745
 20
9.6347651554
 30
0.0
 10
22.1431617891
 20
9.6336440575
 30
0.0
 10
22.1522836124
 20
9.6293164581
 30
0.0
 10
22.1616906468
 20
9.6255948762
 30
0.0
 10
22.1688499459
 20
9.6231347185
 30
0.0
  0
SPLINE
  5
316
100
AcDbEntity
  8
0
100
AcDbSpline
 62
7
  6
CONTINUOUS
 70
0
 71
3
 72
9
 73
5
 74
0
 42
0.0000001
 43
0.0000001
 44
0.0000000001
 40
0.0
 40
0.0
 40
0.0
 40
0.0
 40
0.2500883911
 40
1.0
 40
1.0
 40
1.0
 40
1.0
 10
22.1843946086
 20
9.6183391938
 30
0.0
 10
22.1875956224
 20
9.6174588262
 30
0.0
 10
22.2004593047
 20
9.614173335
 30
0.0
 10
22.2135445466
 20
9.6117787502
 30
0.0
 10
22.2234053587
 20
9.6104131943
 30
0.0
  0
SPLINE
  5
317
100
AcDbEntity
  8
0
100
AcDbSpline
 62
7
  6
CONTINUOUS
 70
0
 71
3
 72
9
 73
5
 74
0
 42
0.0000001
 43
0.0000001
 44
0.0000000001
 40
0.0
 40
0.0
 40
0.0
 40
0.0
 40
0.7499328963
 40
1.0
 40
1.0
 40
1.0
 40
1.0
 10
22.2234053587
 20
9.6104131943
 30
0.0
 10
22.2304198282
 20
9.6094418087
 30
0.0
 10
22.2398163982
 20
9.6084368926
 30
0.0
 10
22.2492362298
 20
9.6077788576
 30
0.0
 10
22.2515931633
 20
9.6076350775
 30
0.0
  0
SPLINE
  5
318
100
AcDbEntity
  8
0
100
AcDbSpline
 62
7
  6
CONTINUOUS
 70
0
 71
3
 72
9
 73
5
 74
0
 42
0.0000001
 43
0.0000001
 44
0.0000000001
 40
0.0
 40
0.0
 40
0.0
 40
0.0
 40
0.2500910346
 40
1.0
 40
1.0
 40
1.0
 40
1.0
 10
22.285085527
 20
9.6068989807
 30
0.0
 10
22.2905022859
 20
9.6069771671
 30
0.0
 10
22.3121560879
 20
9.60764995
 30
0.0
 10
22.3337577874
 20
9.609651447
 30
0.0
 10
22.3498707659
 20
9.6117110863
 30
0.0
  0
SPLINE
  5
319
100
AcDbEntity
  8
0
100
AcDbSpline
 62
7
  6
CONTINUOUS
 70
0
 71
3
 72
9
 73
5
 74
0
 42
0.0000001
 43
0.0000001
 44
0.0000000001
 40
0.0
 40
0.0
 40
0.0
 40
0.0
 40
0.2499476079
 40
1.0
 40
1.0
 40
1.0
 40
1.0
 10
22.01186515
 20
9.9092782625
 30
0.0
 10
22.0118647126
 20
9.9023734829
 30
0.0
 10
22.0122652224
 20
9.8747540618
 30
0.0
 10
22.014516907
 20
9.8471291805
 30
0.0
 10
22.0176458634
 20
9.8266466674
 30
0.0
  0
SPLINE
  5
31A
100
AcDbEntity
  8
0
100
AcDbSpline
 62
7
  6
CONTINUOUS
 70
0
 71
3
 72
9
 73
5
 74
0
 42
0.0000001
 43
0.0000001
 44
0.0000000001
 40
0.0
 40
0.0
 40
0.0
 40
0.0
 40
0.2501566432
 40
1.0
 40
1.0
 40
1.0
 40
1.0
 10
22.0219009475
 20
9.8032084228
 30
0.0
 10
22.0226522003
 20
9.7996631034
 30
0.0
 10
22.0258534689
 20
9.7855343162
 30
0.0
 10
22.0299090245
 20
9.7715918983
 30
0.0
 10
22.0335117484
 20
9.7613436733
 30
0.0
  0
SPLINE
  5
31B
100
AcDbEntity
  8
0
100
AcDbSpline
 62
7
  6
CONTINUOUS
 70
0
 71
3
 72
9
 73
5
 74
0
 42
0.0000001
 43
0.0000001
 44
0.0000000001
 40
0.0
 40
0.0
 40
0.0
 40
0.0
 40
0.2501327625
 40
1.0
 40
1.0
 40
1.0
 40
1.0
 10
22.0423883329
 20
9.7391316273
 30
0.0
 10
22.0437214976
 20
9.7361783853
 30
0.0
 10
22.0492683632
 20
9.7244717745
 30
0.0
 10
22.0557227469
 20
9.7131879031
 30
0.0
 10
22.061092571
 20
9.7050933375
 30
0.0
  0
SPLINE
  5
31C
100
AcDbEntity
  8
0
100
AcDbSpline
 62
7
  6
CONTINUOUS
 70
0
 71
3
 72
9
 73
5
 74
0
 42
0.0000001
 43
0.0000001
 44
0.0000000001
 40
0.0
 40
0.0
 40
0.0
 40
0.0
 40
0.7498756701
 40
1.0
 40
1.0
 40
1.0
 40
1.0
 10
22.061092571
 20
9.7050933375
 30
0.0
 10
22.0644754141
 20
9.6999939814
 30
0.0
 10
22.0692746882
 20
9.6933762641
 30
0.0
 10
22.074456596
 20
9.6870712795
 30
0.0
 10
22.0757763204
 20
9.6855141563
 30
0.0
  0
SPLINE
  5
31D
100
AcDbEntity
  8
0
100
AcDbSpline
 62
9
  6
CONTINUOUS
 70
0
 71
3
 72
32
 73
28
 74
0
 42
0.0000001
 43
0.0000001
 44
0.0000000001
 40
0.0
 40
0.0
 40
0.0
 40
0.0
 40
0.0932945944
 40
0.2014886786
 40
0.2590614247
 40
0.3183816329
 40
0.3792214612
 40
0.4414748331
 40
0.5051562013
 40
0.5375768819
 40
0.5704275389
 40
0.6037600875
 40
0.6376379384
 40
0.6548066985
 40
0.6721448871
 40
0.7073576624
 40
0.7433422064
 40
0.7800605266
 40
0.7986551434
 40
0.8173514154
 40
0.8360940568
 40
0.8548312731
 40
0.8735101732
 40
0.892073742
 40
0.9287314888
 40
0.9647428271
 40
1.0
 40
1.0
 40
1.0
 40
1.0
 10
20.5521035602
 20
9.4835516851
 30
0.0
 10
20.5811445357
 20
9.4648620614
 30
0.0
 10
20.6440066777
 20
9.4247186277
 30
0.0
 10
20.7253322241
 20
9.3738945661
 30
0.0
 10
20.7964944399
 20
9.3305523034
 30
0.0
 10
20.8530300922
 20
9.2968997734
 30
0.0
 10
20.9115078119
 20
9.2631314516
 30
0.0
 10
20.971989752
 20
9.2296242577
 30
0.0
 10
21.0239538748
 20
9.2024754177
 30
0.0
 10
21.066827644
 20
9.1814820933
 30
0.0
 10
21.0999466401
 20
9.1661302355
 30
0.0
 10
21.133953232
 20
9.1514380957
 30
0.0
 10
21.1630105116
 20
9.1399594132
 30
0.0
 10
21.1868248529
 20
9.1313696889
 30
0.0
 10
21.2112886745
 20
9.1231432323
 30
0.0
 10
21.2427327579
 20
9.1138416564
 30
0.0
 10
21.2816817902
 20
9.1048440835
 30
0.0
 10
21.3151081736
 20
9.0996069561
 30
0.0
 10
21.3423939412
 20
9.0970687515
 30
0.0
 10
21.3631169513
 20
9.0960340602
 30
0.0
 10
21.3839186181
 20
9.0959154521
 30
0.0
 10
21.4046974879
 20
9.0967447112
 30
0.0
 10
21.4253542901
 20
9.0984690276
 30
0.0
 10
21.4525023798
 20
9.1018904567
 30
0.0
 10
21.4857271321
 20
9.1081417663
 30
0.0
 10
21.5244095203
 20
9.1182288242
 30
0.0
 10
21.5495270214
 20
9.1263419647
 30
0.0
 10
21.5618501954
 20
9.1306402467
 30
0.0
  0
SPLINE
  5
31E
100
AcDbEntity
  8
0
100
AcDbSpline
 62
9
  6
CONTINUOUS
 70
0
 71
3
 72
19
 73
15
 74
0
 42
0.0000001
 43
0.0000001
 44
0.0000000001
 40
0.0
 40
0.0
 40
0.0
 40
0.0
 40
0.0704638645
 40
0.139358946
 40
0.2069774759
 40
0.2735413092
 40
0.339196517
 40
0.4040329684
 40
0.4680958534
 40
0.5313942903
 40
0.6555718928
 40
0.7760047808
 40
0.8915285219
 40
1.0
 40
1.0
 40
1.0
 40
1.0
 10
21.5618485444
 20
9.1306445137
 30
0.0
 10
21.578593322
 20
9.1363570375
 30
0.0
 10
21.6113463973
 20
9.1487412132
 30
0.0
 10
21.6589347615
 20
9.1696631825
 30
0.0
 10
21.7047948041
 20
9.1919747986
 30
0.0
 10
21.7492359405
 20
9.2152816924
 30
0.0
 10
21.7925019476
 20
9.2392909153
 30
0.0
 10
21.834759473
 20
9.2638025327
 30
0.0
 10
21.8761226788
 20
9.2886634622
 30
0.0
 10
21.9298283618
 20
9.3219011952
 30
0.0
 10
21.9948971283
 20
9.3636611888
 30
0.0
 10
22.0701815412
 20
9.4137542464
 30
0.0
 10
22.1415456634
 20
9.4626050405
 30
0.0
 10
22.1876123956
 20
9.4948711689
 30
0.0
 10
22.2098470985
 20
9.5105998348
 30
0.0
  0
SPLINE
  5
31F
100
AcDbEntity
  8
0
100
AcDbSpline
 62
9
  6
CONTINUOUS
 70
0
 71
3
 72
34
 73
30
 74
0
 42
0.0000001
 43
0.0000001
 44
0.0000000001
 40
0.0
 40
0.0
 40
0.0
 40
0.0
 40
0.1915040762
 40
0.3725292303
 40
0.4579785793
 40
0.5394476688
 40
0.6164828622
 40
0.688626957
 40
0.7552702483
 40
0.8155953284
 40
0.843128434
 40
0.8687698906
 40
0.8924189366
 40
0.9139805853
 40
0.9333604431
 40
0.9504641151
 40
0.9651972051
 40
0.9774653161
 40
0.9826455051
 40
0.9871740499
 40
0.9910391507
 40
0.9942290076
 40
0.9967318205
 40
0.997721898
 40
0.9985357895
 40
0.9991720201
 40
0.9996291148
 40
0.9999055991
 40
1.0
 40
1.0
 40
1.0
 40
1.0
 10
22.2098350524
 20
9.5105875475
 30
0.0
 10
22.2188347958
 20
9.5169612147
 30
0.0
 10
22.2363173201
 20
9.5293944207
 30
0.0
 10
22.2577567369
 20
9.5447539682
 30
0.0
 10
22.2740178555
 20
9.5564610404
 30
0.0
 10
22.2854072117
 20
9.5646855828
 30
0.0
 10
22.2961648516
 20
9.5724761313
 30
0.0
 10
22.3062215679
 20
9.5797789239
 30
0.0
 10
22.3154915228
 20
9.5865274598
 30
0.0
 10
22.3226790147
 20
9.5917715884
 30
0.0
 10
22.3279563246
 20
9.5956277931
 30
0.0
 10
22.3315272272
 20
9.5982394285
 30
0.0
 10
22.3348196243
 20
9.6006493492
 30
0.0
 10
22.337820231
 20
9.6028474157
 30
0.0
 10
22.3405160643
 20
9.6048236969
 30
0.0
 10
22.3428941675
 20
9.6065682839
 30
0.0
 10
22.3449415835
 20
9.6080712686
 30
0.0
 10
22.3464351782
 20
9.6091683588
 30
0.0
 10
22.3474550122
 20
9.6099177726
 30
0.0
 10
22.348084857
 20
9.6103807059
 30
0.0
 10
22.3486223024
 20
9.6107758264
 30
0.0
 10
22.3490657662
 20
9.6111018223
 30
0.0
 10
22.34937577
 20
9.6113298808
 30
0.0
 10
22.3495756716
 20
9.6114766371
 30
0.0
 10
22.3496887491
 20
9.6115601573
 30
0.0
 10
22.3497776626
 20
9.6116243984
 30
0.0
 10
22.349840342
 20
9.611672859
 30
0.0
 10
22.3498804213
 20
9.6116978748
 30
0.0
 10
22.3498959805
 20
9.6117137822
 30
0.0
 10
22.3499011251
 20
9.611715539
 30
0.0
  0
SPLINE
  5
320
100
AcDbEntity
  8
0
100
AcDbSpline
 62
9
  6
CONTINUOUS
 70
0
 71
3
 72
20
 73
16
 74
0
 42
0.0000001
 43
0.0000001
 44
0.0000000001
 40
0.0
 40
0.0
 40
0.0
 40
0.0
 40
0.1371986974
 40
0.2654718196
 40
0.3270297489
 40
0.3872835249
 40
0.4465914616
 40
0.5053291852
 40
0.5638832967
 40
0.6226440213
 40
0.6819975091
 40
0.7423185275
 40
0.8039642004
 40
0.8672692373
 40
1.0
 40
1.0
 40
1.0
 40
1.0
 10
21.9208880534
 20
9.7740702985
 30
0.0
 10
21.9258756639
 20
9.7556590893
 30
0.0
 10
21.9374286694
 20
9.7205035371
 30
0.0
 10
21.9570871476
 20
9.6793364195
 30
0.0
 10
21.9754351283
 20
9.6497681996
 30
0.0
 10
21.9903080588
 20
9.629416838
 30
0.0
 10
22.0064797075
 20
9.6105946179
 30
0.0
 10
22.0239495801
 20
9.5933036754
 30
0.0
 10
22.0427159425
 20
9.5775469735
 30
0.0
 10
22.0627762701
 20
9.563326531
 30
0.0
 10
22.0841276888
 20
9.5506434827
 30
0.0
 10
22.1067666317
 20
9.53949805
 30
0.0
 10
22.1306921759
 20
9.5298890974
 30
0.0
 10
22.1648322037
 20
9.5189539363
 30
0.0
 10
22.1916048907
 20
9.5133456412
 30
0.0
 10
22.2098531211
 20
9.5105999094
 30
0.0
  0
SPLINE
  5
321
100
AcDbEntity
  8
0
100
AcDbSpline
 62
9
  6
CONTINUOUS
 70
0
 71
3
 72
20
 73
16
 74
0
 42
0.0000001
 43
0.0000001
 44
0.0000000001
 40
0.0
 40
0.0
 40
0.0
 40
0.0
 40
0.113584925
 40
0.2342261
 40
0.3593852012
 40
0.4873904157
 40
0.5520463943
 40
0.6169334359
 40
0.6818929407
 40
0.7467480072
 40
0.8112894057
 40
0.8752530802
 40
0.906924832
 40
0.9383150352
 40
1.0
 40
1.0
 40
1.0
 40
1.0
 10
21.9208889833
 20
9.7740632109
 30
0.0
 10
21.9064799619
 20
9.7528642218
 30
0.0
 10
21.8766509431
 20
9.7092278526
 30
0.0
 10
21.8304195789
 20
9.6425928085
 30
0.0
 10
21.7816776414
 20
9.5737428228
 30
0.0
 10
21.7394577362
 20
9.5157602264
 30
0.0
 10
21.7045541484
 20
9.4692864442
 30
0.0
 10
21.6777619801
 20
9.4345175337
 30
0.0
 10
21.6504029028
 20
9.4001344774
 30
0.0
 10
21.6224085086
 20
9.3663657557
 30
0.0
 10
21.5936814093
 20
9.3335130805
 30
0.0
 10
21.5689235806
 20
9.3071600963
 30
0.0
 10
21.5485307487
 20
9.2870084219
 30
0.0
 10
21.5279187917
 20
9.2678329221
 30
0.0
 10
21.5117529948
 20
9.2543669133
 30
0.0
 10
21.5006102847
 20
9.2460234555
 30
0.0
  0
SPLINE
  5
322
100
AcDbEntity
  8
0
100
AcDbSpline
 62
9
  6
CONTINUOUS
 70
0
 71
3
 72
74
 73
70
 74
0
 42
0.0000001
 43
0.0000001
 44
0.0000000001
 40
0.0
 40
0.0
 40
0.0
 40
0.0
 40
0.0352748307
 40
0.0525703384
 40
0.0695828999
 40
0.0863218434
 40
0.1028399742
 40
0.1191954017
 40
0.1273375649
 40
0.1354704974
 40
0.1517568888
 40
0.1681537453
 40
0.2015120868
 40
0.218571874
 40
0.2358733312
 40
0.2534102562
 40
0.2711520907
 40
0.2890725751
 40
0.3071533023
 40
0.3253669705
 40
0.3436871398
 40
0.3805795978
 40
0.4176890231
 40
0.4548996447
 40
0.4921099181
 40
0.5292323014
 40
0.5661825695
 40
0.6028790688
 40
0.6392359817
 40
0.6751622318
 40
0.7105524789
 40
0.745287718
 40
0.7792246618
 40
0.8121878116
 40
0.8439625418
 40
0.8742629415
 40
0.8887578581
 40
0.9027419953
 40
0.9161505502
 40
0.9289187129
 40
0.9409756797
 40
0.9522214356
 40
0.9625470726
 40
0.9673308114
 40
0.9718436779
 40
0.976072113
 40
0.9800027533
 40
0.9836222789
 40
0.9869173694
 40
0.9898747048
 40
0.9924809648
 40
0.9947228291
 40
0.9957029502
 40
0.9965869772
 40
0.9973732451
 40
0.9980600888
 40
0.9986458432
 40
0.9991288433
 40
0.9993312902
 40
0.9995074241
 40
0.9996570368
 40
0.9997799204
 40
0.9998758665
 40
0.9999136731
 40
0.9999446672
 40
0.999968823
 40
0.9999861143
 40
0.9999965152
 40
1.0
 40
1.0
 40
1.0
 40
1.0
 10
21.5006139262
 20
9.2460190057
 30
0.0
 10
21.4909844038
 20
9.2388232232
 30
0.0
 10
21.4761663387
 20
9.2286782797
 30
0.0
 10
21.4554396131
 20
9.2171273663
 30
0.0
 10
21.4396541046
 20
9.2097743103
 30
0.0
 10
21.4235457938
 20
9.2038728733
 30
0.0
 10
21.4071475296
 20
9.1996375239
 30
0.0
 10
21.3932868062
 20
9.1976050295
 30
0.0
 10
21.3821807964
 20
9.1969435673
 30
0.0
 10
21.3710786839
 20
9.1969432631
 30
0.0
 10
21.357189239
 20
9.1981660502
 30
0.0
 10
21.335088448
 20
9.2026188896
 30
0.0
 10
21.3136030307
 20
9.2106066488
 30
0.0
 10
21.2930388857
 20
9.2210973834
 30
0.0
 10
21.277842204
 20
9.2301714461
 30
0.0
 10
21.2629942657
 20
9.2402147006
 30
0.0
 10
21.2484614356
 20
9.2510626177
 30
0.0
 10
21.2342236582
 20
9.2625892849
 30
0.0
 10
21.2202642977
 20
9.2746968532
 30
0.0
 10
21.2065540581
 20
9.2872867159
 30
0.0
 10
21.1885298381
 20
9.304646215
 30
0.0
 10
21.1665667851
 20
9.3271844384
 30
0.0
 10
21.1409601419
 20
9.3551304617
 30
0.0
 10
21.1159653461
 20
9.383767412
 30
0.0
 10
21.0915057625
 20
9.4128669651
 30
0.0
 10
21.0675441271
 20
9.4422628303
 30
0.0
 10
21.0440483358
 20
9.4718084496
 30
0.0
 10
21.0210088054
 20
9.5013809466
 30
0.0
 10
20.9984265292
 20
9.5308654935
 30
0.0
 10
20.9763165854
 20
9.560149858
 30
0.0
 10
20.9547090968
 20
9.5891202472
 30
0.0
 10
20.9336480613
 20
9.6176518823
 30
0.0
 10
20.9131971057
 20
9.645605372
 30
0.0
 10
20.893441005
 20
9.6728168411
 30
0.0
 10
20.8744953725
 20
9.6990850559
 30
0.0
 10
20.8592885808
 20
9.7202898844
 30
0.0
 10
20.8476437266
 20
9.7365884392
 30
0.0
 10
20.8393577437
 20
9.7482120276
 30
0.0
 10
20.8314243282
 20
9.7593642765
 30
0.0
 10
20.8238812347
 20
9.7699882118
 30
0.0
 10
20.816773151
 20
9.7800170702
 30
0.0
 10
20.8101533379
 20
9.7893717497
 30
0.0
 10
20.8049701197
 20
9.796706601
 30
0.0
 10
20.8011134733
 20
9.8021693466
 30
0.0
 10
20.7984562022
 20
9.8059353659
 30
0.0
 10
20.7959673956
 20
9.8094644455
 30
0.0
 10
20.7936548062
 20
9.8127452711
 30
0.0
 10
20.7915261393
 20
9.8157665949
 30
0.0
 10
20.789589092
 20
9.8185171813
 30
0.0
 10
20.7878513612
 20
9.8209857947
 30
0.0
 10
20.7863206441
 20
9.8231611994
 30
0.0
 10
20.7851779603
 20
9.8247857489
 30
0.0
 10
20.7843730779
 20
9.825930347
 30
0.0
 10
20.7838535827
 20
9.8266692185
 30
0.0
 10
20.7833916139
 20
9.8273263613
 30
0.0
 10
20.7829881336
 20
9.8279003707
 30
0.0
 10
20.7826441044
 20
9.8283898434
 30
0.0
 10
20.7823950032
 20
9.8287442652
 30
0.0
 10
20.7822261657
 20
9.8289844804
 30
0.0
 10
20.7821226525
 20
9.829131735
 30
0.0
 10
20.7820347301
 20
9.8292568213
 30
0.0
 10
20.7819624951
 20
9.8293594904
 30
0.0
 10
20.7819122059
 20
9.8294311141
 30
0.0
 10
20.7818798452
 20
9.8294768843
 30
0.0
 10
20.7818616997
 20
9.8295030786
 30
0.0
 10
20.781847229
 20
9.8295224922
 30
0.0
 10
20.7818375977
 20
9.8295386583
 30
0.0
 10
20.7818304715
 20
9.8295442807
 30
0.0
 10
20.7818287447
 20
9.8295512974
 30
0.0
 10
20.781827611
 20
9.8295509438
 30
0.0
  0
SPLINE
  5
323
100
AcDbEntity
  8
0
100
AcDbSpline
 62
9
  6
CONTINUOUS
 70
0
 71
3
 72
9
 73
5
 74
0
 42
0.0000001
 43
0.0000001
 44
0.0000000001
 40
0.0
 40
0.0
 40
0.0
 40
0.0
 40
0.2561271292
 40
1.0
 40
1.0
 40
1.0
 40
1.0
 10
21.500614695
 20
9.2460195802
 30
0.0
 10
21.5055083548
 20
9.2359973099
 30
0.0
 10
21.524930708
 20
9.1970228803
 30
0.0
 10
21.545645235
 20
9.1586880692
 30
0.0
 10
21.5618489145
 20
9.1306397999
 30
0.0
  0
LINE
  5
324
100
AcDbEntity
  8
0
100
AcDbLine
 62
9
  6
CONTINUOUS
 10
20.481093918
 20
9.5295165481
 11
20.5521033157
 21
9.4835515281
  0
SPLINE
  5
325
100
AcDbEntity
  8
0
100
AcDbSpline
 62
9
  6
CONTINUOUS
 70
0
 71
3
 72
36
 73
32
 74
0
 42
0.0000001
 43
0.0000001
 44
0.0000000001
 40
0.0
 40
0.0
 40
0.0
 40
0.0
 40
0.0001634508
 40
0.0003145522
 40
0.0006043067
 40
0.0010603739
 40
0.0016871754
 40
0.0024850233
 40
0.0034530228
 40
0.0045898048
 40
0.007363208
 40
0.0107914244
 40
0.0148598511
 40
0.0195536077
 40
0.0248577022
 40
0.0307571058
 40
0.0442817503
 40
0.0600085676
 40
0.077850475
 40
0.0977595798
 40
0.1196902173
 40
0.1694327505
 40
0.226710846
 40
0.2911261829
 40
0.3621434928
 40
0.439189425
 40
0.5216906812
 40
0.6090871511
 40
0.7009562549
 40
0.7969576449
 40
1.0
 40
1.0
 40
1.0
 40
1.0
 10
22.0118504788
 20
9.9092899314
 30
0.0
 10
22.0118495613
 20
9.909298766
 30
0.0
 10
22.0118438575
 20
9.9093206271
 30
0.0
 10
22.0118047753
 20
9.9093114434
 30
0.0
 10
22.0117705364
 20
9.9092791875
 30
0.0
 10
22.0117173384
 20
9.9092255753
 30
0.0
 10
22.0116530499
 20
9.9091464582
 30
0.0
 10
22.0115738636
 20
9.90904318
 30
0.0
 10
22.0114814355
 20
9.908915394
 30
0.0
 10
22.0113295203
 20
9.9086981279
 30
0.0
 10
22.0111070933
 20
9.908367125
 30
0.0
 10
22.0108012001
 20
9.907900331
 30
0.0
 10
22.0104418119
 20
9.9073438493
 30
0.0
 10
22.0100292373
 20
9.9067003765
 30
0.0
 10
22.0095638479
 20
9.9059725752
 30
0.0
 10
22.0088396515
 20
9.9048406643
 30
0.0
 10
22.007806842
 20
9.9032338142
 30
0.0
 10
22.0064101627
 20
9.9010894192
 30
0.0
 10
22.0048094749
 20
9.898663931
 30
0.0
 10
22.0030131694
 20
9.895963656
 30
0.0
 10
22.0002462287
 20
9.8918270468
 30
0.0
 10
21.9963370733
 20
9.8860113989
 30
0.0
 10
21.9911381572
 20
9.8782809506
 30
0.0
 10
21.9853060442
 20
9.8695831274
 30
0.0
 10
21.9788789367
 20
9.8599909267
 30
0.0
 10
21.9719005535
 20
9.8495850682
 30
0.0
 10
21.9644155928
 20
9.8384472556
 30
0.0
 10
21.956462521
 20
9.8266535432
 30
0.0
 10
21.9480845086
 20
9.8142615741
 30
0.0
 10
21.9361776301
 20
9.7966695997
 30
0.0
 10
21.9270691307
 20
9.7832118575
 30
0.0
 10
21.9208928395
 20
9.7740689347
 30
0.0
  0
ENDSEC
  0
SECTION
  2
OBJECTS
  0
DICTIONARY
  5
C
100
AcDbDictionary
280
0
281
1
  3
ACAD_GROUP
350
D
  3
ACAD_MLINESTYLE
350
17
  3
ACAD_LAYOUT
350
1A
  3
ACAD_PLOTSETTINGS
350
19
  3
ACAD_PLOTSTYLENAME
350
E
  0
DICTIONARY
  5
D
102
{ACAD_REACTORS
330
C
102
}
100
AcDbDictionary
280
0
281
1
  0
ACDBDICTIONARYWDFLT
  5
E
102
{ACAD_REACTORS
330
C
102
}
100
AcDbDictionary
281
1
  3
Normal
350
F
100
AcDbDictionaryWithDefault
340
F
  0
DICTIONARY
  5
17
102
{ACAD_REACTORS
330
C
102
}
100
AcDbDictionary
280
0
281
1
  3
Standard
350
18
  0
DICTIONARY
  5
19
102
{ACAD_REACTORS
330
C
102
}
100
AcDbDictionary
281
1
  0
DICTIONARY
  5
1A
102
{ACAD_REACTORS
330
C
102
}
100
AcDbDictionary
281
1
  3
Model
350
326
  3
Layout1
350
327
  0
ACDBPLACEHOLDER
  5
F
102
{ACAD_REACTORS
330
E
102
}
  0
MLINESTYLE
  5
18
102
{ACAD_REACTORS
330
17
102
}
100
AcDbMlineStyle
  2
STANDARD
 70
0
  3

 62
256
 51
90.0
 52
90.0
 71
2
 49
0.5
 62
256
  6
BYLAYER
 49
-0.5
 62
256
  6
BYLAYER
  0
LAYOUT
  5
326
102
{ACAD_REACTORS
330
1A
102
}
100
AcDbPlotSettings
  1

  2
none_device
  4
ANSI_C_(22.00_x_17.00_Inches)
  6

 40
0.0
 41
0.0
 42
0.0
 43
0.0
 44
558.8
 45
431.8
 46
0.0
 47
0.0
 48
0.0
 49
0.0
140
0.0
141
0.0
142
1.0
143
1.0
 70
1024
 72
0
 73
0
 74
0
  7

 75
0
147
1.0
148
0.0
149
0.0
100
AcDbLayout
  1
Model
 70
0
 71
0
 10
0.0
 20
0.0
 11
22.0
 21
17.0
 12
0.0
 22
0.0
 32
0.0
 14
0.0
 24
0.0
 34
0.0
 15
0.0
 25
0.0
 35
0.0
146
0.0
 13
0.0
 23
0.0
 33
0.0
 16
1.0
 26
0.0
 36
0.0
 17
0.0
 27
1.0
 37
0.0
 76
0
330
202
345
0
346
0
  0
LAYOUT
  5
327
102
{ACAD_REACTORS
330
1A
102
}
100
AcDbPlotSettings
  1

  2
none_device
  4
ANSI_C_(22.00_x_17.00_Inches)
  6

 40
0.0
 41
0.0
 42
0.0
 43
0.0
 44
558.8
 45
431.8
 46
0.0
 47
0.0
 48
0.0
 49
0.0
140
0.0
141
0.0
142
1.0
143
1.0
 70
0
 72
0
 73
0
 74
0
  7

 75
0
147
1.0
148
0.0
149
0.0
100
AcDbLayout
  1
Layout1
 70
0
 71
1
 10
0.0
 20
0.0
 11
22.0
 21
17.0
 12
0.0
 22
0.0
 32
0.0
 14
0.0
 24
0.0
 34
0.0
 15
0.0
 25
0.0
 35
0.0
146
0.0
 13
0.0
 23
0.0
 33
0.0
 16
1.0
 26
0.0
 36
0.0
 17
0.0
 27
1.0
 37
0.0
 76
0
330
203
345
0
346
0
  0
ENDSEC
  0
EOF
