999
DXF file: E:\BT Custom\CADOUTPUT\_RIGHT.dxf
999
Pro/ENGINEER 2018400 by Parametric Technology Corporation
  0
SECTION
  2
HEADER
  9
$ACADVER
  1
AC1018
  9
$DWGCODEPAGE
  3
ANSI_1252
  9
$EXTMAX
 10
22.0
 20
17.0
 30
0.0
  9
$EXTMIN
 10
0.0
 20
0.0
 30
0.0
  9
$LIMMIN
 10
0.0
 20
0.0
  9
$LIMMAX
 10
22.0
 20
17.0
  9
$VIEWCTR
 10
11.0
 20
8.5
  9
$VIEWSIZE
 40
17.0
  9
$CLAYER
  8
0
  9
$LTSCALE
 40
1.21
  9
$CELTYPE
  6
BYLAYER
  9
$DIMSCALE
 40
1.0
  9
$DIMASZ
 40
0.1
  9
$DIMEXO
 40
0.0625
  9
$DIMDLI
 40
0.836
  9
$DIMEXE
 40
0.125
  9
$DIMCEN
 40
0.198
  9
$DIMLFAC
 40
1.0
  9
$DIMBLK
  1
_FILLED
  9
$DIMALT
 70
1
  9
$DIMALTD
 70
2
  9
$DIMALTTD
 70
2
  9
$DIMALTF
 40
25.4
  9
$DIMTXT
 40
0.08
  9
$DIMTOL
 70
1
  9
$DIMLIM
 70
0
  9
$DIMTFAC
 40
1.0
  9
$DIMTP
 40
0.001
  9
$DIMTM
 40
0.001
  9
$DIMGAP
 40
0.09
  9
$DIMDSEP
 70
46
  9
$AUNITS
 70
0
  9
$PDMODE
 70
3
  9
$PDSIZE
 40
0.06
  9
$HANDSEED
  5
261
  9
$TILEMODE
 70
1
  9
$MEASUREMENT
 70
0
  9
$INSUNITS
 70
1
  0
ENDSEC
  0
SECTION
  2
CLASSES
  0
CLASS
  1
ACDBDICTIONARYWDFLT
  2
AcDbDictionaryWithDefault
  3
AutoCAD 2000
 90
0
 91
1
280
0
281
0
  0
CLASS
  1
ACDBPLACEHOLDER
  2
AcDbPlaceHolder
  3
AutoCAD 2000
 90
0
 91
1
280
0
281
0
  0
CLASS
  1
LAYOUT
  2
AcDbLayout
  3
AutoCAD 2000
 90
0
 91
0
280
0
281
0
  0
ENDSEC
  0
SECTION
  2
TABLES
  0
TABLE
  2
VPORT
  5
8
100
AcDbSymbolTable
 70
2
  0
VPORT
  5
1F4
100
AcDbSymbolTableRecord
100
AcDbViewportTableRecord
  2
*ACTIVE
 70
0
 10
0.0
 20
0.0
 11
1.0
 21
1.0
 12
11.0
 22
8.5
 13
0.0
 23
0.0
 14
1.0
 24
1.0
 15
0.0
 25
0.0
 16
0.0
 26
0.0
 36
1.0
 17
0.0
 27
0.0
 37
0.0
 40
17.0
 41
1.2941176471
 42
50.0
 43
0.0
 44
0.0
 50
0.0
 51
0.0
 71
0
 72
100
 73
1
 74
1
 75
0
 76
0
 77
0
 78
0
  0
ENDTAB
  0
TABLE
  2
LTYPE
  5
5
100
AcDbSymbolTable
 70
6
  0
LTYPE
  5
14
100
AcDbSymbolTableRecord
100
AcDbLinetypeTableRecord
  2
BYBLOCK
 70
0
  3

 72
65
 73
0
 40
0.0
  0
LTYPE
  5
15
100
AcDbSymbolTableRecord
100
AcDbLinetypeTableRecord
  2
BYLAYER
 70
0
  3

 72
65
 73
0
 40
0.0
  0
LTYPE
  5
16
100
AcDbSymbolTableRecord
100
AcDbLinetypeTableRecord
  2
CONTINUOUS
 70
64
  3
Solid line
 72
65
 73
0
 40
0.0
  0
LTYPE
  5
1F5
100
AcDbSymbolTableRecord
100
AcDbLinetypeTableRecord
  2
CENTER
 70
64
  3
____ _ ____ _ ____ _ ____ _ ____ _ ____ _ ____
 72
65
 73
4
 40
0.6
 49
0.375
 74
0
 49
-0.075
 74
0
 49
0.075
 74
0
 49
-0.075
 74
0
  0
LTYPE
  5
1F6
100
AcDbSymbolTableRecord
100
AcDbLinetypeTableRecord
  2
HIDDEN
 70
64
  3
- - - - - - - - - - - - - - - - - - - -
 72
65
 73
2
 40
0.2
 49
0.1
 74
0
 49
-0.1
 74
0
  0
LTYPE
  5
1F7
100
AcDbSymbolTableRecord
100
AcDbLinetypeTableRecord
  2
PHANTOM
 70
64
  3
_____ _ _ _____ _ _ _____ _ _ _____
 72
65
 73
6
 40
0.8
 49
0.45
 74
0
 49
-0.05
 74
0
 49
0.1
 74
0
 49
-0.05
 74
0
 49
0.1
 74
0
 49
-0.05
 74
0
  0
LTYPE
  5
1F8
100
AcDbSymbolTableRecord
100
AcDbLinetypeTableRecord
  2
DOT
 70
64
  3
. . . . . . . . . . . . . . . . . . . .
 72
65
 73
2
 40
0.2
 49
0.1
 74
0
 49
-0.1
 74
0
  0
LTYPE
  5
1F9
100
AcDbSymbolTableRecord
100
AcDbLinetypeTableRecord
  2
DASHED
 70
64
  3
- - - - - - - - - - - - - - - - - - - -
 72
65
 73
2
 40
0.2
 49
0.1
 74
0
 49
-0.1
 74
0
  0
ENDTAB
  0
TABLE
  2
LAYER
  5
2
100
AcDbSymbolTable
 70
36
  0
LAYER
  5
10
100
AcDbSymbolTableRecord
100
AcDbLayerTableRecord
  2
0
 70
0
 62
7
  6
CONTINUOUS
370
-3
390
F
  0
LAYER
  5
1FA
100
AcDbSymbolTableRecord
100
AcDbLayerTableRecord
  2
DEFAULT_1
 70
0
 62
7
  6
CENTER
370
-3
390
F
  0
LAYER
  5
1FB
100
AcDbSymbolTableRecord
100
AcDbLayerTableRecord
  2
DEFAULT_2
 70
0
 62
8
  6
HIDDEN
370
-3
390
F
  0
LAYER
  5
1FC
100
AcDbSymbolTableRecord
100
AcDbLayerTableRecord
  2
DEFAULT_3
 70
0
 62
7
  6
PHANTOM
370
-3
390
F
  0
LAYER
  5
1FD
100
AcDbSymbolTableRecord
100
AcDbLayerTableRecord
  2
ALL_FEATURES
 70
0
 62
7
  6
CONTINUOUS
370
-3
390
F
  0
LAYER
  5
1FE
100
AcDbSymbolTableRecord
100
AcDbLayerTableRecord
  2
AXES_FEATURES
 70
0
 62
7
  6
CONTINUOUS
370
-3
390
F
  0
LAYER
  5
1FF
100
AcDbSymbolTableRecord
100
AcDbLayerTableRecord
  2
DEFAULT_COORDINATE_SYSTEM
 70
0
 62
7
  6
CONTINUOUS
370
-3
390
F
  0
LAYER
  5
200
100
AcDbSymbolTableRecord
100
AcDbLayerTableRecord
  2
DEFAULT_DATUM_AXES
 70
0
 62
7
  6
CONTINUOUS
370
-3
390
F
  0
LAYER
  5
201
100
AcDbSymbolTableRecord
100
AcDbLayerTableRecord
  2
DEFAULT_DATUM_PLANES
 70
0
 62
7
  6
CONTINUOUS
370
-3
390
F
  0
LAYER
  5
202
100
AcDbSymbolTableRecord
100
AcDbLayerTableRecord
  2
DIMENSIONS
 70
0
 62
7
  6
CONTINUOUS
370
-3
390
F
  0
ENDTAB
  0
TABLE
  2
STYLE
  5
3
100
AcDbSymbolTable
 70
1
  0
STYLE
  5
11
100
AcDbSymbolTableRecord
100
AcDbTextStyleTableRecord
  2
STANDARD
 70
0
 40
0.0
 41
0.8
 50
0.0
 71
0
 42
0.2
  3
txt
  4

  0
STYLE
  5
203
100
AcDbSymbolTableRecord
100
AcDbTextStyleTableRecord
  2
TEXTSTYLE_1
 70
0
 40
0.0
 41
0.8
 50
0.0
 71
0
 42
0.2
  3
gdt
  4

  0
ENDTAB
  0
TABLE
  2
VIEW
  5
6
100
AcDbSymbolTable
 70
0
  0
ENDTAB
  0
TABLE
  2
UCS
  5
7
100
AcDbSymbolTable
 70
0
  0
ENDTAB
  0
TABLE
  2
APPID
  5
9
100
AcDbSymbolTable
 70
1
  0
APPID
  5
204
100
AcDbSymbolTableRecord
100
AcDbRegAppTableRecord
  2
ACAD
 70
0
  0
ENDTAB
  0
TABLE
  2
BLOCK_RECORD
  5
1
100
AcDbSymbolTable
 70
0
  0
BLOCK_RECORD
  5
205
100
AcDbSymbolTableRecord
100
AcDbBlockTableRecord
  2
*Model_Space
  0
BLOCK_RECORD
  5
206
100
AcDbSymbolTableRecord
100
AcDbBlockTableRecord
  2
*Paper_Space
  0
BLOCK_RECORD
  5
207
100
AcDbSymbolTableRecord
100
AcDbBlockTableRecord
  2
_FILLED
  0
ENDTAB
  0
TABLE
  2
DIMSTYLE
  5
A
100
AcDbSymbolTable
 70
1
100
AcDbDimStyleTable
 71
0
  0
DIMSTYLE
105
208
100
AcDbSymbolTableRecord
100
AcDbDimStyleTableRecord
  2
STANDARD
 70
0
  3

  4

 40
1.0
 41
0.1
 42
0.0625
 43
0.38
 44
0.125
 45
0.0
 46
0.0
 47
0.001
 48
0.001
140
0.08
141
0.09
142
0.0
143
25.4
144
1.0
145
0.0
146
1.0
147
0.09
 71
1.0
 72
0.0
 73
1
 74
1
 75
0
 76
0
 77
0
 78
4
 79
1
170
1
171
2
172
0
173
0
174
0
175
0
176
0
177
0
178
0
270
2
179
3
271
3
272
3
273
2
274
2
275
0
280
0
281
0
282
0
283
1
284
4
285
0
286
0
287
3
288
0
340
11
278
46
341
207
342
207
343
207
344
207
  0
ENDTAB
  0
ENDSEC
  0
SECTION
  2
BLOCKS
  0
BLOCK
  5
20
100
AcDbEntity
  8
0
100
AcDbBlockBegin
  2
*Model_Space
 70
0
 10
0.0
 20
0.0
 30
0.0
  3
*Model_Space
  1

  0
ENDBLK
  5
21
100
AcDbEntity
  8
0
100
AcDbBlockEnd
  0
BLOCK
  5
1C
100
AcDbEntity
  8
0
100
AcDbBlockBegin
  2
*Paper_Space
 70
0
 10
0.0
 20
0.0
 30
0.0
  3
*Paper_Space
  1

  0
ENDBLK
  5
1D
100
AcDbEntity
  8
0
100
AcDbBlockEnd
  0
BLOCK
  5
209
100
AcDbEntity
  8
0
100
AcDbBlockBegin
  2
_FILLED
 70
64
 10
0.0
 20
0.0
  3
_FILLED
  1

  0
SOLID
  5
20A
100
AcDbEntity
  8
0
  6
BYBLOCK
 62
0
100
AcDbTrace
 10
0.0
 20
0.0
 11
-1.0
 21
0.2
 12
-1.0
 22
-0.2
 13
-1.0
 23
-0.2
  0
ENDBLK
  5
20B
100
AcDbEntity
  8
0
  6
BYBLOCK
 62
0
100
AcDbBlockEnd
  0
ENDSEC
  0
SECTION
  2
ENTITIES
  0
LINE
  5
20C
100
AcDbEntity
  8
0
100
AcDbLine
 62
7
  6
CONTINUOUS
 10
13.328290214
 20
4.3542825625
 11
11.3811679782
 21
4.3542825625
  0
LINE
  5
20D
100
AcDbEntity
  8
0
100
AcDbLine
 62
9
  6
CONTINUOUS
 10
11.3619173044
 20
4.3797058049
 11
13.3475408878
 21
4.3797058049
  0
LINE
  5
20E
100
AcDbEntity
  8
0
100
AcDbLine
 62
9
  6
CONTINUOUS
 10
13.2339382314
 20
4.8090888752
 11
11.4755199608
 21
4.8090888752
  0
LINE
  5
20F
100
AcDbEntity
  8
0
100
AcDbLine
 62
7
  6
CONTINUOUS
 10
13.2147290961
 20
4.8242815143
 11
11.4947290961
 21
4.8242815143
  0
LINE
  5
210
100
AcDbEntity
  8
0
100
AcDbLine
 62
7
  6
CONTINUOUS
 10
11.4947290961
 20
4.8342825576
 11
13.2147290961
 21
4.8342825575
  0
LINE
  5
211
100
AcDbEntity
  8
0
100
AcDbLine
 62
9
  6
CONTINUOUS
 10
11.4868830399
 20
4.8553260292
 11
13.2225751523
 21
4.8553260291
  0
LINE
  5
212
100
AcDbEntity
  8
0
100
AcDbLine
 62
9
  6
CONTINUOUS
 10
11.8249043755
 20
6.3830266437
 11
11.7702963788
 21
6.3830266437
  0
LINE
  5
213
100
AcDbEntity
  8
0
100
AcDbLine
 62
9
  6
CONTINUOUS
 10
12.8845538167
 20
6.3830266437
 11
12.9391618134
 21
6.3830266437
  0
LINE
  5
214
100
AcDbEntity
  8
0
100
AcDbLine
 62
9
  6
CONTINUOUS
 10
11.8501031968
 20
11.8342168853
 11
12.5580168659
 21
12.0819228342
  0
LINE
  5
215
100
AcDbEntity
  8
0
100
AcDbLine
 62
9
  6
CONTINUOUS
 10
12.2147290961
 20
7.5165913905
 11
11.8995296689
 21
7.5165913905
  0
LINE
  5
216
100
AcDbEntity
  8
0
100
AcDbLine
 62
9
  6
CONTINUOUS
 10
12.4947290961
 20
7.5165913905
 11
12.8099285233
 21
7.5165913905
  0
LINE
  5
217
100
AcDbEntity
  8
0
100
AcDbLine
 62
9
  6
CONTINUOUS
 10
11.9796941164
 20
9.0943452765
 11
12.7297640757
 21
9.0943452765
  0
LINE
  5
218
100
AcDbEntity
  8
0
100
AcDbLine
 62
7
  6
CONTINUOUS
 10
12.0096940509
 20
9.1242825625
 11
12.6997626739
 21
9.1242825625
  0
LINE
  5
219
100
AcDbEntity
  8
0
100
AcDbLine
 62
7
  6
CONTINUOUS
 10
12.7097290961
 20
9.1392825625
 11
11.9997290961
 21
9.1392825625
  0
LINE
  5
21A
100
AcDbEntity
  8
0
100
AcDbLine
 62
9
  6
CONTINUOUS
 10
12.7297290961
 20
9.1592825625
 11
11.9797290961
 21
9.1592825625
  0
LINE
  5
21B
100
AcDbEntity
  8
0
100
AcDbLine
 62
7
  6
CONTINUOUS
 10
11.4947290961
 20
4.8342825576
 11
11.4947290961
 21
4.8242815143
  0
LINE
  5
21C
100
AcDbEntity
  8
0
100
AcDbLine
 62
7
  6
CONTINUOUS
 10
12.846741676
 20
6.3095302539
 11
12.8464063681
 21
6.3103876662
  0
LINE
  5
21D
100
AcDbEntity
  8
0
100
AcDbLine
 62
7
  6
CONTINUOUS
 10
12.8464063681
 20
6.3103876662
 11
12.8347290961
 21
6.340674848
  0
LINE
  5
21E
100
AcDbEntity
  8
0
100
AcDbLine
 62
7
  6
CONTINUOUS
 10
11.8747290961
 20
6.2545681026
 11
11.8747290961
 21
6.3800935263
  0
LINE
  5
21F
100
AcDbEntity
  8
0
100
AcDbLine
 62
7
  6
CONTINUOUS
 10
11.9797290961
 20
9.1592825625
 11
11.9797290961
 21
11.0712825625
  0
LINE
  5
220
100
AcDbEntity
  8
0
100
AcDbLine
 62
7
  6
CONTINUOUS
 10
12.0422290961
 20
9.1392825625
 11
12.0422290961
 21
9.1242825625
  0
LINE
  5
221
100
AcDbEntity
  8
0
100
AcDbLine
 62
7
  6
CONTINUOUS
 10
12.2147290961
 20
6.835632966
 11
12.2147290961
 21
8.2823422359
  0
LINE
  5
222
100
AcDbEntity
  8
0
100
AcDbLine
 62
9
  6
CONTINUOUS
 10
12.3547290961
 20
5.0673407966
 11
12.3547291193
 21
5.7777648637
  0
LINE
  5
223
100
AcDbEntity
  8
0
100
AcDbLine
 62
7
  6
CONTINUOUS
 10
12.4947290961
 20
6.8356329134
 11
12.4947290961
 21
8.2823422359
  0
LINE
  5
224
100
AcDbEntity
  8
0
100
AcDbLine
 62
7
  6
CONTINUOUS
 10
12.6672290961
 20
9.1392825625
 11
12.6672290961
 21
9.1242825625
  0
LINE
  5
225
100
AcDbEntity
  8
0
100
AcDbLine
 62
7
  6
CONTINUOUS
 10
12.7297290961
 20
9.1592825625
 11
12.7297290961
 21
11.0712825625
  0
LINE
  5
226
100
AcDbEntity
  8
0
100
AcDbLine
 62
7
  6
CONTINUOUS
 10
12.8347290961
 20
6.2545681026
 11
12.8347290961
 21
6.3800935263
  0
LINE
  5
227
100
AcDbEntity
  8
0
100
AcDbLine
 62
7
  6
CONTINUOUS
 10
11.8747290961
 20
6.3406673112
 11
11.8630332376
 21
6.3103289834
  0
LINE
  5
228
100
AcDbEntity
  8
0
100
AcDbLine
 62
7
  6
CONTINUOUS
 10
11.8630332376
 20
6.3103289834
 11
11.862733646
 21
6.3095626011
  0
LINE
  5
229
100
AcDbEntity
  8
0
100
AcDbLine
 62
9
  6
CONTINUOUS
 10
11.9797290961
 20
11.0712825625
 11
12.7297290961
 21
11.0712825625
  0
LINE
  5
22A
100
AcDbEntity
  8
0
100
AcDbLine
 62
7
  6
CONTINUOUS
 10
8.7639677089
 20
11.7842807762
 11
8.0856888158
 21
11.9942481443
  0
LINE
  5
22B
100
AcDbEntity
  8
0
100
AcDbLine
 62
7
  6
CONTINUOUS
 10
13.2147290961
 20
4.8342825575
 11
13.2147290961
 21
4.8242815143
  0
ARC
  5
22C
100
AcDbEntity
  8
0
100
AcDbCircle
 62
7
  6
CONTINUOUS
 10
-28.4302460477
 20
11.5402825625
 40
40.53
100
AcDbArc
 50
352.6895568497
 51
354.3024695554
  0
ARC
  5
22D
100
AcDbEntity
  8
0
100
AcDbCircle
 62
7
  6
CONTINUOUS
 10
53.1397042399
 20
11.5402825625
 40
40.53
100
AcDbArc
 50
185.6975304446
 51
187.3104431503
  0
ARC
  5
22E
100
AcDbEntity
  8
0
100
AcDbCircle
 62
7
  6
CONTINUOUS
 10
-4.2545787635
 20
9.1282825625
 40
16.2343083524
100
AcDbArc
 50
354.3024695554
 51
359.8802249761
  0
ARC
  5
22F
100
AcDbEntity
  8
0
100
AcDbCircle
 62
7
  6
CONTINUOUS
 10
28.9640369557
 20
9.1282825625
 40
16.2343083524
100
AcDbArc
 50
180.1197750239
 51
185.6975304446
  0
ARC
  5
230
100
AcDbEntity
  8
0
100
AcDbCircle
 62
7
  6
CONTINUOUS
 10
26.7460098414
 20
8.1542825625
 40
13.92
100
AcDbArc
 50
187.3104431503
 51
193.7091916782
  0
ARC
  5
231
100
AcDbEntity
  8
0
100
AcDbCircle
 62
7
  6
CONTINUOUS
 10
-2.0365516492
 20
8.1542825625
 40
13.92
100
AcDbArc
 50
346.2908083222
 51
352.6895568497
  0
ARC
  5
232
100
AcDbEntity
  8
0
100
AcDbCircle
 62
7
  6
CONTINUOUS
 10
-2.0365516492
 20
8.1542825625
 40
13.92
100
AcDbArc
 50
344.2665683368
 51
346.0948296586
  0
ARC
  5
233
100
AcDbEntity
  8
0
100
AcDbCircle
 62
7
  6
CONTINUOUS
 10
26.7460098414
 20
8.1542825625
 40
13.92
100
AcDbArc
 50
193.9051703414
 51
195.7334316632
  0
ARC
  5
234
100
AcDbEntity
  8
0
100
AcDbCircle
 62
7
  6
CONTINUOUS
 10
9.6697290961
 20
11.0712825625
 40
3.06
100
AcDbArc
 50
0.0
 51
19.2854433515
  0
ARC
  5
235
100
AcDbEntity
  8
0
100
AcDbCircle
 62
7
  6
CONTINUOUS
 10
10.3257290961
 20
11.3008234085
 40
2.365
100
AcDbArc
 50
19.2854433515
 51
162.3109470331
  0
ARC
  5
236
100
AcDbEntity
  8
0
100
AcDbCircle
 62
7
  6
CONTINUOUS
 10
9.6697290961
 20
11.0712825625
 40
2.31
100
AcDbArc
 50
0.0
 51
19.2854433515
  0
ARC
  5
237
100
AcDbEntity
  8
0
100
AcDbCircle
 62
7
  6
CONTINUOUS
 10
10.3257290961
 20
11.3008234085
 40
1.615
100
AcDbArc
 50
19.2854433515
 51
162.0987330379
  0
ARC
  5
238
100
AcDbEntity
  8
0
100
AcDbCircle
 62
9
  6
CONTINUOUS
 10
12.3548453672
 20
6.2608847265
 40
0.482734604
100
AcDbArc
 50
269.9861998997
 51
300.5837810467
  0
ARC
  5
239
100
AcDbEntity
  8
0
100
AcDbCircle
 62
9
  6
CONTINUOUS
 10
12.3618725995
 20
6.2545667551
 40
0.4728564152
100
AcDbArc
 50
356.2223290825
 51
0.000163269
  0
ARC
  5
23A
100
AcDbEntity
  8
0
100
AcDbCircle
 62
9
  6
CONTINUOUS
 10
12.3446517951
 20
6.2444902378
 40
0.470632224
100
AcDbArc
 50
176.9652306547
 51
178.7716295396
  0
ARC
  5
23B
100
AcDbEntity
  8
0
100
AcDbCircle
 62
9
  6
CONTINUOUS
 10
12.364807172
 20
6.2444905651
 40
0.4706314056
100
AcDbArc
 50
1.2283321429
 51
3.0342476225
  0
ARC
  5
23C
100
AcDbEntity
  8
0
100
AcDbCircle
 62
7
  6
CONTINUOUS
 10
12.6997641413
 20
9.0942825625
 40
0.03
100
AcDbArc
 50
0.1197750239
 51
90.0
  0
ARC
  5
23D
100
AcDbEntity
  8
0
100
AcDbCircle
 62
7
  6
CONTINUOUS
 10
12.0096940509
 20
9.0942825625
 40
0.03
100
AcDbArc
 50
90.0
 51
179.8802249761
  0
ARC
  5
23E
100
AcDbEntity
  8
0
100
AcDbCircle
 62
7
  6
CONTINUOUS
 10
12.7097290961
 20
9.1592825625
 40
0.02
100
AcDbArc
 50
270.0
 51
360.0
  0
ARC
  5
23F
100
AcDbEntity
  8
0
100
AcDbCircle
 62
7
  6
CONTINUOUS
 10
11.9997290961
 20
9.1592825625
 40
0.02
100
AcDbArc
 50
180.0
 51
270.0
  0
ARC
  5
240
100
AcDbEntity
  8
0
100
AcDbCircle
 62
7
  6
CONTINUOUS
 10
8.7698815333
 20
11.8033864476
 40
0.02
100
AcDbArc
 50
252.7996163217
 51
342.0987999799
  0
ARC
  5
241
100
AcDbEntity
  8
0
100
AcDbCircle
 62
7
  6
CONTINUOUS
 10
8.0916035691
 20
12.0133535282
 40
0.02
100
AcDbArc
 50
162.3109936991
 51
252.7996163228
  0
ARC
  5
242
100
AcDbEntity
  8
0
100
AcDbCircle
 62
7
  6
CONTINUOUS
 10
13.20314493
 20
4.8505861491
 40
0.02
100
AcDbArc
 50
305.3948781367
 51
13.7091916782
  0
ARC
  5
243
100
AcDbEntity
  8
0
100
AcDbCircle
 62
7
  6
CONTINUOUS
 10
11.5063132622
 20
4.8505861491
 40
0.02
100
AcDbArc
 50
166.2908083222
 51
234.6051217812
  0
ARC
  5
244
100
AcDbEntity
  8
0
100
AcDbCircle
 62
7
  6
CONTINUOUS
 10
13.2145243354
 20
4.8042825625
 40
0.02
100
AcDbArc
 50
13.9051703414
 51
89.413393519
  0
ARC
  5
245
100
AcDbEntity
  8
0
100
AcDbCircle
 62
7
  6
CONTINUOUS
 10
11.4949338568
 20
4.8042825625
 40
0.02
100
AcDbArc
 50
90.586606481
 51
166.0948296586
  0
ARC
  5
246
100
AcDbEntity
  8
0
100
AcDbCircle
 62
7
  6
CONTINUOUS
 10
13.328290214
 20
4.3742825625
 40
0.02
100
AcDbArc
 50
270.0
 51
15.7334316632
  0
ARC
  5
247
100
AcDbEntity
  8
0
100
AcDbCircle
 62
7
  6
CONTINUOUS
 10
11.3811679782
 20
4.3742825625
 40
0.02
100
AcDbArc
 50
164.2665683368
 51
270.0
  0
SPLINE
  5
248
100
AcDbEntity
  8
0
100
AcDbSpline
 62
7
  6
CONTINUOUS
 70
0
 71
3
 72
32
 73
28
 74
0
 42
0.0000001
 43
0.0000001
 44
0.0000000001
 40
0.0
 40
0.0
 40
0.0
 40
0.0
 40
0.0754310376
 40
0.1499152161
 40
0.2225220581
 40
0.2923955362
 40
0.3587681367
 40
0.3904427774
 40
0.4210230818
 40
0.4787560699
 40
0.5318983488
 40
0.5809485556
 40
0.6043452178
 40
0.6273843712
 40
0.6505177775
 40
0.6743379078
 40
0.6995475618
 40
0.7267785124
 40
0.7563582993
 40
0.788139026
 40
0.8216354942
 40
0.8563074201
 40
0.8917269471
 40
0.9275994956
 40
0.9456544019
 40
0.9637517786
 40
1.0
 40
1.0
 40
1.0
 40
1.0
 10
12.3547290962
 20
8.3345291703
 30
0.0
 10
12.3588785249
 20
8.3345291703
 30
0.0
 10
12.3671254239
 20
8.3344697078
 30
0.0
 10
12.3793637791
 20
8.3342026134
 30
0.0
 10
12.391291217
 20
8.3337605874
 30
0.0
 10
12.4027643107
 20
8.3331479591
 30
0.0
 10
12.4119787017
 20
8.3324896275
 30
0.0
 10
12.4190278207
 20
8.3318747738
 30
0.0
 10
12.425596589
 20
8.3312275297
 30
0.0
 10
12.4333266242
 20
8.3303259363
 30
0.0
 10
12.4420318514
 20
8.3290456855
 30
0.0
 10
12.4488256849
 20
8.3277764678
 30
0.0
 10
12.4539460711
 20
8.3266020058
 30
0.0
 10
12.4576473885
 20
8.3256261867
 30
0.0
 10
12.4613295893
 20
8.3244968992
 30
0.0
 10
12.4650654334
 20
8.3231489002
 30
0.0
 10
12.4689196349
 20
8.3214842974
 30
0.0
 10
12.4729183046
 20
8.3193829608
 30
0.0
 10
12.4770116772
 20
8.3167232535
 30
0.0
 10
12.4810642098
 20
8.3134178746
 30
0.0
 10
12.4848851636
 20
8.3094440876
 30
0.0
 10
12.4882780795
 20
8.3048446247
 30
0.0
 10
12.4910773874
 20
8.2997108737
 30
0.0
 10
12.4928095355
 20
8.2950921385
 30
0.0
 10
12.4937976671
 20
8.2912521291
 30
0.0
 10
12.4945126491
 20
8.2873316296
 30
0.0
 10
12.4947290961
 20
8.2843362349
 30
0.0
 10
12.4947290961
 20
8.2823422359
 30
0.0
  0
SPLINE
  5
249
100
AcDbEntity
  8
0
100
AcDbSpline
 62
7
  6
CONTINUOUS
 70
0
 71
3
 72
34
 73
30
 74
0
 42
0.0000001
 43
0.0000001
 44
0.0000000001
 40
0.0
 40
0.0
 40
0.0
 40
0.0
 40
0.0362499966
 40
0.0543450457
 40
0.0724026075
 40
0.1082852134
 40
0.1437117934
 40
0.1611796439
 40
0.1784126144
 40
0.2119190256
 40
0.2280666815
 40
0.2437142779
 40
0.2732930636
 40
0.3005240153
 40
0.3133415038
 40
0.3257292945
 40
0.3495476629
 40
0.3726760062
 40
0.4191013875
 40
0.4681472286
 40
0.5212853953
 40
0.5790148713
 40
0.6095945947
 40
0.6412660169
 40
0.7076332843
 40
0.7775005962
 40
0.8500995542
 40
0.9245776727
 40
1.0
 40
1.0
 40
1.0
 40
1.0
 10
12.2147290961
 20
8.2823422359
 30
0.0
 10
12.2147290961
 20
8.2843363916
 30
0.0
 10
12.2149454536
 20
8.2873318636
 30
0.0
 10
12.2156606913
 20
8.2912525477
 30
0.0
 10
12.2166492718
 20
8.2950931985
 30
0.0
 10
12.2183817049
 20
8.2997127515
 30
0.0
 10
12.2207279917
 20
8.3040149129
 30
0.0
 10
12.2229150413
 20
8.3071959728
 30
0.0
 10
12.2252428325
 20
8.3101416763
 30
0.0
 10
12.2278023178
 20
8.3128013167
 30
0.0
 10
12.2305202138
 20
8.3151526889
 30
0.0
 10
12.2331982727
 20
8.317211404
 30
0.0
 10
12.236546537
 20
8.3193874815
 30
0.0
 10
12.2399418521
 20
8.32117016
 30
0.0
 10
12.242569328
 20
8.3223618083
 30
0.0
 10
12.2450629403
 20
8.3233900564
 30
0.0
 10
12.2481343527
 20
8.3245001491
 30
0.0
 10
12.2530474253
 20
8.326003826
 30
0.0
 10
12.2593925431
 20
8.3275447563
 30
0.0
 10
12.2674309914
 20
8.3290465414
 30
0.0
 10
12.2761361505
 20
8.3303264472
 30
0.0
 10
12.2838658922
 20
8.3312279804
 30
0.0
 10
12.2904344713
 20
8.3318751519
 30
0.0
 10
12.2974833002
 20
8.3324899282
 30
0.0
 10
12.3066971625
 20
8.333148161
 30
0.0
 10
12.3181695339
 20
8.33376069
 30
0.0
 10
12.3300962205
 20
8.3342026662
 30
0.0
 10
12.3423336929
 20
8.3344697101
 30
0.0
 10
12.3505800237
 20
8.3345291703
 30
0.0
 10
12.3547290962
 20
8.3345291703
 30
0.0
  0
SPLINE
  5
24A
100
AcDbEntity
  8
0
100
AcDbSpline
 62
7
  6
CONTINUOUS
 70
0
 71
3
 72
31
 73
27
 74
0
 42
0.0000001
 43
0.0000001
 44
0.0000000001
 40
0.0
 40
0.0
 40
0.0
 40
0.0
 40
0.0313501219
 40
0.0627048767
 40
0.0940547806
 40
0.1254011528
 40
0.1880649938
 40
0.2507071721
 40
0.282027787
 40
0.3133409549
 40
0.3446461092
 40
0.3759427899
 40
0.4384903791
 40
0.5010002546
 40
0.5634716635
 40
0.6259053407
 40
0.6571181187
 40
0.6883223868
 40
0.7195186573
 40
0.7507074876
 40
0.8130463221
 40
0.8753640774
 40
0.9065256983
 40
0.9376852388
 40
0.9688458334
 40
1.0
 40
1.0
 40
1.0
 40
1.0
 10
12.3547290961
 20
5.7778477959
 30
0.0
 10
12.3625793771
 20
5.7778477959
 30
0.0
 10
12.3782838028
 20
5.7782308256
 30
0.0
 10
12.4017816066
 20
5.7799513066
 30
0.0
 10
12.4251677684
 20
5.7828153164
 30
0.0
 10
12.4561132618
 20
5.7881464238
 30
0.0
 10
12.4942452366
 20
5.7976282758
 30
0.0
 10
12.5312652021
 20
5.810780219
 30
0.0
 10
12.5599870057
 20
5.8234209277
 30
0.0
 10
12.5810371518
 20
5.8339411286
 30
0.0
 10
12.6015428528
 20
5.845474572
 30
0.0
 10
12.6280819663
 20
5.8621600614
 30
0.0
 10
12.6596647998
 20
5.8854143284
 30
0.0
 10
12.6946263357
 20
5.9168746636
 30
0.0
 10
12.7263175803
 20
5.9515885928
 30
0.0
 10
12.7497540822
 20
5.9829632472
 30
0.0
 10
12.7665708605
 20
6.0093308402
 30
0.0
 10
12.7781926602
 20
6.0296997846
 30
0.0
 10
12.7887942396
 20
6.0506111209
 30
0.0
 10
12.8015308904
 20
6.0791393467
 30
0.0
 10
12.8147861122
 20
6.1159157709
 30
0.0
 10
12.8243467044
 20
6.1538141024
 30
0.0
 10
12.8297213863
 20
6.1845689763
 30
0.0
 10
12.832608543
 20
6.2078088684
 30
0.0
 10
12.834342958
 20
6.2311600913
 30
0.0
 10
12.8347290961
 20
6.2467668902
 30
0.0
 10
12.8347290961
 20
6.2545681026
 30
0.0
  0
SPLINE
  5
24B
100
AcDbEntity
  8
0
100
AcDbSpline
 62
7
  6
CONTINUOUS
 70
0
 71
3
 72
31
 73
27
 74
0
 42
0.0000001
 43
0.0000001
 44
0.0000000001
 40
0.0
 40
0.0
 40
0.0
 40
0.0
 40
0.0311541658
 40
0.0623147586
 40
0.0934742978
 40
0.1246359181
 40
0.1869536726
 40
0.2492925072
 40
0.2804813377
 40
0.3116776086
 40
0.3428818773
 40
0.374094656
 40
0.4365283348
 40
0.4989997456
 40
0.5615096228
 40
0.6240572137
 40
0.655353895
 40
0.6866590499
 40
0.7179722181
 40
0.7492928333
 40
0.8119350115
 40
0.8745988517
 40
0.9059452234
 40
0.9372951259
 40
0.9686498788
 40
1.0
 40
1.0
 40
1.0
 40
1.0
 10
11.8747290961
 20
6.2545681026
 30
0.0
 10
11.8747290961
 20
6.2467668904
 30
0.0
 10
11.8751152341
 20
6.2311600922
 30
0.0
 10
11.8768496491
 20
6.2078088703
 30
0.0
 10
11.8797368055
 20
6.1845689791
 30
0.0
 10
11.8851114871
 20
6.1538141057
 30
0.0
 10
11.8946720789
 20
6.1159157745
 30
0.0
 10
11.9079273003
 20
6.0791393503
 30
0.0
 10
11.920663951
 20
6.0506111242
 30
0.0
 10
11.9312655303
 20
6.0296997875
 30
0.0
 10
11.9428873302
 20
6.0093308427
 30
0.0
 10
11.9597041087
 20
5.982963249
 30
0.0
 10
11.9831406111
 20
5.9515885937
 30
0.0
 10
12.0148318565
 20
5.9168746635
 30
0.0
 10
12.0497933934
 20
5.8854143275
 30
0.0
 10
12.0813762278
 20
5.86216006
 30
0.0
 10
12.1079153421
 20
5.8454745704
 30
0.0
 10
12.1284210435
 20
5.8339411269
 30
0.0
 10
12.14947119
 20
5.8234209261
 30
0.0
 10
12.1781929938
 20
5.8107802175
 30
0.0
 10
12.2152129593
 20
5.7976282748
 30
0.0
 10
12.2533449338
 20
5.7881464231
 30
0.0
 10
12.2842904265
 20
5.782815316
 30
0.0
 10
12.3076765875
 20
5.7799513064
 30
0.0
 10
12.3311743902
 20
5.7782308255
 30
0.0
 10
12.3468788153
 20
5.7778477959
 30
0.0
 10
12.3547290961
 20
5.7778477959
 30
0.0
  0
SPLINE
  5
24C
100
AcDbEntity
  8
0
100
AcDbSpline
 62
7
  6
CONTINUOUS
 70
0
 71
3
 72
31
 73
27
 74
0
 42
0.0000001
 43
0.0000001
 44
0.0000000001
 40
0.0
 40
0.0
 40
0.0
 40
0.0
 40
0.0311541658
 40
0.0623147586
 40
0.0934742978
 40
0.1246359181
 40
0.1869536726
 40
0.2492925072
 40
0.2804813377
 40
0.3116776086
 40
0.3428818773
 40
0.374094656
 40
0.4365283348
 40
0.4989997456
 40
0.5615096228
 40
0.6240572137
 40
0.655353895
 40
0.6866590499
 40
0.7179722181
 40
0.7492928333
 40
0.8119350115
 40
0.8745988517
 40
0.9059452234
 40
0.9372951259
 40
0.9686498788
 40
1.0
 40
1.0
 40
1.0
 40
1.0
 10
12.8347290961
 20
6.3800935263
 30
0.0
 10
12.8347290961
 20
6.3878947385
 30
0.0
 10
12.8343429581
 20
6.4035015367
 30
0.0
 10
12.8326085431
 20
6.4268527586
 30
0.0
 10
12.8297213867
 20
6.4500926498
 30
0.0
 10
12.8243467051
 20
6.4808475231
 30
0.0
 10
12.8147861132
 20
6.5187458544
 30
0.0
 10
12.8015308919
 20
6.5555222786
 30
0.0
 10
12.7887942412
 20
6.5840505046
 30
0.0
 10
12.7781926619
 20
6.6049618413
 30
0.0
 10
12.766570862
 20
6.6253307861
 30
0.0
 10
12.7497540835
 20
6.6516983798
 30
0.0
 10
12.7263175811
 20
6.6830730351
 30
0.0
 10
12.6946263356
 20
6.7177869654
 30
0.0
 10
12.6596647988
 20
6.7492473014
 30
0.0
 10
12.6280819643
 20
6.7725015689
 30
0.0
 10
12.6015428501
 20
6.7891870584
 30
0.0
 10
12.5810371487
 20
6.8007205019
 30
0.0
 10
12.5599870022
 20
6.8112407028
 30
0.0
 10
12.5312651983
 20
6.8238814114
 30
0.0
 10
12.4942452329
 20
6.8370333541
 30
0.0
 10
12.4561132584
 20
6.8465152058
 30
0.0
 10
12.4251677656
 20
6.8518463129
 30
0.0
 10
12.4017816047
 20
6.8547103224
 30
0.0
 10
12.378283802
 20
6.8564308034
 30
0.0
 10
12.3625793769
 20
6.856813833
 30
0.0
 10
12.3547290961
 20
6.856813833
 30
0.0
  0
SPLINE
  5
24D
100
AcDbEntity
  8
0
100
AcDbSpline
 62
7
  6
CONTINUOUS
 70
0
 71
3
 72
31
 73
27
 74
0
 42
0.0000001
 43
0.0000001
 44
0.0000000001
 40
0.0
 40
0.0
 40
0.0
 40
0.0
 40
0.0313501219
 40
0.0627048767
 40
0.0940547806
 40
0.1254011528
 40
0.1880649938
 40
0.2507071721
 40
0.282027787
 40
0.3133409549
 40
0.3446461092
 40
0.3759427899
 40
0.4384903791
 40
0.5010002546
 40
0.5634716635
 40
0.6259053407
 40
0.6571181187
 40
0.6883223868
 40
0.7195186573
 40
0.7507074876
 40
0.8130463221
 40
0.8753640774
 40
0.9065256983
 40
0.9376852388
 40
0.9688458334
 40
1.0
 40
1.0
 40
1.0
 40
1.0
 10
12.3547290961
 20
6.856813833
 30
0.0
 10
12.3468788151
 20
6.856813833
 30
0.0
 10
12.3311743894
 20
6.8564308033
 30
0.0
 10
12.3076765856
 20
6.8547103223
 30
0.0
 10
12.2842904238
 20
6.8518463125
 30
0.0
 10
12.2533449304
 20
6.8465152051
 30
0.0
 10
12.2152129556
 20
6.837033353
 30
0.0
 10
12.1781929901
 20
6.8238814099
 30
0.0
 10
12.1494711865
 20
6.8112407012
 30
0.0
 10
12.1284210404
 20
6.8007205002
 30
0.0
 10
12.1079153394
 20
6.7891870569
 30
0.0
 10
12.0813762259
 20
6.7725015674
 30
0.0
 10
12.0497933924
 20
6.7492473004
 30
0.0
 10
12.0148318565
 20
6.7177869653
 30
0.0
 10
11.9831406119
 20
6.6830730361
 30
0.0
 10
11.95970411
 20
6.6516983816
 30
0.0
 10
11.9428873316
 20
6.6253307887
 30
0.0
 10
11.931265532
 20
6.6049618443
 30
0.0
 10
11.9206639525
 20
6.584050508
 30
0.0
 10
11.9079273018
 20
6.5555222822
 30
0.0
 10
11.89467208
 20
6.518745858
 30
0.0
 10
11.8851114878
 20
6.4808475265
 30
0.0
 10
11.8797368059
 20
6.4500926525
 30
0.0
 10
11.8768496492
 20
6.4268527604
 30
0.0
 10
11.8751152342
 20
6.4035015375
 30
0.0
 10
11.8747290961
 20
6.3878947387
 30
0.0
 10
11.8747290961
 20
6.3800935263
 30
0.0
  0
SPLINE
  5
24E
100
AcDbEntity
  8
0
100
AcDbSpline
 62
9
  6
CONTINUOUS
 70
0
 71
3
 72
31
 73
27
 74
0
 42
0.0000001
 43
0.0000001
 44
0.0000000001
 40
0.0
 40
0.0
 40
0.0
 40
0.0
 40
0.0627276232
 40
0.1254544105
 40
0.188171277
 40
0.2195349841
 40
0.2508939195
 40
0.2822471934
 40
0.3135933508
 40
0.3449301974
 40
0.3762565758
 40
0.4075716265
 40
0.4388735791
 40
0.4701612048
 40
0.5014338073
 40
0.5326908032
 40
0.5639315404
 40
0.5951566128
 40
0.6263669402
 40
0.6575628282
 40
0.6887447974
 40
0.7510536612
 40
0.8133222363
 40
0.875561806
 40
0.9377836472
 40
1.0
 40
1.0
 40
1.0
 40
1.0
 10
12.3547290961
 20
5.7684067565
 30
0.0
 10
12.3388044043
 20
5.7684073545
 30
0.0
 10
12.3069335588
 20
5.7699626581
 30
0.0
 10
12.259599678
 20
5.7769116753
 30
0.0
 10
12.2209009136
 20
5.7865480772
 30
0.0
 10
12.1906465761
 20
5.7965222035
 30
0.0
 10
12.1683544812
 20
5.8051221106
 30
0.0
 10
12.1465216152
 20
5.8148163876
 30
0.0
 10
12.1252029313
 20
5.8255825059
 30
0.0
 10
12.1044544625
 20
5.8373966679
 30
0.0
 10
12.0843320029
 20
5.8502334133
 30
0.0
 10
12.0648816024
 20
5.8640517673
 30
0.0
 10
12.0461489544
 20
5.8788125901
 30
0.0
 10
12.0281803149
 20
5.894478171
 30
0.0
 10
12.0110227344
 20
5.9110116832
 30
0.0
 10
11.9947178725
 20
5.9283703669
 30
0.0
 10
11.9793067139
 20
5.9465113141
 30
0.0
 10
11.9648253089
 20
5.9653878045
 30
0.0
 10
11.9513058563
 20
5.9849506943
 30
0.0
 10
11.9387816396
 20
6.0051531353
 30
0.0
 10
11.9234652268
 20
6.0328676402
 30
0.0
 10
11.9069677931
 20
6.0688838665
 30
0.0
 10
11.89158657
 20
6.1138290378
 30
0.0
 10
11.8807928225
 20
6.1600730015
 30
0.0
 10
11.8746988896
 20
6.2071475863
 30
0.0
 10
11.8737889858
 20
6.2387881379
 30
0.0
 10
11.8741277265
 20
6.2545794005
 30
0.0
  0
SPLINE
  5
24F
100
AcDbEntity
  8
0
100
AcDbSpline
 62
9
  6
CONTINUOUS
 70
0
 71
3
 72
26
 73
22
 74
0
 42
0.0000001
 43
0.0000001
 44
0.0000000001
 40
0.0
 40
0.0
 40
0.0
 40
0.0
 40
0.0988027519
 40
0.19157122
 40
0.2781996195
 40
0.3586199797
 40
0.4328168271
 40
0.5008426463
 40
0.5628002594
 40
0.6189358753
 40
0.6697637238
 40
0.7161855481
 40
0.7381937606
 40
0.7596792514
 40
0.7809054192
 40
0.8021444226
 40
0.8236627964
 40
0.8457119622
 40
0.8922437561
 40
0.9433104258
 40
1.0
 40
1.0
 40
1.0
 40
1.0
 10
11.8249043755
 20
6.3830266437
 30
0.0
 10
11.8259127773
 20
6.3808258339
 30
0.0
 10
11.8279228368
 20
6.3765833671
 30
0.0
 10
11.8310307297
 20
6.3705153772
 30
0.0
 10
11.8341379923
 20
6.364957355
 30
0.0
 10
11.8372447223
 20
6.3599261056
 30
0.0
 10
11.840351432
 20
6.3554384221
 30
0.0
 10
11.8434574249
 20
6.3515113391
 30
0.0
 10
11.8465651486
 20
6.348165915
 30
0.0
 10
11.849680002
 20
6.3454268071
 30
0.0
 10
11.8528077076
 20
6.343320957
 30
0.0
 10
11.855482785
 20
6.3421001054
 30
0.0
 10
11.857607346
 20
6.3415029473
 30
0.0
 10
11.8591749594
 20
6.3412424567
 30
0.0
 10
11.8607431628
 20
6.3411618162
 30
0.0
 10
11.8623111355
 20
6.341259752
 30
0.0
 10
11.86387823
 20
6.341534992
 30
0.0
 10
11.8660031446
 20
6.3421466636
 30
0.0
 10
11.8686813646
 20
6.3433837812
 30
0.0
 10
11.8718133731
 20
6.3455234769
 30
0.0
 10
11.8737815334
 20
6.347294282
 30
0.0
 10
11.8747663589
 20
6.348273778
 30
0.0
  0
SPLINE
  5
250
100
AcDbEntity
  8
0
100
AcDbSpline
 62
9
  6
CONTINUOUS
 70
0
 71
3
 72
30
 73
26
 74
0
 42
0.0000001
 43
0.0000001
 44
0.0000000001
 40
0.0
 40
0.0
 40
0.0
 40
0.0
 40
0.0029405566
 40
0.005995235
 40
0.0092657911
 40
0.0128351406
 40
0.0210978195
 40
0.0311289826
 40
0.0430979824
 40
0.0570912446
 40
0.0731443083
 40
0.091266452
 40
0.1114459618
 40
0.1336571067
 40
0.1578651732
 40
0.1840237726
 40
0.2419779389
 40
0.3070277287
 40
0.3785913384
 40
0.4560132576
 40
0.5385744028
 40
0.6255011227
 40
0.7159761584
 40
0.8091389646
 40
1.0
 40
1.0
 40
1.0
 40
1.0
 10
12.2147290961
 20
8.2823422359
 30
0.0
 10
12.2147290961
 20
8.2824825145
 30
0.0
 10
12.2147585697
 20
8.2827692865
 30
0.0
 10
12.2148894722
 20
8.2831940179
 30
0.0
 10
12.2151056015
 20
8.2836159902
 30
0.0
 10
12.2155265388
 20
8.2842033305
 30
0.0
 10
12.2162889324
 20
8.2849270747
 30
0.0
 10
12.2174833582
 20
8.2857437885
 30
0.0
 10
12.2190011455
 20
8.2865523926
 30
0.0
 10
12.22084091
 20
8.2873514236
 30
0.0
 10
12.2230004094
 20
8.2881398595
 30
0.0
 10
12.2254754581
 20
8.2889153707
 30
0.0
 10
12.228260735
 20
8.2896760541
 30
0.0
 10
12.2313499164
 20
8.2904199098
 30
0.0
 10
12.2347357853
 20
8.2911449338
 30
0.0
 10
12.239811158
 20
8.2921176581
 30
0.0
 10
12.2468366087
 20
8.2932569068
 30
0.0
 10
12.2560381465
 20
8.2944818021
 30
0.0
 10
12.2661887532
 20
8.2955935113
 30
0.0
 10
12.2771910253
 20
8.2965808007
 30
0.0
 10
12.2889394064
 20
8.2974335146
 30
0.0
 10
12.3013209899
 20
8.2981430829
 30
0.0
 10
12.3142165009
 20
8.2987024333
 30
0.0
 10
12.3320739925
 20
8.2992446629
 30
0.0
 10
12.3456241124
 20
8.299403944
 30
0.0
 10
12.3547290961
 20
8.299403944
 30
0.0
  0
SPLINE
  5
251
100
AcDbEntity
  8
0
100
AcDbSpline
 62
9
  6
CONTINUOUS
 70
0
 71
3
 72
45
 73
41
 74
0
 42
0.0000001
 43
0.0000001
 44
0.0000000001
 40
0.0
 40
0.0
 40
0.0
 40
0.0
 40
0.0313645232
 40
0.0470502092
 40
0.0627336026
 40
0.0940850053
 40
0.1254235664
 40
0.1410916731
 40
0.1567553525
 40
0.1724142742
 40
0.1880681393
 40
0.2193504197
 40
0.2506102386
 40
0.2818471438
 40
0.3130615579
 40
0.344254771
 40
0.375428892
 40
0.4065867675
 40
0.4377318731
 40
0.4688681799
 40
0.5
 40
0.5311318201
 40
0.5622681269
 40
0.5934132325
 40
0.624571108
 40
0.655745229
 40
0.6869384421
 40
0.7181528562
 40
0.7493897614
 40
0.7806495803
 40
0.8119318607
 40
0.8275857258
 40
0.8432446475
 40
0.8589083269
 40
0.8745764336
 40
0.9059149947
 40
0.9372663974
 40
0.9529497908
 40
0.9686354768
 40
1.0
 40
1.0
 40
1.0
 40
1.0
 10
12.3547290961
 20
5.9482479933
 30
0.0
 10
12.3691220447
 20
5.9482479933
 30
0.0
 10
12.3907323892
 20
5.9493016658
 30
0.0
 10
12.4193150315
 20
5.9528012349
 30
0.0
 10
12.4476897643
 20
5.957687616
 30
0.0
 10
12.4826510961
 20
5.9663782138
 30
0.0
 10
12.516593119
 20
5.9784324056
 30
0.0
 10
12.5429257241
 20
5.9900178315
 30
0.0
 10
12.562223918
 20
5.9996591119
 30
0.0
 10
12.5810223016
 20
6.0102286887
 30
0.0
 10
12.6053501428
 20
6.02551882
 30
0.0
 10
12.6342998602
 20
6.0468270582
 30
0.0
 10
12.6663445894
 20
6.0756526044
 30
0.0
 10
12.6953905716
 20
6.1074585035
 30
0.0
 10
12.7211555999
 20
6.1419372266
 30
0.0
 10
12.7433920004
 20
6.1787571455
 30
0.0
 10
12.7618852765
 20
6.2175635818
 30
0.0
 10
12.7764571953
 20
6.2579827939
 30
0.0
 10
12.7869672505
 20
6.299625425
 30
0.0
 10
12.7933141017
 20
6.3420903022
 30
0.0
 10
12.7954365423
 20
6.3849683
 30
0.0
 10
12.7933141017
 20
6.4278462979
 30
0.0
 10
12.7869672505
 20
6.470311175
 30
0.0
 10
12.7764571953
 20
6.5119538062
 30
0.0
 10
12.7618852765
 20
6.5523730182
 30
0.0
 10
12.7433920004
 20
6.5911794546
 30
0.0
 10
12.7211555999
 20
6.6279993734
 30
0.0
 10
12.6953905716
 20
6.6624780965
 30
0.0
 10
12.6663445894
 20
6.6942839956
 30
0.0
 10
12.6342998602
 20
6.7231095418
 30
0.0
 10
12.6053501428
 20
6.74441778
 30
0.0
 10
12.5810223016
 20
6.7597079113
 30
0.0
 10
12.562223918
 20
6.7702774881
 30
0.0
 10
12.5429257241
 20
6.7799187685
 30
0.0
 10
12.516593119
 20
6.7915041945
 30
0.0
 10
12.4826510961
 20
6.8035583863
 30
0.0
 10
12.4476897643
 20
6.8122489841
 30
0.0
 10
12.4193150315
 20
6.8171353652
 30
0.0
 10
12.3907323892
 20
6.8206349343
 30
0.0
 10
12.3691220447
 20
6.8216886067
 30
0.0
 10
12.3547290961
 20
6.8216886067
 30
0.0
  0
SPLINE
  5
252
100
AcDbEntity
  8
0
100
AcDbSpline
 62
9
  6
CONTINUOUS
 70
0
 71
3
 72
45
 73
41
 74
0
 42
0.0000001
 43
0.0000001
 44
0.0000000001
 40
0.0
 40
0.0
 40
0.0
 40
0.0
 40
0.0313645232
 40
0.0470502092
 40
0.0627336026
 40
0.0940850053
 40
0.1254235664
 40
0.1410916731
 40
0.1567553525
 40
0.1724142742
 40
0.1880681393
 40
0.2193504197
 40
0.2506102386
 40
0.2818471438
 40
0.3130615579
 40
0.344254771
 40
0.375428892
 40
0.4065867675
 40
0.4377318731
 40
0.4688681799
 40
0.5
 40
0.5311318201
 40
0.5622681269
 40
0.5934132325
 40
0.624571108
 40
0.655745229
 40
0.6869384421
 40
0.7181528562
 40
0.7493897614
 40
0.7806495803
 40
0.8119318607
 40
0.8275857258
 40
0.8432446475
 40
0.8589083269
 40
0.8745764336
 40
0.9059149947
 40
0.9372663974
 40
0.9529497908
 40
0.9686354768
 40
1.0
 40
1.0
 40
1.0
 40
1.0
 10
12.3547290961
 20
6.8216886067
 30
0.0
 10
12.3403361475
 20
6.8216886067
 30
0.0
 10
12.318725803
 20
6.8206349343
 30
0.0
 10
12.2901431607
 20
6.8171353652
 30
0.0
 10
12.2617684279
 20
6.8122489841
 30
0.0
 10
12.2268070961
 20
6.8035583863
 30
0.0
 10
12.1928650731
 20
6.7915041945
 30
0.0
 10
12.166532468
 20
6.7799187685
 30
0.0
 10
12.1472342742
 20
6.7702774881
 30
0.0
 10
12.1284358906
 20
6.7597079113
 30
0.0
 10
12.1041080494
 20
6.74441778
 30
0.0
 10
12.075158332
 20
6.7231095418
 30
0.0
 10
12.0431136028
 20
6.6942839956
 30
0.0
 10
12.0140676206
 20
6.6624780965
 30
0.0
 10
11.9883025923
 20
6.6279993734
 30
0.0
 10
11.9660661918
 20
6.5911794546
 30
0.0
 10
11.9475729157
 20
6.5523730182
 30
0.0
 10
11.9330009969
 20
6.5119538062
 30
0.0
 10
11.9224909417
 20
6.470311175
 30
0.0
 10
11.9161440905
 20
6.4278462979
 30
0.0
 10
11.9140216499
 20
6.3849683
 30
0.0
 10
11.9161440905
 20
6.3420903022
 30
0.0
 10
11.9224909417
 20
6.299625425
 30
0.0
 10
11.9330009969
 20
6.2579827939
 30
0.0
 10
11.9475729157
 20
6.2175635818
 30
0.0
 10
11.9660661918
 20
6.1787571455
 30
0.0
 10
11.9883025923
 20
6.1419372266
 30
0.0
 10
12.0140676206
 20
6.1074585035
 30
0.0
 10
12.0431136028
 20
6.0756526044
 30
0.0
 10
12.075158332
 20
6.0468270582
 30
0.0
 10
12.1041080494
 20
6.02551882
 30
0.0
 10
12.1284358906
 20
6.0102286887
 30
0.0
 10
12.1472342742
 20
5.9996591119
 30
0.0
 10
12.166532468
 20
5.9900178315
 30
0.0
 10
12.1928650731
 20
5.9784324056
 30
0.0
 10
12.2268070961
 20
5.9663782138
 30
0.0
 10
12.2617684279
 20
5.957687616
 30
0.0
 10
12.2901431607
 20
5.9528012349
 30
0.0
 10
12.318725803
 20
5.9493016658
 30
0.0
 10
12.3403361475
 20
5.9482479933
 30
0.0
 10
12.3547290961
 20
5.9482479933
 30
0.0
  0
SPLINE
  5
253
100
AcDbEntity
  8
0
100
AcDbSpline
 62
9
  6
CONTINUOUS
 70
0
 71
3
 72
30
 73
26
 74
0
 42
0.0000001
 43
0.0000001
 44
0.0000000001
 40
0.0
 40
0.0
 40
0.0
 40
0.0
 40
0.0627245923
 40
0.0940934263
 40
0.1254579112
 40
0.1881559414
 40
0.2508282826
 40
0.2821621184
 40
0.3134870913
 40
0.3448025376
 40
0.3761078854
 40
0.4386676752
 40
0.5011825515
 40
0.5636516027
 40
0.6260756764
 40
0.6572810416
 40
0.6884762725
 40
0.7196619443
 40
0.7508387205
 40
0.8131497204
 40
0.8754351791
 40
0.9065803017
 40
0.9377220716
 40
0.9688616021
 40
1.0
 40
1.0
 40
1.0
 40
1.0
 10
12.3547290961
 20
5.7781459498
 30
0.0
 10
12.3390276197
 20
5.7781459498
 30
0.0
 10
12.3154526594
 20
5.7792954196
 30
0.0
 10
12.2842715356
 20
5.7831131401
 30
0.0
 10
12.2533173115
 20
5.7884437821
 30
0.0
 10
12.2151776564
 20
5.797924415
 30
0.0
 10
12.1781500384
 20
5.8110745276
 30
0.0
 10
12.1494235079
 20
5.8237130454
 30
0.0
 10
12.1283709957
 20
5.8342309222
 30
0.0
 10
12.1078636325
 20
5.845761284
 30
0.0
 10
12.0813242131
 20
5.8624415083
 30
0.0
 10
12.0497427484
 20
5.8856867096
 30
0.0
 10
12.0147846051
 20
5.9171331808
 30
0.0
 10
11.9830990519
 20
5.9518289304
 30
0.0
 10
11.9596678416
 20
5.9831853806
 30
0.0
 10
11.9428563098
 20
6.0095363404
 30
0.0
 10
11.9312384561
 20
6.0298908349
 30
0.0
 10
11.920641417
 20
6.0507869072
 30
0.0
 10
11.9079101676
 20
6.0792924081
 30
0.0
 10
11.8946616341
 20
6.1160383474
 30
0.0
 10
11.8851057358
 20
6.1539047691
 30
0.0
 10
11.8797339097
 20
6.1846327813
 30
0.0
 10
11.8768487398
 20
6.2078511659
 30
0.0
 10
11.8751146595
 20
6.2311809643
 30
0.0
 10
11.8747291774
 20
6.2467734115
 30
0.0
 10
11.8747291774
 20
6.2545681026
 30
0.0
  0
SPLINE
  5
254
100
AcDbEntity
  8
0
100
AcDbSpline
 62
9
  6
CONTINUOUS
 70
0
 71
3
 72
30
 73
26
 74
0
 42
0.0000001
 43
0.0000001
 44
0.0000000001
 40
0.0
 40
0.0
 40
0.0
 40
0.0
 40
0.0627245923
 40
0.0940934263
 40
0.1254579112
 40
0.1881559414
 40
0.2508282826
 40
0.2821621184
 40
0.3134870913
 40
0.3448025376
 40
0.3761078854
 40
0.4386676752
 40
0.5011825515
 40
0.5636516027
 40
0.6260756764
 40
0.6572810416
 40
0.6884762725
 40
0.7196619443
 40
0.7508387205
 40
0.8131497204
 40
0.8754351791
 40
0.9065803017
 40
0.9377220716
 40
0.9688616021
 40
1.0
 40
1.0
 40
1.0
 40
1.0
 10
12.3547290961
 20
5.9036713735
 30
0.0
 10
12.3704305725
 20
5.9036713735
 30
0.0
 10
12.3940055328
 20
5.9048208433
 30
0.0
 10
12.4251866566
 20
5.9086385638
 30
0.0
 10
12.4561408806
 20
5.9139692058
 30
0.0
 10
12.4942805358
 20
5.9234498387
 30
0.0
 10
12.5313081538
 20
5.9365999513
 30
0.0
 10
12.5600346843
 20
5.9492384692
 30
0.0
 10
12.5810871965
 20
5.9597563459
 30
0.0
 10
12.6015945596
 20
5.9712867077
 30
0.0
 10
12.6281339791
 20
5.987966932
 30
0.0
 10
12.6597154438
 20
6.0112121333
 30
0.0
 10
12.6946735871
 20
6.0426586045
 30
0.0
 10
12.7263591403
 20
6.0773543541
 30
0.0
 10
12.7497903505
 20
6.1087108043
 30
0.0
 10
12.7666018823
 20
6.1350617641
 30
0.0
 10
12.7782197361
 20
6.1554162586
 30
0.0
 10
12.7888167752
 20
6.1763123309
 30
0.0
 10
12.8015480246
 20
6.2048178318
 30
0.0
 10
12.8147965581
 20
6.2415637711
 30
0.0
 10
12.8243524564
 20
6.2794301928
 30
0.0
 10
12.8297242825
 20
6.310158205
 30
0.0
 10
12.8326094524
 20
6.3333765896
 30
0.0
 10
12.8343435327
 20
6.356706388
 30
0.0
 10
12.8347290148
 20
6.3722988352
 30
0.0
 10
12.8347290148
 20
6.3800935263
 30
0.0
  0
SPLINE
  5
255
100
AcDbEntity
  8
0
100
AcDbSpline
 62
9
  6
CONTINUOUS
 70
0
 71
3
 72
30
 73
26
 74
0
 42
0.0000001
 43
0.0000001
 44
0.0000000001
 40
0.0
 40
0.0
 40
0.0
 40
0.0
 40
0.1908610354
 40
0.2840238416
 40
0.3744988773
 40
0.4614255972
 40
0.5439867424
 40
0.6214086616
 40
0.6929722713
 40
0.7580220611
 40
0.8159762274
 40
0.8421348268
 40
0.8663428933
 40
0.8885540382
 40
0.908733548
 40
0.9268556917
 40
0.9429087554
 40
0.9569020176
 40
0.9688710174
 40
0.9789021805
 40
0.9871648594
 40
0.9907342089
 40
0.994004765
 40
0.9970594434
 40
1.0
 40
1.0
 40
1.0
 40
1.0
 10
12.3547290961
 20
8.299403944
 30
0.0
 10
12.3638340798
 20
8.299403944
 30
0.0
 10
12.3773841996
 20
8.2992446629
 30
0.0
 10
12.3952416913
 20
8.2987024333
 30
0.0
 10
12.4081372023
 20
8.2981430829
 30
0.0
 10
12.4205187858
 20
8.2974335146
 30
0.0
 10
12.4322671669
 20
8.2965808007
 30
0.0
 10
12.443269439
 20
8.2955935113
 30
0.0
 10
12.4534200457
 20
8.2944818021
 30
0.0
 10
12.4626215835
 20
8.2932569068
 30
0.0
 10
12.4696470342
 20
8.2921176581
 30
0.0
 10
12.4747224069
 20
8.2911449338
 30
0.0
 10
12.4781082758
 20
8.2904199098
 30
0.0
 10
12.4811974572
 20
8.2896760541
 30
0.0
 10
12.4839827341
 20
8.2889153707
 30
0.0
 10
12.4864577828
 20
8.2881398595
 30
0.0
 10
12.4886172822
 20
8.2873514236
 30
0.0
 10
12.4904570467
 20
8.2865523926
 30
0.0
 10
12.491974834
 20
8.2857437885
 30
0.0
 10
12.4931692598
 20
8.2849270747
 30
0.0
 10
12.4939316533
 20
8.2842033305
 30
0.0
 10
12.4943525907
 20
8.2836159902
 30
0.0
 10
12.49456872
 20
8.2831940179
 30
0.0
 10
12.4946996225
 20
8.2827692865
 30
0.0
 10
12.4947290961
 20
8.2824825145
 30
0.0
 10
12.4947290961
 20
8.2823422359
 30
0.0
  0
SPLINE
  5
256
100
AcDbEntity
  8
0
100
AcDbSpline
 62
7
  6
CONTINUOUS
 70
0
 71
3
 72
66
 73
62
 74
0
 42
0.0000001
 43
0.0000001
 44
0.0000000001
 40
0.0
 40
0.0
 40
0.0
 40
0.0
 40
0.0342732096
 40
0.0513395436
 40
0.0683175647
 40
0.1018981292
 40
0.1184460538
 40
0.1347953079
 40
0.1509202587
 40
0.1667966942
 40
0.1824020849
 40
0.1977169761
 40
0.2127255135
 40
0.2274162234
 40
0.2417834361
 40
0.2558291366
 40
0.2627350435
 40
0.2695654241
 40
0.2830107029
 40
0.2961960705
 40
0.3091598677
 40
0.3155751234
 40
0.3219547078
 40
0.3346354089
 40
0.3472685651
 40
0.3599240903
 40
0.3662841242
 40
0.3726758229
 40
0.3855784997
 40
0.3986814299
 40
0.4120249609
 40
0.4256389485
 40
0.4395389469
 40
0.4537308461
 40
0.4682151634
 40
0.4829859136
 40
0.4980319414
 40
0.5133374819
 40
0.5288855762
 40
0.5446573523
 40
0.5606329507
 40
0.5767929424
 40
0.5931167429
 40
0.6095862267
 40
0.6261845484
 40
0.6597014077
 40
0.6765922257
 40
0.6935530166
 40
0.7105718362
 40
0.7276376359
 40
0.744739295
 40
0.7618668167
 40
0.796163672
 40
0.8304597556
 40
0.8475882262
 40
0.864693848
 40
0.8988104267
 40
0.9327607635
 40
0.9496606523
 40
0.9665038673
 40
1.0
 40
1.0
 40
1.0
 40
1.0
 10
12.3547290961
 20
5.0673407966
 30
0.0
 10
12.3342842205
 20
5.0673689537
 30
0.0
 10
12.303656776
 20
5.0678776574
 30
0.0
 10
12.262934244
 20
5.0694944437
 30
0.0
 10
12.2226561936
 20
5.0717547295
 30
0.0
 10
12.1827501655
 20
5.0750564834
 30
0.0
 10
12.1433451195
 20
5.0795303664
 30
0.0
 10
12.114365036
 20
5.08346246
 30
0.0
 10
12.0858813523
 20
5.0880159645
 30
0.0
 10
12.0579603907
 20
5.0932223107
 30
0.0
 10
12.0306715282
 20
5.0991238818
 30
0.0
 10
12.0040847162
 20
5.1057614442
 30
0.0
 10
11.9782699127
 20
5.1131746718
 30
0.0
 10
11.9532973199
 20
5.1214063664
 30
0.0
 10
11.9292443586
 20
5.1305190927
 30
0.0
 10
11.9099226444
 20
5.1389452127
 30
0.0
 10
11.895016088
 20
5.1461920903
 30
0.0
 10
11.8806430278
 20
5.1537012877
 30
0.0
 10
11.8633725483
 20
5.1637361562
 30
0.0
 10
11.843729179
 20
5.1768796195
 30
0.0
 10
11.8283319427
 20
5.1887516972
 30
0.0
 10
11.816685281
 20
5.1987794251
 30
0.0
 10
11.8055400524
 20
5.2091146385
 30
0.0
 10
11.7924061531
 20
5.2227413279
 30
0.0
 10
11.7779729114
 20
5.2402248617
 30
0.0
 10
11.7671091399
 20
5.2556907693
 30
0.0
 10
11.7591323064
 20
5.2685816219
 30
0.0
 10
11.7515783364
 20
5.2818945865
 30
0.0
 10
11.7429789543
 20
5.2992219309
 30
0.0
 10
11.7340109588
 20
5.3209321294
 30
0.0
 10
11.726310246
 20
5.3435704777
 30
0.0
 10
11.7198233795
 20
5.3670769444
 30
0.0
 10
11.7144694365
 20
5.3913831075
 30
0.0
 10
11.7101716551
 20
5.4164230706
 30
0.0
 10
11.7068553897
 20
5.4421340205
 30
0.0
 10
11.7044455317
 20
5.468456041
 30
0.0
 10
11.7028667817
 20
5.4953305594
 30
0.0
 10
11.7020429201
 20
5.5227018199
 30
0.0
 10
11.7019061443
 20
5.5505173697
 30
0.0
 10
11.7023894419
 20
5.5787282399
 30
0.0
 10
11.7034293896
 20
5.607288901
 30
0.0
 10
11.7049704647
 20
5.6361563243
 30
0.0
 10
11.7069542308
 20
5.6652917217
 30
0.0
 10
11.7093347135
 20
5.6946595715
 30
0.0
 10
11.7129953244
 20
5.7342107287
 30
0.0
 10
11.7172695316
 20
5.7739549898
 30
0.0
 10
11.7220422517
 20
5.8138578815
 30
0.0
 10
11.7258596416
 20
5.8439626674
 30
0.0
 10
11.7298858026
 20
5.8741454756
 30
0.0
 10
11.7341048552
 20
5.9043867529
 30
0.0
 10
11.7384987996
 20
5.9346686176
 30
0.0
 10
11.7445793897
 20
5.9750916289
 30
0.0
 10
11.7525730796
 20
6.0255984396
 30
0.0
 10
11.7610695388
 20
6.0760237272
 30
0.0
 10
11.7681834182
 20
6.1162802847
 30
0.0
 10
11.7754997372
 20
6.1563916968
 30
0.0
 10
11.7850616012
 20
6.2062929402
 30
0.0
 10
11.7952780636
 20
6.2559397186
 30
0.0
 10
11.8039067709
 20
6.2953885534
 30
0.0
 10
11.8128290728
 20
6.3344939199
 30
0.0
 10
11.8199423526
 20
6.363671216
 30
0.0
 10
11.8249043755
 20
6.3830266437
 30
0.0
  0
SPLINE
  5
257
100
AcDbEntity
  8
0
100
AcDbSpline
 62
7
  6
CONTINUOUS
 70
0
 71
3
 72
67
 73
63
 74
0
 42
0.0000001
 43
0.0000001
 44
0.0000000001
 40
0.0
 40
0.0
 40
0.0
 40
0.0
 40
0.0334962386
 40
0.0503392225
 40
0.0672389583
 40
0.1011892028
 40
0.1353056352
 40
0.1524111616
 40
0.1695395319
 40
0.2038353899
 40
0.2381320327
 40
0.2552594605
 40
0.2723610693
 40
0.2894266806
 40
0.3064453168
 40
0.3234060641
 40
0.3402967023
 40
0.3571037156
 40
0.3738137917
 40
0.3904119813
 40
0.4068813482
 40
0.4232054149
 40
0.4393654717
 40
0.4553411164
 40
0.4711130778
 40
0.4866612557
 40
0.5019670567
 40
0.5170132013
 40
0.5317839049
 40
0.5462681129
 40
0.5604600826
 40
0.5743602957
 40
0.5879741554
 40
0.6013174273
 40
0.614420361
 40
0.627323039
 40
0.6337146329
 40
0.6400745301
 40
0.6527302091
 40
0.6653636657
 40
0.6780444434
 40
0.6844240315
 40
0.690839305
 40
0.7038031963
 40
0.7169886718
 40
0.7304339173
 40
0.744168804
 40
0.7582145235
 40
0.772581756
 40
0.7872725113
 40
0.8022810767
 40
0.817595989
 40
0.8332014041
 40
0.8490778627
 40
0.8652028376
 40
0.8815521422
 40
0.8981001209
 40
0.9148195973
 40
0.9316822705
 40
0.9486603399
 40
0.9657267425
 40
1.0
 40
1.0
 40
1.0
 40
1.0
 10
12.8845538167
 20
6.3830266437
 30
0.0
 10
12.8895147449
 20
6.3636708745
 30
0.0
 10
12.8966281791
 20
6.3344937212
 30
0.0
 10
12.905551315
 20
6.2953887197
 30
0.0
 10
12.9141801484
 20
6.255940211
 30
0.0
 10
12.9243962472
 20
6.2062936056
 30
0.0
 10
12.9339580032
 20
6.1563925573
 30
0.0
 10
12.941274425
 20
6.1162813804
 30
0.0
 10
12.9483885311
 20
6.0760251265
 30
0.0
 10
12.9568848064
 20
6.0256001439
 30
0.0
 10
12.9648784446
 20
5.9750936566
 30
0.0
 10
12.9709588422
 20
5.9346708415
 30
0.0
 10
12.9753534138
 20
5.904389274
 30
0.0
 10
12.9795721258
 20
5.8741482108
 30
0.0
 10
12.9835978563
 20
5.8439655932
 30
0.0
 10
12.9874155677
 20
5.8138611366
 30
0.0
 10
12.9910042899
 20
5.7838556012
 30
0.0
 10
12.9943363414
 20
5.7539708655
 30
0.0
 10
12.9973864603
 20
5.7242313269
 30
0.0
 10
13.0001226639
 20
5.6946634047
 30
0.0
 10
13.0025026387
 20
5.6652955341
 30
0.0
 10
13.0044874174
 20
5.6361600802
 30
0.0
 10
13.0060285347
 20
5.6072924355
 30
0.0
 10
13.0070684676
 20
5.5787316071
 30
0.0
 10
13.0075523707
 20
5.5505205631
 30
0.0
 10
13.0074154744
 20
5.5227047043
 30
0.0
 10
13.0065922569
 20
5.4953331589
 30
0.0
 10
13.0050137657
 20
5.4684584269
 30
0.0
 10
13.0026037171
 20
5.4421364493
 30
0.0
 10
12.9992871232
 20
5.4164255981
 30
0.0
 10
12.9949893304
 20
5.3913855502
 30
0.0
 10
12.989636205
 20
5.367079115
 30
0.0
 10
12.983149037
 20
5.3435728123
 30
0.0
 10
12.9754472758
 20
5.320935076
 30
0.0
 10
12.9664793485
 20
5.2992250434
 30
0.0
 10
12.9578801411
 20
5.2818976748
 30
0.0
 10
12.950325916
 20
5.2685850072
 30
0.0
 10
12.9423478646
 20
5.2556949788
 30
0.0
 10
12.9314848016
 20
5.2402284358
 30
0.0
 10
12.9170527283
 20
5.2227435053
 30
0.0
 10
12.903919055
 20
5.2091162434
 30
0.0
 10
12.8927736225
 20
5.1987811681
 30
0.0
 10
12.8811268207
 20
5.1887534971
 30
0.0
 10
12.8657301177
 20
5.1768806756
 30
0.0
 10
12.8460873574
 20
5.1637356075
 30
0.0
 10
12.825254149
 20
5.1516304257
 30
0.0
 10
12.8032716373
 20
5.1405748776
 30
0.0
 10
12.7802149009
 20
5.1305206094
 30
0.0
 10
12.7561613997
 20
5.1214082105
 30
0.0
 10
12.7311887349
 20
5.1131769027
 30
0.0
 10
12.7053739626
 20
5.1057633031
 30
0.0
 10
12.6787871766
 20
5.0991255062
 30
0.0
 10
12.6514983804
 20
5.0932234593
 30
0.0
 10
12.6235774862
 20
5.0880165817
 30
0.0
 10
12.5950937622
 20
5.0834628176
 30
0.0
 10
12.5661136585
 20
5.0795310146
 30
0.0
 10
12.5367026875
 20
5.0761920527
 30
0.0
 10
12.5069254438
 20
5.0734211218
 30
0.0
 10
12.4768453223
 20
5.0711974716
 30
0.0
 10
12.4465239687
 20
5.0694959845
 30
0.0
 10
12.4058015646
 20
5.0678786608
 30
0.0
 10
12.3751739954
 20
5.0673693352
 30
0.0
 10
12.3547290961
 20
5.0673407966
 30
0.0
  0
SPLINE
  5
258
100
AcDbEntity
  8
0
100
AcDbSpline
 62
9
  6
CONTINUOUS
 70
0
 71
3
 72
28
 73
24
 74
0
 42
0.0000001
 43
0.0000001
 44
0.0000000001
 40
0.0
 40
0.0
 40
0.0
 40
0.0
 40
0.0644572833
 40
0.1285422701
 40
0.1604151116
 40
0.1921643802
 40
0.2552898713
 40
0.2866727004
 40
0.3179386597
 40
0.3801222103
 40
0.4418790524
 40
0.5032701536
 40
0.5643972711
 40
0.6253988626
 40
0.6864581901
 40
0.7477903473
 40
0.8096173752
 40
0.8407916411
 40
0.8721678226
 40
0.9037649553
 40
0.9355995309
 40
0.9676776681
 40
1.0
 40
1.0
 40
1.0
 40
1.0
 10
11.8249043755
 20
6.3830266437
 30
0.0
 10
11.8286828099
 20
6.3975438004
 30
0.0
 10
11.8364583819
 20
6.4264326108
 30
0.0
 10
11.8469486825
 20
6.4622653463
 30
0.0
 10
11.8558849366
 20
6.4906117931
 30
0.0
 10
11.8651750111
 20
6.518608799
 30
0.0
 10
11.8750961704
 20
6.5462736935
 30
0.0
 10
11.8857235461
 20
6.5735487449
 30
0.0
 10
11.8967901246
 20
6.6004115883
 30
0.0
 10
11.9115864131
 20
6.6333761959
 30
0.0
 10
11.9311097685
 20
6.671856431
 30
0.0
 10
11.9525803321
 20
6.7090079766
 30
0.0
 10
11.976207785
 20
6.7446234192
 30
0.0
 10
12.0022019328
 20
6.778461897
 30
0.0
 10
12.0307443996
 20
6.8102554919
 30
0.0
 10
12.0619757077
 20
6.8397018089
 30
0.0
 10
12.0902637627
 20
6.8619270986
 30
0.0
 10
12.1142624409
 20
6.8781284922
 30
0.0
 10
12.133013983
 20
6.8894802436
 30
0.0
 10
12.1524454249
 20
6.8999517804
 30
0.0
 10
12.1725302544
 20
6.9094960357
 30
0.0
 10
12.1932283148
 20
6.9180747001
 30
0.0
 10
12.207354886
 20
6.9231043934
 30
0.0
 10
12.2145030626
 20
6.9254468765
 30
0.0
  0
SPLINE
  5
259
100
AcDbEntity
  8
0
100
AcDbSpline
 62
9
  6
CONTINUOUS
 70
0
 71
3
 72
28
 73
24
 74
0
 42
0.0000001
 43
0.0000001
 44
0.0000000001
 40
0.0
 40
0.0
 40
0.0
 40
0.0
 40
0.0323224143
 40
0.064400647
 40
0.0962352851
 40
0.1278325106
 40
0.1592087542
 40
0.1903831475
 40
0.2522104058
 40
0.3135426336
 40
0.374601934
 40
0.4356037682
 40
0.4967312719
 40
0.558122057
 40
0.6198783438
 40
0.6820617759
 40
0.7133277366
 40
0.7447105161
 40
0.8078356786
 40
0.8395848959
 40
0.8714579333
 40
0.9355436158
 40
1.0
 40
1.0
 40
1.0
 40
1.0
 10
12.4949545357
 20
6.9254470078
 30
0.0
 10
12.5021027384
 20
6.9231045287
 30
0.0
 10
12.5162293552
 20
6.9180748136
 30
0.0
 10
12.5369274897
 20
6.9094961492
 30
0.0
 10
12.5570124039
 20
6.899951908
 30
0.0
 10
12.5764439308
 20
6.8894803909
 30
0.0
 10
12.5951954969
 20
6.8781285294
 30
0.0
 10
12.6191943098
 20
6.861927127
 30
0.0
 10
12.6474822038
 20
6.8397014263
 30
0.0
 10
12.6787136066
 20
6.8102551213
 30
0.0
 10
12.7072566263
 20
6.778461895
 30
0.0
 10
12.7332506354
 20
6.74462305
 30
0.0
 10
12.7568769531
 20
6.7090067619
 30
0.0
 10
12.7783482662
 20
6.6718557894
 30
0.0
 10
12.7978721915
 20
6.6333760495
 30
0.0
 10
12.8126681954
 20
6.6004114558
 30
0.0
 10
12.8237345905
 20
6.5735485618
 30
0.0
 10
12.834361925
 20
6.5462735726
 30
0.0
 10
12.8442834297
 20
6.5186088908
 30
0.0
 10
12.8535734902
 20
6.4906119043
 30
0.0
 10
12.8625092544
 20
6.4622650766
 30
0.0
 10
12.8729981966
 20
6.4264319244
 30
0.0
 10
12.8807742626
 20
6.3975433017
 30
0.0
 10
12.8845538167
 20
6.3830266437
 30
0.0
  0
SPLINE
  5
25A
100
AcDbEntity
  8
0
100
AcDbSpline
 62
9
  6
CONTINUOUS
 70
0
 71
3
 72
23
 73
19
 74
0
 42
0.0000001
 43
0.0000001
 44
0.0000000001
 40
0.0
 40
0.0
 40
0.0
 40
0.0
 40
0.0623605267
 40
0.1247281241
 40
0.1871060619
 40
0.249497483
 40
0.3119052773
 40
0.3743321154
 40
0.4367804213
 40
0.4992522495
 40
0.5617493225
 40
0.6242730325
 40
0.6868243299
 40
0.7494037664
 40
0.8120115272
 40
0.8746473362
 40
0.9373105076
 40
1.0
 40
1.0
 40
1.0
 40
1.0
 10
12.8337016021
 20
6.2234125931
 30
0.0
 10
12.83306865
 20
6.2138272098
 30
0.0
 10
12.8312180801
 20
6.1946887943
 30
0.0
 10
12.8266988568
 20
6.1662055635
 30
0.0
 10
12.8204530086
 20
6.1380445226
 30
0.0
 10
12.812503239
 20
6.1103101342
 30
0.0
 10
12.8028784273
 20
6.0831035858
 30
0.0
 10
12.791614173
 20
6.0565243967
 30
0.0
 10
12.7787515708
 20
6.0306698134
 30
0.0
 10
12.7643374589
 20
6.0056345781
 30
0.0
 10
12.7484249338
 20
5.9815100923
 30
0.0
 10
12.7310721384
 20
5.9583846367
 30
0.0
 10
12.71234234
 20
5.9363430188
 30
0.0
 10
12.6923043548
 20
5.9154656154
 30
0.0
 10
12.6710315391
 20
5.8958288541
 30
0.0
 10
12.6486011904
 20
5.8775046394
 30
0.0
 10
12.6250968063
 20
5.8605604307
 30
0.0
 10
12.6087688642
 20
5.85022592
 30
0.0
 10
12.6004571201
 20
5.8453094908
 30
0.0
  0
LINE
  5
25B
100
AcDbEntity
  8
0
100
AcDbLine
 62
9
  6
CONTINUOUS
 10
8.7889151105
 20
11.7972383294
 11
8.0725473533
 21
12.0194311138
  0
SPLINE
  5
25C
100
AcDbEntity
  8
0
100
AcDbSpline
 62
9
  6
CONTINUOUS
 70
0
 71
3
 72
31
 73
27
 74
0
 42
0.0000001
 43
0.0000001
 44
0.0000000001
 40
0.0
 40
0.0
 40
0.0
 40
0.0
 40
0.062216381
 40
0.1244382466
 40
0.186677827
 40
0.2489464131
 40
0.3112552862
 40
0.3424372647
 40
0.3736331629
 40
0.4048434967
 40
0.4360685705
 40
0.467309305
 40
0.4985662924
 40
0.5298388794
 40
0.5611264855
 40
0.5924284189
 40
0.623743453
 40
0.6550698178
 40
0.686406655
 40
0.7177528066
 40
0.7491060774
 40
0.7804650124
 40
0.8118287208
 40
0.8745455896
 40
0.937272379
 40
1.0
 40
1.0
 40
1.0
 40
1.0
 10
12.8353304291
 20
6.2545793955
 30
0.0
 10
12.8356691593
 20
6.2387881267
 30
0.0
 10
12.8347592307
 20
6.2071475645
 30
0.0
 10
12.8286652729
 20
6.1600729704
 30
0.0
 10
12.8178715133
 20
6.1138290012
 30
0.0
 10
12.8024902889
 20
6.0688838257
 30
0.0
 10
12.785992857
 20
6.0328675933
 30
0.0
 10
12.7706764472
 20
6.005153081
 30
0.0
 10
12.7581522348
 20
5.9849506314
 30
0.0
 10
12.7446327824
 20
5.9653877377
 30
0.0
 10
12.7301513743
 20
5.9465112499
 30
0.0
 10
12.7147402164
 20
5.9283703077
 30
0.0
 10
12.6984353637
 20
5.9110116268
 30
0.0
 10
12.68127779
 20
5.8944781254
 30
0.0
 10
12.6633091539
 20
5.8788125641
 30
0.0
 10
12.6445765138
 20
5.8640517569
 30
0.0
 10
12.6251261292
 20
5.8502334052
 30
0.0
 10
12.6050036855
 20
5.8373966564
 30
0.0
 10
12.5842552301
 20
5.8255824891
 30
0.0
 10
12.562936559
 20
5.8148163596
 30
0.0
 10
12.541103703
 20
5.8051220696
 30
0.0
 10
12.5188116147
 20
5.7965221512
 30
0.0
 10
12.4885572806
 20
5.7865480183
 30
0.0
 10
12.4498585117
 20
5.7769116324
 30
0.0
 10
12.4025246295
 20
5.7699626598
 30
0.0
 10
12.3706537862
 20
5.7684073293
 30
0.0
 10
12.3547290961
 20
5.7684067565
 30
0.0
  0
SPLINE
  5
25D
100
AcDbEntity
  8
0
100
AcDbSpline
 62
9
  6
CONTINUOUS
 70
0
 71
3
 72
30
 73
26
 74
0
 42
0.0000001
 43
0.0000001
 44
0.0000000001
 40
0.0
 40
0.0
 40
0.0
 40
0.0
 40
0.0311383979
 40
0.0622779284
 40
0.0934196983
 40
0.1245648209
 40
0.1868502796
 40
0.2491612795
 40
0.2803380557
 40
0.3115237275
 40
0.3427189584
 40
0.3739243236
 40
0.4363483973
 40
0.4988174485
 40
0.5613323248
 40
0.6238921146
 40
0.6551974624
 40
0.6865129087
 40
0.7178378816
 40
0.7491717174
 40
0.8118440586
 40
0.8745420888
 40
0.9059065737
 40
0.9372754077
 40
1.0
 40
1.0
 40
1.0
 40
1.0
 10
11.8747291774
 20
6.3800935263
 30
0.0
 10
11.8747291774
 20
6.3722988352
 30
0.0
 10
11.8751146595
 20
6.356706388
 30
0.0
 10
11.8768487398
 20
6.3333765896
 30
0.0
 10
11.8797339097
 20
6.310158205
 30
0.0
 10
11.8851057358
 20
6.2794301928
 30
0.0
 10
11.8946616341
 20
6.2415637711
 30
0.0
 10
11.9079101676
 20
6.2048178318
 30
0.0
 10
11.920641417
 20
6.1763123309
 30
0.0
 10
11.9312384561
 20
6.1554162586
 30
0.0
 10
11.9428563098
 20
6.1350617641
 30
0.0
 10
11.9596678416
 20
6.1087108043
 30
0.0
 10
11.9830990519
 20
6.0773543541
 30
0.0
 10
12.0147846051
 20
6.0426586045
 30
0.0
 10
12.0497427484
 20
6.0112121333
 30
0.0
 10
12.0813242131
 20
5.987966932
 30
0.0
 10
12.1078636325
 20
5.9712867077
 30
0.0
 10
12.1283709957
 20
5.9597563459
 30
0.0
 10
12.1494235079
 20
5.9492384692
 30
0.0
 10
12.1781500384
 20
5.9365999513
 30
0.0
 10
12.2151776564
 20
5.9234498387
 30
0.0
 10
12.2533173115
 20
5.9139692058
 30
0.0
 10
12.2842715356
 20
5.9086385638
 30
0.0
 10
12.3154526594
 20
5.9048208433
 30
0.0
 10
12.3390276197
 20
5.9036713735
 30
0.0
 10
12.3547290961
 20
5.9036713735
 30
0.0
  0
SPLINE
  5
25E
100
AcDbEntity
  8
0
100
AcDbSpline
 62
9
  6
CONTINUOUS
 70
0
 71
3
 72
26
 73
22
 74
0
 42
0.0000001
 43
0.0000001
 44
0.0000000001
 40
0.0
 40
0.0
 40
0.0
 40
0.0
 40
0.0988045373
 40
0.1915737363
 40
0.2782018642
 40
0.3586210147
 40
0.4328157979
 40
0.5008388007
 40
0.562792972
 40
0.6189247522
 40
0.6697487365
 40
0.7161672163
 40
0.7381741892
 40
0.7596588617
 40
0.7808847171
 40
0.8021239602
 40
0.8236431472
 40
0.8456936962
 40
0.8922298658
 40
0.9433027562
 40
1.0
 40
1.0
 40
1.0
 40
1.0
 10
12.8845538167
 20
6.3830266437
 30
0.0
 10
12.8835454189
 20
6.3808257733
 30
0.0
 10
12.8815353688
 20
6.376583213
 30
0.0
 10
12.8784274748
 20
6.3705151312
 30
0.0
 10
12.8753202113
 20
6.364957101
 30
0.0
 10
12.8722134802
 20
6.3599259259
 30
0.0
 10
12.8691067693
 20
6.3554383972
 30
0.0
 10
12.8660007751
 20
6.3515115477
 30
0.0
 10
12.8628930472
 20
6.3481664369
 30
0.0
 10
12.8597781841
 20
6.3454277224
 30
0.0
 10
12.8566504589
 20
6.3433223483
 30
0.0
 10
12.8539753643
 20
6.3421019847
 30
0.0
 10
12.8518508067
 20
6.3415052658
 30
0.0
 10
12.850283188
 20
6.3412451177
 30
0.0
 10
12.8487149814
 20
6.3411648336
 30
0.0
 10
12.847147007
 20
6.3412631394
 30
0.0
 10
12.8455799127
 20
6.3415387611
 30
0.0
 10
12.8434549767
 20
6.3421509718
 30
0.0
 10
12.8407767517
 20
6.3433887986
 30
0.0
 10
12.8376447625
 20
6.345529335
 30
0.0
 10
12.8356766198
 20
6.34730068
 30
0.0
 10
12.8346917949
 20
6.3482804509
 30
0.0
  0
ENDSEC
  0
SECTION
  2
OBJECTS
  0
DICTIONARY
  5
C
100
AcDbDictionary
280
0
281
1
  3
ACAD_GROUP
350
D
  3
ACAD_MLINESTYLE
350
17
  3
ACAD_LAYOUT
350
1A
  3
ACAD_PLOTSETTINGS
350
19
  3
ACAD_PLOTSTYLENAME
350
E
  0
DICTIONARY
  5
D
102
{ACAD_REACTORS
330
C
102
}
100
AcDbDictionary
280
0
281
1
  0
ACDBDICTIONARYWDFLT
  5
E
102
{ACAD_REACTORS
330
C
102
}
100
AcDbDictionary
281
1
  3
Normal
350
F
100
AcDbDictionaryWithDefault
340
F
  0
DICTIONARY
  5
17
102
{ACAD_REACTORS
330
C
102
}
100
AcDbDictionary
280
0
281
1
  3
Standard
350
18
  0
DICTIONARY
  5
19
102
{ACAD_REACTORS
330
C
102
}
100
AcDbDictionary
281
1
  0
DICTIONARY
  5
1A
102
{ACAD_REACTORS
330
C
102
}
100
AcDbDictionary
281
1
  3
Model
350
25F
  3
Layout1
350
260
  0
ACDBPLACEHOLDER
  5
F
102
{ACAD_REACTORS
330
E
102
}
  0
MLINESTYLE
  5
18
102
{ACAD_REACTORS
330
17
102
}
100
AcDbMlineStyle
  2
STANDARD
 70
0
  3

 62
256
 51
90.0
 52
90.0
 71
2
 49
0.5
 62
256
  6
BYLAYER
 49
-0.5
 62
256
  6
BYLAYER
  0
LAYOUT
  5
25F
102
{ACAD_REACTORS
330
1A
102
}
100
AcDbPlotSettings
  1

  2
none_device
  4
ANSI_C_(22.00_x_17.00_Inches)
  6

 40
0.0
 41
0.0
 42
0.0
 43
0.0
 44
558.8
 45
431.8
 46
0.0
 47
0.0
 48
0.0
 49
0.0
140
0.0
141
0.0
142
1.0
143
1.0
 70
1024
 72
0
 73
0
 74
0
  7

 75
0
147
1.0
148
0.0
149
0.0
100
AcDbLayout
  1
Model
 70
0
 71
0
 10
0.0
 20
0.0
 11
22.0
 21
17.0
 12
0.0
 22
0.0
 32
0.0
 14
0.0
 24
0.0
 34
0.0
 15
0.0
 25
0.0
 35
0.0
146
0.0
 13
0.0
 23
0.0
 33
0.0
 16
1.0
 26
0.0
 36
0.0
 17
0.0
 27
1.0
 37
0.0
 76
0
330
205
345
0
346
0
  0
LAYOUT
  5
260
102
{ACAD_REACTORS
330
1A
102
}
100
AcDbPlotSettings
  1

  2
none_device
  4
ANSI_C_(22.00_x_17.00_Inches)
  6

 40
0.0
 41
0.0
 42
0.0
 43
0.0
 44
558.8
 45
431.8
 46
0.0
 47
0.0
 48
0.0
 49
0.0
140
0.0
141
0.0
142
1.0
143
1.0
 70
0
 72
0
 73
0
 74
0
  7

 75
0
147
1.0
148
0.0
149
0.0
100
AcDbLayout
  1
Layout1
 70
0
 71
1
 10
0.0
 20
0.0
 11
22.0
 21
17.0
 12
0.0
 22
0.0
 32
0.0
 14
0.0
 24
0.0
 34
0.0
 15
0.0
 25
0.0
 35
0.0
146
0.0
 13
0.0
 23
0.0
 33
0.0
 16
1.0
 26
0.0
 36
0.0
 17
0.0
 27
1.0
 37
0.0
 76
0
330
206
345
0
346
0
  0
ENDSEC
  0
EOF
