999
DXF file: 2500-5711_top.dxf
999
Pro/ENGINEER 2018400 by Parametric Technology Corporation
  0
SECTION
  2
HEADER
  9
$ACADVER
  1
AC1027
  9
$DWGCODEPAGE
  3
ANSI_1252
  9
$EXTMAX
 10
11.0
 20
8.5
 30
0.0
  9
$EXTMIN
 10
0.0
 20
0.0
 30
0.0
  9
$LIMMIN
 10
0.0
 20
0.0
  9
$LIMMAX
 10
11.0
 20
8.5
  9
$VIEWCTR
 10
5.5
 20
4.25
  9
$VIEWSIZE
 40
8.5
  9
$CLAYER
  8
0
  9
$LTSCALE
 40
0.605
  9
$CELTYPE
  6
BYLAYER
  9
$DIMSCALE
 40
1.0
  9
$DIMASZ
 40
0.1
  9
$DIMEXO
 40
0.0625
  9
$DIMDLI
 40
0.418
  9
$DIMEXE
 40
0.125
  9
$DIMCEN
 40
0.099
  9
$DIMLFAC
 40
1.0
  9
$DIMBLK
  1
_FILLED
  9
$DIMALT
 70
1
  9
$DIMALTD
 70
1
  9
$DIMALTTD
 70
2
  9
$DIMALTF
 40
25.4
  9
$DIMTXT
 40
0.08
  9
$DIMTOL
 70
1
  9
$DIMLIM
 70
0
  9
$DIMTFAC
 40
1.0
  9
$DIMTP
 40
0.01
  9
$DIMTM
 40
0.01
  9
$DIMGAP
 40
0.09
  9
$DIMDSEP
 70
46
  9
$AUNITS
 70
0
  9
$PDMODE
 70
3
  9
$PDSIZE
 40
0.3125
  9
$HANDSEED
  5
424
  9
$TILEMODE
 70
1
  9
$MEASUREMENT
 70
0
  9
$INSUNITS
 70
1
  0
ENDSEC
  0
SECTION
  2
CLASSES
  0
CLASS
  1
ACDBDICTIONARYWDFLT
  2
AcDbDictionaryWithDefault
  3
AutoCAD 2000
 90
0
 91
1
280
0
281
0
  0
CLASS
  1
ACDBPLACEHOLDER
  2
AcDbPlaceHolder
  3
AutoCAD 2000
 90
0
 91
1
280
0
281
0
  0
CLASS
  1
LAYOUT
  2
AcDbLayout
  3
AutoCAD 2000
 90
0
 91
0
280
0
281
0
  0
ENDSEC
  0
SECTION
  2
TABLES
  0
TABLE
  2
VPORT
  5
8
100
AcDbSymbolTable
 70
2
  0
VPORT
  5
1F4
100
AcDbSymbolTableRecord
100
AcDbViewportTableRecord
  2
*ACTIVE
 70
0
 10
0.0
 20
0.0
 11
1.0
 21
1.0
 12
5.5
 22
4.25
 13
0.0
 23
0.0
 14
1.0
 24
1.0
 15
0.0
 25
0.0
 16
0.0
 26
0.0
 36
1.0
 17
0.0
 27
0.0
 37
0.0
 40
8.5
 41
1.2941176471
 42
50.0
 43
0.0
 44
0.0
 50
0.0
 51
0.0
 71
0
 72
100
 73
1
 74
1
 75
0
 76
0
 77
0
 78
0
  0
ENDTAB
  0
TABLE
  2
LTYPE
  5
5
100
AcDbSymbolTable
 70
6
  0
LTYPE
  5
14
100
AcDbSymbolTableRecord
100
AcDbLinetypeTableRecord
  2
BYBLOCK
 70
0
  3

 72
65
 73
0
 40
0.0
  0
LTYPE
  5
15
100
AcDbSymbolTableRecord
100
AcDbLinetypeTableRecord
  2
BYLAYER
 70
0
  3

 72
65
 73
0
 40
0.0
  0
LTYPE
  5
16
100
AcDbSymbolTableRecord
100
AcDbLinetypeTableRecord
  2
CONTINUOUS
 70
64
  3
Solid line
 72
65
 73
0
 40
0.0
  0
LTYPE
  5
1F5
100
AcDbSymbolTableRecord
100
AcDbLinetypeTableRecord
  2
CENTER
 70
64
  3
____ _ ____ _ ____ _ ____ _ ____ _ ____ _ ____
 72
65
 73
4
 40
0.6
 49
0.375
 74
0
 49
-0.075
 74
0
 49
0.075
 74
0
 49
-0.075
 74
0
  0
LTYPE
  5
1F6
100
AcDbSymbolTableRecord
100
AcDbLinetypeTableRecord
  2
HIDDEN
 70
64
  3
- - - - - - - - - - - - - - - - - - - -
 72
65
 73
2
 40
0.2
 49
0.1
 74
0
 49
-0.1
 74
0
  0
LTYPE
  5
1F7
100
AcDbSymbolTableRecord
100
AcDbLinetypeTableRecord
  2
PHANTOM
 70
64
  3
_____ _ _ _____ _ _ _____ _ _ _____
 72
65
 73
6
 40
0.8
 49
0.45
 74
0
 49
-0.05
 74
0
 49
0.1
 74
0
 49
-0.05
 74
0
 49
0.1
 74
0
 49
-0.05
 74
0
  0
LTYPE
  5
1F8
100
AcDbSymbolTableRecord
100
AcDbLinetypeTableRecord
  2
DOT
 70
64
  3
. . . . . . . . . . . . . . . . . . . .
 72
65
 73
2
 40
0.2
 49
0.1
 74
0
 49
-0.1
 74
0
  0
LTYPE
  5
1F9
100
AcDbSymbolTableRecord
100
AcDbLinetypeTableRecord
  2
DASHED
 70
64
  3
- - - - - - - - - - - - - - - - - - - -
 72
65
 73
2
 40
0.2
 49
0.1
 74
0
 49
-0.1
 74
0
  0
ENDTAB
  0
TABLE
  2
LAYER
  5
2
100
AcDbSymbolTable
 70
36
  0
LAYER
  5
10
100
AcDbSymbolTableRecord
100
AcDbLayerTableRecord
  2
0
 70
0
 62
7
  6
CONTINUOUS
370
-3
390
F
  0
LAYER
  5
1FA
100
AcDbSymbolTableRecord
100
AcDbLayerTableRecord
  2
DEFAULT_1
 70
0
 62
7
  6
CENTER
370
-3
390
F
  0
LAYER
  5
1FB
100
AcDbSymbolTableRecord
100
AcDbLayerTableRecord
  2
DEFAULT_2
 70
0
 62
8
  6
HIDDEN
370
-3
390
F
  0
LAYER
  5
1FC
100
AcDbSymbolTableRecord
100
AcDbLayerTableRecord
  2
DEFAULT_3
 70
0
 62
7
  6
PHANTOM
370
-3
390
F
  0
LAYER
  5
1FD
100
AcDbSymbolTableRecord
100
AcDbLayerTableRecord
  2
DEFAULT_COORDINATE_SYSTEM
 70
0
 62
7
  6
CONTINUOUS
370
-3
390
F
  0
LAYER
  5
1FE
100
AcDbSymbolTableRecord
100
AcDbLayerTableRecord
  2
DEFAULT_DATUM_AXES
 70
0
 62
7
  6
CONTINUOUS
370
-3
390
F
  0
LAYER
  5
1FF
100
AcDbSymbolTableRecord
100
AcDbLayerTableRecord
  2
DEFAULT_DATUM_PLANES
 70
0
 62
7
  6
CONTINUOUS
370
-3
390
F
  0
ENDTAB
  0
TABLE
  2
STYLE
  5
3
100
AcDbSymbolTable
 70
1
  0
STYLE
  5
11
100
AcDbSymbolTableRecord
100
AcDbTextStyleTableRecord
  2
STANDARD
 70
0
 40
0.0
 41
0.8
 50
0.0
 71
0
 42
0.2
  3
txt
  4

  0
STYLE
  5
200
100
AcDbSymbolTableRecord
100
AcDbTextStyleTableRecord
  2
TEXTSTYLE_1
 70
0
 40
0.0
 41
0.8
 50
0.0
 71
0
 42
0.2
  3
gdt
  4

  0
ENDTAB
  0
TABLE
  2
VIEW
  5
6
100
AcDbSymbolTable
 70
0
  0
ENDTAB
  0
TABLE
  2
UCS
  5
7
100
AcDbSymbolTable
 70
0
  0
ENDTAB
  0
TABLE
  2
APPID
  5
9
100
AcDbSymbolTable
 70
1
  0
APPID
  5
201
100
AcDbSymbolTableRecord
100
AcDbRegAppTableRecord
  2
ACAD
 70
0
  0
ENDTAB
  0
TABLE
  2
BLOCK_RECORD
  5
1
100
AcDbSymbolTable
 70
0
  0
BLOCK_RECORD
  5
202
100
AcDbSymbolTableRecord
100
AcDbBlockTableRecord
  2
*Model_Space
  0
BLOCK_RECORD
  5
203
100
AcDbSymbolTableRecord
100
AcDbBlockTableRecord
  2
*Paper_Space
  0
BLOCK_RECORD
  5
204
100
AcDbSymbolTableRecord
100
AcDbBlockTableRecord
  2
_FILLED
  0
ENDTAB
  0
TABLE
  2
DIMSTYLE
  5
A
100
AcDbSymbolTable
 70
1
100
AcDbDimStyleTable
 71
0
  0
DIMSTYLE
105
205
100
AcDbSymbolTableRecord
100
AcDbDimStyleTableRecord
  2
STANDARD
 70
0
  3

  4

 40
1.0
 41
0.1
 42
0.0625
 43
0.38
 44
0.125
 45
0.0
 46
0.0
 47
0.01
 48
0.01
140
0.08
141
0.09
142
0.0
143
25.4
144
1.0
145
0.0
146
1.0
147
0.09
 71
1.0
 72
0.0
 73
1
 74
1
 75
0
 76
0
 77
0
 78
4
 79
1
170
1
171
1
172
0
173
0
174
0
175
0
176
0
177
0
178
0
270
2
179
2
271
2
272
2
273
2
274
2
275
0
280
0
281
0
282
0
283
1
284
4
285
0
286
0
287
3
288
0
340
11
278
46
341
204
342
204
343
204
344
204
  0
ENDTAB
  0
ENDSEC
  0
SECTION
  2
BLOCKS
  0
BLOCK
  5
20
100
AcDbEntity
  8
0
100
AcDbBlockBegin
  2
*Model_Space
 70
0
 10
0.0
 20
0.0
 30
0.0
  3
*Model_Space
  1

  0
ENDBLK
  5
21
100
AcDbEntity
  8
0
100
AcDbBlockEnd
  0
BLOCK
  5
1C
100
AcDbEntity
  8
0
100
AcDbBlockBegin
  2
*Paper_Space
 70
0
 10
0.0
 20
0.0
 30
0.0
  3
*Paper_Space
  1

  0
ENDBLK
  5
1D
100
AcDbEntity
  8
0
100
AcDbBlockEnd
  0
BLOCK
  5
206
100
AcDbEntity
  8
0
100
AcDbBlockBegin
  2
_FILLED
 70
64
 10
0.0
 20
0.0
  3
_FILLED
  1

  0
SOLID
  5
207
100
AcDbEntity
  8
0
  6
BYBLOCK
 62
0
100
AcDbTrace
 10
0.0
 20
0.0
 11
-1.0
 21
0.2
 12
-1.0
 22
-0.2
 13
-1.0
 23
-0.2
  0
ENDBLK
  5
208
100
AcDbEntity
  8
0
  6
BYBLOCK
 62
0
100
AcDbBlockEnd
  0
ENDSEC
  0
SECTION
  2
ENTITIES
  0
MTEXT
  5
209
100
AcDbEntity
  8
0
100
AcDbMText
 62
2
  6
CONTINUOUS
  7
STANDARD
 71
3
 72
1
 10
5.2463509317
 20
3.1019371118
 30
0.0
 11
1.0
 21
0.0
 31
0.0
 73
2
 44
0.9
  1
SCALE  .500
 40
0.08
 41
0.704
  0
LINE
  5
20A
100
AcDbEntity
  8
0
100
AcDbLine
 62
7
  6
CONTINUOUS
 10
0.0
 20
0.0
 11
0.0
 21
8.5
  0
LINE
  5
20B
100
AcDbEntity
  8
0
100
AcDbLine
 62
7
  6
CONTINUOUS
 10
0.0
 20
0.0
 11
11.0
 21
0.0
  0
LINE
  5
20C
100
AcDbEntity
  8
0
100
AcDbLine
 62
7
  6
CONTINUOUS
 10
0.0
 20
8.5
 11
11.0
 21
8.5
  0
LINE
  5
20D
100
AcDbEntity
  8
0
100
AcDbLine
 62
7
  6
CONTINUOUS
 10
11.0
 20
0.0
 11
11.0
 21
8.5
  0
LINE
  5
20E
100
AcDbEntity
  8
0
100
AcDbLine
 62
7
  6
CONTINUOUS
 10
5.1364815592
 20
4.3221664304
 11
5.1385903696
 21
4.3227601575
  0
LINE
  5
20F
100
AcDbEntity
  8
0
100
AcDbLine
 62
7
  6
CONTINUOUS
 10
5.1425992527
 20
4.3045543152
 11
5.1444250631
 21
4.3050675217
  0
LINE
  5
210
100
AcDbEntity
  8
0
100
AcDbLine
 62
7
  6
CONTINUOUS
 10
5.1407525769
 20
4.304044885
 11
5.1425992527
 21
4.3045543152
  0
LINE
  5
211
100
AcDbEntity
  8
0
100
AcDbLine
 62
7
  6
CONTINUOUS
 10
5.1343564804
 20
4.3215817286
 11
5.1364815592
 21
4.3221664304
  0
LINE
  5
212
100
AcDbEntity
  8
0
100
AcDbLine
 62
7
  6
CONTINUOUS
 10
5.1388853875
 20
4.3035396173
 11
5.1407525769
 21
4.304044885
  0
LINE
  5
213
100
AcDbEntity
  8
0
100
AcDbLine
 62
7
  6
CONTINUOUS
 10
5.1322152089
 20
4.3210063224
 11
5.1343564804
 21
4.3215817286
  0
LINE
  5
214
100
AcDbEntity
  8
0
100
AcDbLine
 62
7
  6
CONTINUOUS
 10
5.1369982327
 20
4.3030389451
 11
5.1388853875
 21
4.3035396173
  0
LINE
  5
215
100
AcDbEntity
  8
0
100
AcDbLine
 62
7
  6
CONTINUOUS
 10
5.1300576569
 20
4.3204404368
 11
5.1322152089
 21
4.3210063224
  0
LINE
  5
216
100
AcDbEntity
  8
0
100
AcDbLine
 62
7
  6
CONTINUOUS
 10
5.1350916658
 20
4.3025432933
 11
5.1369982327
 21
4.3030389451
  0
LINE
  5
217
100
AcDbEntity
  8
0
100
AcDbLine
 62
7
  6
CONTINUOUS
 10
5.1278836552
 20
4.3198842782
 11
5.1300576569
 21
4.3204404368
  0
LINE
  5
218
100
AcDbEntity
  8
0
100
AcDbLine
 62
7
  6
CONTINUOUS
 10
5.1331660531
 20
4.3020530298
 11
5.1350916658
 21
4.3025432933
  0
LINE
  5
219
100
AcDbEntity
  8
0
100
AcDbLine
 62
7
  6
CONTINUOUS
 10
5.131221958
 20
4.3015685629
 11
5.1331660531
 21
4.3020530298
  0
LINE
  5
21A
100
AcDbEntity
  8
0
100
AcDbLine
 62
7
  6
CONTINUOUS
 10
5.1256927437
 20
4.3193379882
 11
5.1278836552
 21
4.3198842782
  0
LINE
  5
21B
100
AcDbEntity
  8
0
100
AcDbLine
 62
7
  6
CONTINUOUS
 10
5.1292599498
 20
4.3010902915
 11
5.131221958
 21
4.3015685629
  0
LINE
  5
21C
100
AcDbEntity
  8
0
100
AcDbLine
 62
7
  6
CONTINUOUS
 10
5.1272804091
 20
4.3006185597
 11
5.1292599498
 21
4.3010902915
  0
LINE
  5
21D
100
AcDbEntity
  8
0
100
AcDbLine
 62
7
  6
CONTINUOUS
 10
5.1252839146
 20
4.3001537508
 11
5.1272804091
 21
4.3006185597
  0
LINE
  5
21E
100
AcDbEntity
  8
0
100
AcDbLine
 62
7
  6
CONTINUOUS
 10
5.1232710502
 20
4.2996962384
 11
5.1252839146
 21
4.3001537508
  0
LINE
  5
21F
100
AcDbEntity
  8
0
100
AcDbLine
 62
7
  6
CONTINUOUS
 10
5.1212422104
 20
4.2992463434
 11
5.1232710502
 21
4.2996962384
  0
LINE
  5
220
100
AcDbEntity
  8
0
100
AcDbLine
 62
7
  6
CONTINUOUS
 10
5.1191980029
 20
4.2988044255
 11
5.1212422104
 21
4.2992463434
  0
LINE
  5
221
100
AcDbEntity
  8
0
100
AcDbLine
 62
7
  6
CONTINUOUS
 10
5.1171390122
 20
4.2983708278
 11
5.1191980029
 21
4.2988044255
  0
LINE
  5
222
100
AcDbEntity
  8
0
100
AcDbLine
 62
7
  6
CONTINUOUS
 10
5.1150654053
 20
4.2979457971
 11
5.1171390122
 21
4.2983708278
  0
LINE
  5
223
100
AcDbEntity
  8
0
100
AcDbLine
 62
7
  6
CONTINUOUS
 10
5.1129771351
 20
4.2975295332
 11
5.1150654053
 21
4.2979457971
  0
LINE
  5
224
100
AcDbEntity
  8
0
100
AcDbLine
 62
7
  6
CONTINUOUS
 10
5.1108737639
 20
4.2971221634
 11
5.1129771351
 21
4.2975295332
  0
LINE
  5
225
100
AcDbEntity
  8
0
100
AcDbLine
 62
7
  6
CONTINUOUS
 10
5.1087550538
 20
4.2967238638
 11
5.1108737639
 21
4.2971221634
  0
LINE
  5
226
100
AcDbEntity
  8
0
100
AcDbLine
 62
7
  6
CONTINUOUS
 10
5.1066206352
 20
4.2963347943
 11
5.1087550538
 21
4.2967238638
  0
LINE
  5
227
100
AcDbEntity
  8
0
100
AcDbLine
 62
7
  6
CONTINUOUS
 10
5.1044701395
 20
4.2959551255
 11
5.1066206352
 21
4.2963347943
  0
LINE
  5
228
100
AcDbEntity
  8
0
100
AcDbLine
 62
7
  6
CONTINUOUS
 10
5.1023033303
 20
4.2955850609
 11
5.1044701395
 21
4.2959551255
  0
LINE
  5
229
100
AcDbEntity
  8
0
100
AcDbLine
 62
7
  6
CONTINUOUS
 10
5.1001198411
 20
4.2952247907
 11
5.1023033303
 21
4.2955850609
  0
LINE
  5
22A
100
AcDbEntity
  8
0
100
AcDbLine
 62
7
  6
CONTINUOUS
 10
5.0979193066
 20
4.2948745163
 11
5.1001198411
 21
4.2952247907
  0
LINE
  5
22B
100
AcDbEntity
  8
0
100
AcDbLine
 62
7
  6
CONTINUOUS
 10
5.0957014943
 20
4.2945344702
 11
5.0979193066
 21
4.2948745163
  0
LINE
  5
22C
100
AcDbEntity
  8
0
100
AcDbLine
 62
7
  6
CONTINUOUS
 10
5.0934660422
 20
4.2942048718
 11
5.0957014943
 21
4.2945344702
  0
LINE
  5
22D
100
AcDbEntity
  8
0
100
AcDbLine
 62
7
  6
CONTINUOUS
 10
5.0912125903
 20
4.2938859493
 11
5.0934660422
 21
4.2942048718
  0
LINE
  5
22E
100
AcDbEntity
  8
0
100
AcDbLine
 62
7
  6
CONTINUOUS
 10
5.0889409127
 20
4.29357796
 11
5.0912125903
 21
4.2938859493
  0
LINE
  5
22F
100
AcDbEntity
  8
0
100
AcDbLine
 62
7
  6
CONTINUOUS
 10
5.0866506533
 20
4.2932811532
 11
5.0889409127
 21
4.29357796
  0
LINE
  5
230
100
AcDbEntity
  8
0
100
AcDbLine
 62
7
  6
CONTINUOUS
 10
5.0843414582
 20
4.2929957902
 11
5.0866506533
 21
4.2932811532
  0
LINE
  5
231
100
AcDbEntity
  8
0
100
AcDbLine
 62
7
  6
CONTINUOUS
 10
5.0820131084
 20
4.2927221598
 11
5.0843414582
 21
4.2929957902
  0
LINE
  5
232
100
AcDbEntity
  8
0
100
AcDbLine
 62
7
  6
CONTINUOUS
 10
5.0796652676
 20
4.2924605468
 11
5.0820131084
 21
4.2927221598
  0
LINE
  5
233
100
AcDbEntity
  8
0
100
AcDbLine
 62
7
  6
CONTINUOUS
 10
5.0772975733
 20
4.2922112457
 11
5.0796652676
 21
4.2924605468
  0
LWPOLYLINE
  5
234
100
AcDbEntity
  8
0
100
AcDbPolyline
 62
7
  6
CONTINUOUS
 90
3
 70
0
 10
5.0737077071
 20
4.291861026
 10
5.0749096142
 20
4.291974559
 10
5.0772975733
 20
4.2922112457
  0
LINE
  5
235
100
AcDbEntity
  8
0
100
AcDbLine
 62
7
  6
CONTINUOUS
 10
5.1234844271
 20
4.3188017137
 11
5.1256927437
 21
4.3193379882
  0
LINE
  5
236
100
AcDbEntity
  8
0
100
AcDbLine
 62
7
  6
CONTINUOUS
 10
5.1212583897
 20
4.3182756588
 11
5.1234844271
 21
4.3188017137
  0
LINE
  5
237
100
AcDbEntity
  8
0
100
AcDbLine
 62
7
  6
CONTINUOUS
 10
5.1190141477
 20
4.3177600005
 11
5.1212583897
 21
4.3182756588
  0
LINE
  5
238
100
AcDbEntity
  8
0
100
AcDbLine
 62
7
  6
CONTINUOUS
 10
5.1167512176
 20
4.3172549309
 11
5.1190141477
 21
4.3177600005
  0
LINE
  5
239
100
AcDbEntity
  8
0
100
AcDbLine
 62
7
  6
CONTINUOUS
 10
5.1144692854
 20
4.3167606941
 11
5.1167512176
 21
4.3172549309
  0
LINE
  5
23A
100
AcDbEntity
  8
0
100
AcDbLine
 62
7
  6
CONTINUOUS
 10
5.1121678691
 20
4.3162775099
 11
5.1144692854
 21
4.3167606941
  0
LINE
  5
23B
100
AcDbEntity
  8
0
100
AcDbLine
 62
7
  6
CONTINUOUS
 10
5.1098464885
 20
4.3158056102
 11
5.1121678691
 21
4.3162775099
  0
LINE
  5
23C
100
AcDbEntity
  8
0
100
AcDbLine
 62
7
  6
CONTINUOUS
 10
5.1075048347
 20
4.3153452741
 11
5.1098464885
 21
4.3158056102
  0
LINE
  5
23D
100
AcDbEntity
  8
0
100
AcDbLine
 62
7
  6
CONTINUOUS
 10
5.1051424307
 20
4.3148967611
 11
5.1075048347
 21
4.3153452741
  0
LINE
  5
23E
100
AcDbEntity
  8
0
100
AcDbLine
 62
7
  6
CONTINUOUS
 10
5.1027588009
 20
4.3144603477
 11
5.1051424307
 21
4.3148967611
  0
LINE
  5
23F
100
AcDbEntity
  8
0
100
AcDbLine
 62
7
  6
CONTINUOUS
 10
5.1003536423
 20
4.3140363568
 11
5.1027588009
 21
4.3144603477
  0
LINE
  5
240
100
AcDbEntity
  8
0
100
AcDbLine
 62
7
  6
CONTINUOUS
 10
5.0979264838
 20
4.3136250958
 11
5.1003536423
 21
4.3140363568
  0
LINE
  5
241
100
AcDbEntity
  8
0
100
AcDbLine
 62
7
  6
CONTINUOUS
 10
5.0954768568
 20
4.3132268901
 11
5.0979264838
 21
4.3136250958
  0
LINE
  5
242
100
AcDbEntity
  8
0
100
AcDbLine
 62
7
  6
CONTINUOUS
 10
5.0930044664
 20
4.3128421088
 11
5.0954768568
 21
4.3132268901
  0
LINE
  5
243
100
AcDbEntity
  8
0
100
AcDbLine
 62
7
  6
CONTINUOUS
 10
5.0905088499
 20
4.3124711099
 11
5.0930044664
 21
4.3128421088
  0
LINE
  5
244
100
AcDbEntity
  8
0
100
AcDbLine
 62
7
  6
CONTINUOUS
 10
5.0879895352
 20
4.3121142633
 11
5.0905088499
 21
4.3124711099
  0
LINE
  5
245
100
AcDbEntity
  8
0
100
AcDbLine
 62
7
  6
CONTINUOUS
 10
5.085446281
 20
4.3117719833
 11
5.0879895352
 21
4.3121142633
  0
LINE
  5
246
100
AcDbEntity
  8
0
100
AcDbLine
 62
7
  6
CONTINUOUS
 10
5.0828786192
 20
4.3114446689
 11
5.085446281
 21
4.3117719833
  0
LINE
  5
247
100
AcDbEntity
  8
0
100
AcDbLine
 62
7
  6
CONTINUOUS
 10
5.0802870601
 20
4.3111328521
 11
5.0828786192
 21
4.3114446689
  0
LINE
  5
248
100
AcDbEntity
  8
0
100
AcDbLine
 62
7
  6
CONTINUOUS
 10
5.0776719713
 20
4.310837041
 11
5.0802870601
 21
4.3111328521
  0
LINE
  5
249
100
AcDbEntity
  8
0
100
AcDbLine
 62
7
  6
CONTINUOUS
 10
5.0750340244
 20
4.3105577703
 11
5.0776719713
 21
4.310837041
  0
LINE
  5
24A
100
AcDbEntity
  8
0
100
AcDbLine
 62
7
  6
CONTINUOUS
 10
5.0723738717
 20
4.3102955598
 11
5.0750340244
 21
4.3105577703
  0
LINE
  5
24B
100
AcDbEntity
  8
0
100
AcDbLine
 62
7
  6
CONTINUOUS
 10
5.0696919868
 20
4.3100509008
 11
5.0723738717
 21
4.3102955598
  0
LINE
  5
24C
100
AcDbEntity
  8
0
100
AcDbLine
 62
7
  6
CONTINUOUS
 10
5.0712876254
 20
4.2916437777
 11
5.0737077071
 21
4.291861026
  0
LINE
  5
24D
100
AcDbEntity
  8
0
100
AcDbLine
 62
7
  6
CONTINUOUS
 10
5.0688448533
 20
4.2914398573
 11
5.0712876254
 21
4.2916437777
  0
LINE
  5
24E
100
AcDbEntity
  8
0
100
AcDbLine
 62
7
  6
CONTINUOUS
 10
5.0669890375
 20
4.309824293
 11
5.0696919868
 21
4.3100509008
  0
LINE
  5
24F
100
AcDbEntity
  8
0
100
AcDbLine
 62
7
  6
CONTINUOUS
 10
5.0663782684
 20
4.2912495853
 11
5.0688448533
 21
4.2914398573
  0
LINE
  5
250
100
AcDbEntity
  8
0
100
AcDbLine
 62
7
  6
CONTINUOUS
 10
5.0642656993
 20
4.3096162221
 11
5.0669890375
 21
4.309824293
  0
LINE
  5
251
100
AcDbEntity
  8
0
100
AcDbLine
 62
7
  6
CONTINUOUS
 10
5.0638871477
 20
4.2910733434
 11
5.0663782684
 21
4.2912495853
  0
LINE
  5
252
100
AcDbEntity
  8
0
100
AcDbLine
 62
7
  6
CONTINUOUS
 10
5.0615224704
 20
4.3094271399
 11
5.0642656993
 21
4.3096162221
  0
LINE
  5
253
100
AcDbEntity
  8
0
100
AcDbLine
 62
7
  6
CONTINUOUS
 10
5.061370376
 20
4.2909115139
 11
5.0638871477
 21
4.2910733434
  0
LINE
  5
254
100
AcDbEntity
  8
0
100
AcDbLine
 62
7
  6
CONTINUOUS
 10
5.0587600438
 20
4.3092574977
 11
5.0615224704
 21
4.3094271399
  0
LINE
  5
255
100
AcDbEntity
  8
0
100
AcDbLine
 62
7
  6
CONTINUOUS
 10
5.058826842
 20
4.2907645146
 11
5.061370376
 21
4.2909115139
  0
LINE
  5
256
100
AcDbEntity
  8
0
100
AcDbLine
 62
7
  6
CONTINUOUS
 10
5.0559791201
 20
4.3091077324
 11
5.0587600438
 21
4.3092574977
  0
LINE
  5
257
100
AcDbEntity
  8
0
100
AcDbLine
 62
7
  6
CONTINUOUS
 10
5.0562558356
 20
4.2906328187
 11
5.058826842
 21
4.2907645146
  0
LINE
  5
258
100
AcDbEntity
  8
0
100
AcDbLine
 62
7
  6
CONTINUOUS
 10
5.0531802192
 20
4.3089782591
 11
5.0559791201
 21
4.3091077324
  0
LINE
  5
259
100
AcDbEntity
  8
0
100
AcDbLine
 62
7
  6
CONTINUOUS
 10
5.0536562556
 20
4.29051691
 11
5.0562558356
 21
4.2906328187
  0
LINE
  5
25A
100
AcDbEntity
  8
0
100
AcDbLine
 62
7
  6
CONTINUOUS
 10
5.0503640553
 20
4.3088694905
 11
5.0531802192
 21
4.3089782591
  0
LINE
  5
25B
100
AcDbEntity
  8
0
100
AcDbLine
 62
7
  6
CONTINUOUS
 10
5.0510270064
 20
4.2904173098
 11
5.0536562556
 21
4.29051691
  0
LINE
  5
25C
100
AcDbEntity
  8
0
100
AcDbLine
 62
7
  6
CONTINUOUS
 10
5.0483673966
 20
4.2903345898
 11
5.0510270064
 21
4.2904173098
  0
LINE
  5
25D
100
AcDbEntity
  8
0
100
AcDbLine
 62
7
  6
CONTINUOUS
 10
5.0475313491
 20
4.3087818245
 11
5.0503640553
 21
4.3088694905
  0
LINE
  5
25E
100
AcDbEntity
  8
0
100
AcDbLine
 62
7
  6
CONTINUOUS
 10
5.0456763445
 20
4.2902693412
 11
5.0483673966
 21
4.2903345898
  0
LINE
  5
25F
100
AcDbEntity
  8
0
100
AcDbLine
 62
7
  6
CONTINUOUS
 10
5.0446826405
 20
4.3087156406
 11
5.0475313491
 21
4.3087818245
  0
LINE
  5
260
100
AcDbEntity
  8
0
100
AcDbLine
 62
7
  6
CONTINUOUS
 10
5.0429527734
 20
4.290222189
 11
5.0456763445
 21
4.2902693412
  0
LINE
  5
261
100
AcDbEntity
  8
0
100
AcDbLine
 62
7
  6
CONTINUOUS
 10
5.0418186593
 20
4.3086713109
 11
5.0446826405
 21
4.3087156406
  0
LINE
  5
262
100
AcDbEntity
  8
0
100
AcDbLine
 62
7
  6
CONTINUOUS
 10
5.0401960258
 20
4.290193798
 11
5.0429527734
 21
4.290222189
  0
LINE
  5
263
100
AcDbEntity
  8
0
100
AcDbLine
 62
7
  6
CONTINUOUS
 10
5.0389400609
 20
4.3086491919
 11
5.0418186593
 21
4.3086713109
  0
LINE
  5
264
100
AcDbEntity
  8
0
100
AcDbLine
 62
7
  6
CONTINUOUS
 10
5.0374047214
 20
4.2901848639
 11
5.0401960258
 21
4.290193798
  0
LINE
  5
265
100
AcDbEntity
  8
0
100
AcDbLine
 62
7
  6
CONTINUOUS
 10
5.0360477172
 20
4.3086496247
 11
5.0389400609
 21
4.3086491919
  0
LINE
  5
266
100
AcDbEntity
  8
0
100
AcDbLine
 62
7
  6
CONTINUOUS
 10
5.0345795477
 20
4.2901961184
 11
5.0374047214
 21
4.2901848639
  0
LINE
  5
267
100
AcDbEntity
  8
0
100
AcDbLine
 62
7
  6
CONTINUOUS
 10
5.033143088
 20
4.3086729123
 11
5.0360477172
 21
4.3086496247
  0
LINE
  5
268
100
AcDbEntity
  8
0
100
AcDbLine
 62
7
  6
CONTINUOUS
 10
5.0317217663
 20
4.2902282781
 11
5.0345795477
 21
4.2901961184
  0
LINE
  5
269
100
AcDbEntity
  8
0
100
AcDbLine
 62
7
  6
CONTINUOUS
 10
5.030229611
 20
4.3087192748
 11
5.033143088
 21
4.3086729123
  0
LINE
  5
26A
100
AcDbEntity
  8
0
100
AcDbLine
 62
7
  6
CONTINUOUS
 10
5.0288346284
 20
4.2902819915
 11
5.0317217663
 21
4.2902282781
  0
LINE
  5
26B
100
AcDbEntity
  8
0
100
AcDbLine
 62
7
  6
CONTINUOUS
 10
5.0273094826
 20
4.308788865
 11
5.030229611
 21
4.3087192748
  0
LINE
  5
26C
100
AcDbEntity
  8
0
100
AcDbLine
 62
7
  6
CONTINUOUS
 10
5.0259214112
 20
4.2903578227
 11
5.0288346284
 21
4.2902819915
  0
LINE
  5
26D
100
AcDbEntity
  8
0
100
AcDbLine
 62
7
  6
CONTINUOUS
 10
5.0243859789
 20
4.3088817338
 11
5.0273094826
 21
4.308788865
  0
LINE
  5
26E
100
AcDbEntity
  8
0
100
AcDbLine
 62
7
  6
CONTINUOUS
 10
5.0229843376
 20
4.2904562886
 11
5.0259214112
 21
4.2903578227
  0
LINE
  5
26F
100
AcDbEntity
  8
0
100
AcDbLine
 62
7
  6
CONTINUOUS
 10
5.0214623606
 20
4.3089978352
 11
5.0243859789
 21
4.3088817338
  0
LINE
  5
270
100
AcDbEntity
  8
0
100
AcDbLine
 62
7
  6
CONTINUOUS
 10
5.0200266549
 20
4.2905778031
 11
5.0229843376
 21
4.2904562886
  0
LINE
  5
271
100
AcDbEntity
  8
0
100
AcDbLine
 62
7
  6
CONTINUOUS
 10
5.0185408643
 20
4.3091370785
 11
5.0214623606
 21
4.3089978352
  0
LINE
  5
272
100
AcDbEntity
  8
0
100
AcDbLine
 62
7
  6
CONTINUOUS
 10
5.0170516137
 20
4.2907226837
 11
5.0200266549
 21
4.2905778031
  0
LINE
  5
273
100
AcDbEntity
  8
0
100
AcDbLine
 62
7
  6
CONTINUOUS
 10
5.0156247435
 20
4.3092992474
 11
5.0185408643
 21
4.3091370785
  0
LINE
  5
274
100
AcDbEntity
  8
0
100
AcDbLine
 62
7
  6
CONTINUOUS
 10
5.0140614501
 20
4.2908912126
 11
5.0170516137
 21
4.2907226837
  0
LINE
  5
275
100
AcDbEntity
  8
0
100
AcDbLine
 62
7
  6
CONTINUOUS
 10
5.012717245
 20
4.3094840287
 11
5.0156247435
 21
4.3092992474
  0
LINE
  5
276
100
AcDbEntity
  8
0
100
AcDbLine
 62
7
  6
CONTINUOUS
 10
5.0110594188
 20
4.2910835422
 11
5.0140614501
 21
4.2908912126
  0
LINE
  5
277
100
AcDbEntity
  8
0
100
AcDbLine
 62
7
  6
CONTINUOUS
 10
5.0098205872
 20
4.3096910897
 11
5.012717245
 21
4.3094840287
  0
LINE
  5
278
100
AcDbEntity
  8
0
100
AcDbLine
 62
7
  6
CONTINUOUS
 10
5.0080487737
 20
4.2912997323
 11
5.0110594188
 21
4.2910835422
  0
LINE
  5
279
100
AcDbEntity
  8
0
100
AcDbLine
 62
7
  6
CONTINUOUS
 10
5.0069379982
 20
4.3099199444
 11
5.0098205872
 21
4.3096910897
  0
LINE
  5
27A
100
AcDbEntity
  8
0
100
AcDbLine
 62
7
  6
CONTINUOUS
 10
5.0050317511
 20
4.2915398336
 11
5.0080487737
 21
4.2912997323
  0
LINE
  5
27B
100
AcDbEntity
  8
0
100
AcDbLine
 62
7
  6
CONTINUOUS
 10
5.0040726917
 20
4.3101700024
 11
5.0069379982
 21
4.3099199444
  0
LINE
  5
27C
100
AcDbEntity
  8
0
100
AcDbLine
 62
7
  6
CONTINUOUS
 10
5.0020115999
 20
4.2918037419
 11
5.0050317511
 21
4.2915398336
  0
LINE
  5
27D
100
AcDbEntity
  8
0
100
AcDbLine
 62
7
  6
CONTINUOUS
 10
4.9989915879
 20
4.2920912558
 11
5.0020115999
 21
4.2918037419
  0
LINE
  5
27E
100
AcDbEntity
  8
0
100
AcDbLine
 62
7
  6
CONTINUOUS
 10
5.00122685
 20
4.3104406801
 11
5.0040726917
 21
4.3101700024
  0
LINE
  5
27F
100
AcDbEntity
  8
0
100
AcDbLine
 62
7
  6
CONTINUOUS
 10
4.9984036594
 20
4.3107312252
 11
5.00122685
 21
4.3104406801
  0
LINE
  5
280
100
AcDbEntity
  8
0
100
AcDbLine
 62
7
  6
CONTINUOUS
 10
4.9959738459
 20
4.2924021987
 11
4.9989915879
 21
4.2920912558
  0
LINE
  5
281
100
AcDbEntity
  8
0
100
AcDbLine
 62
7
  6
CONTINUOUS
 10
4.9956062909
 20
4.3110407953
 11
4.9984036594
 21
4.3107312252
  0
LINE
  5
282
100
AcDbEntity
  8
0
100
AcDbLine
 62
7
  6
CONTINUOUS
 10
4.9929614045
 20
4.2927362216
 11
4.9959738459
 21
4.2924021987
  0
LINE
  5
283
100
AcDbEntity
  8
0
100
AcDbLine
 62
7
  6
CONTINUOUS
 10
4.9928368749
 20
4.3113685851
 11
4.9956062909
 21
4.3110407953
  0
LINE
  5
284
100
AcDbEntity
  8
0
100
AcDbLine
 62
7
  6
CONTINUOUS
 10
4.9899566541
 20
4.2930929601
 11
4.9929614045
 21
4.2927362216
  0
LINE
  5
285
100
AcDbEntity
  8
0
100
AcDbLine
 62
7
  6
CONTINUOUS
 10
4.9900988447
 20
4.311713563
 11
4.9928368749
 21
4.3113685851
  0
LINE
  5
286
100
AcDbEntity
  8
0
100
AcDbLine
 62
7
  6
CONTINUOUS
 10
4.9869612884
 20
4.2934720711
 11
4.9899566541
 21
4.2930929601
  0
LINE
  5
287
100
AcDbEntity
  8
0
100
AcDbLine
 62
7
  6
CONTINUOUS
 10
4.9873938102
 20
4.3120748524
 11
4.9900988447
 21
4.311713563
  0
LINE
  5
288
100
AcDbEntity
  8
0
100
AcDbLine
 62
7
  6
CONTINUOUS
 10
4.9839777242
 20
4.293873064
 11
4.9869612884
 21
4.2934720711
  0
LINE
  5
289
100
AcDbEntity
  8
0
100
AcDbLine
 62
7
  6
CONTINUOUS
 10
4.9847220656
 20
4.3124517281
 11
4.9873938102
 21
4.3120748524
  0
LINE
  5
28A
100
AcDbEntity
  8
0
100
AcDbLine
 62
7
  6
CONTINUOUS
 10
4.9810083704
 20
4.2942953793
 11
4.9839777242
 21
4.293873064
  0
LINE
  5
28B
100
AcDbEntity
  8
0
100
AcDbLine
 62
7
  6
CONTINUOUS
 10
4.9820825643
 20
4.312843666
 11
4.9847220656
 21
4.3124517281
  0
LINE
  5
28C
100
AcDbEntity
  8
0
100
AcDbLine
 62
7
  6
CONTINUOUS
 10
4.9780548721
 20
4.2947385051
 11
4.9810083704
 21
4.2942953793
  0
LINE
  5
28D
100
AcDbEntity
  8
0
100
AcDbLine
 62
7
  6
CONTINUOUS
 10
4.9794741798
 20
4.3132501879
 11
4.9820825643
 21
4.312843666
  0
LINE
  5
28E
100
AcDbEntity
  8
0
100
AcDbLine
 62
7
  6
CONTINUOUS
 10
4.9751196116
 20
4.2952017641
 11
4.9780548721
 21
4.2947385051
  0
LINE
  5
28F
100
AcDbEntity
  8
0
100
AcDbLine
 62
7
  6
CONTINUOUS
 10
4.9768962079
 20
4.3136707857
 11
4.9794741798
 21
4.3132501879
  0
LINE
  5
290
100
AcDbEntity
  8
0
100
AcDbLine
 62
7
  6
CONTINUOUS
 10
4.9722049544
 20
4.2956844068
 11
4.9751196116
 21
4.2952017641
  0
LINE
  5
291
100
AcDbEntity
  8
0
100
AcDbLine
 62
7
  6
CONTINUOUS
 10
4.9743475691
 20
4.3141050453
 11
4.9768962079
 21
4.3136707857
  0
LINE
  5
292
100
AcDbEntity
  8
0
100
AcDbLine
 62
7
  6
CONTINUOUS
 10
4.9693125012
 20
4.2961857466
 11
4.9722049544
 21
4.2956844068
  0
LINE
  5
293
100
AcDbEntity
  8
0
100
AcDbLine
 62
7
  6
CONTINUOUS
 10
4.9718271819
 20
4.314552591
 11
4.9743475691
 21
4.3141050453
  0
LINE
  5
294
100
AcDbEntity
  8
0
100
AcDbLine
 62
7
  6
CONTINUOUS
 10
4.9664445842
 20
4.2967049181
 11
4.9693125012
 21
4.2961857466
  0
LINE
  5
295
100
AcDbEntity
  8
0
100
AcDbLine
 62
7
  6
CONTINUOUS
 10
4.9693343345
 20
4.3150130155
 11
4.9718271819
 21
4.314552591
  0
LINE
  5
296
100
AcDbEntity
  8
0
100
AcDbLine
 62
7
  6
CONTINUOUS
 10
4.9636035167
 20
4.297240994
 11
4.9664445842
 21
4.2967049181
  0
LINE
  5
297
100
AcDbEntity
  8
0
100
AcDbLine
 62
7
  6
CONTINUOUS
 10
4.9668679423
 20
4.3154860102
 11
4.9693343345
 21
4.3150130155
  0
LINE
  5
298
100
AcDbEntity
  8
0
100
AcDbLine
 62
7
  6
CONTINUOUS
 10
4.9607908471
 20
4.2977931358
 11
4.9636035167
 21
4.297240994
  0
LINE
  5
299
100
AcDbEntity
  8
0
100
AcDbLine
 62
7
  6
CONTINUOUS
 10
4.9644269209
 20
4.3159713032
 11
4.9668679423
 21
4.3154860102
  0
LINE
  5
29A
100
AcDbEntity
  8
0
100
AcDbLine
 62
7
  6
CONTINUOUS
 10
4.958008958
 20
4.2983602908
 11
4.9607908471
 21
4.2977931358
  0
LINE
  5
29B
100
AcDbEntity
  8
0
100
AcDbLine
 62
7
  6
CONTINUOUS
 10
4.9620105554
 20
4.3164685801
 11
4.9644269209
 21
4.3159713032
  0
LINE
  5
29C
100
AcDbEntity
  8
0
100
AcDbLine
 62
7
  6
CONTINUOUS
 10
4.9552596024
 20
4.2989414759
 11
4.958008958
 21
4.2983602908
  0
LINE
  5
29D
100
AcDbEntity
  8
0
100
AcDbLine
 62
7
  6
CONTINUOUS
 10
4.9596177609
 20
4.3169776283
 11
4.9620105554
 21
4.3164685801
  0
LINE
  5
29E
100
AcDbEntity
  8
0
100
AcDbLine
 62
7
  6
CONTINUOUS
 10
4.9525435959
 20
4.2995358646
 11
4.9552596024
 21
4.2989414759
  0
LINE
  5
29F
100
AcDbEntity
  8
0
100
AcDbLine
 62
7
  6
CONTINUOUS
 10
4.9572474531
 20
4.317498265
 11
4.9596177609
 21
4.3169776283
  0
LINE
  5
2A0
100
AcDbEntity
  8
0
100
AcDbLine
 62
7
  6
CONTINUOUS
 10
4.9498615448
 20
4.30014266
 11
4.9525435959
 21
4.2995358646
  0
LINE
  5
2A1
100
AcDbEntity
  8
0
100
AcDbLine
 62
7
  6
CONTINUOUS
 10
4.9472139756
 20
4.3007610737
 11
4.9498615448
 21
4.30014266
  0
LINE
  5
2A2
100
AcDbEntity
  8
0
100
AcDbLine
 62
7
  6
CONTINUOUS
 10
4.9446012435
 20
4.3013903514
 11
4.9472139756
 21
4.3007610737
  0
LINE
  5
2A3
100
AcDbEntity
  8
0
100
AcDbLine
 62
7
  6
CONTINUOUS
 10
4.9420238811
 20
4.3020296912
 11
4.9446012435
 21
4.3013903514
  0
LINE
  5
2A4
100
AcDbEntity
  8
0
100
AcDbLine
 62
7
  6
CONTINUOUS
 10
4.9394824097
 20
4.302678286
 11
4.9420238811
 21
4.3020296912
  0
LINE
  5
2A5
100
AcDbEntity
  8
0
100
AcDbLine
 62
7
  6
CONTINUOUS
 10
4.9369771525
 20
4.3033353706
 11
4.9394824097
 21
4.302678286
  0
LINE
  5
2A6
100
AcDbEntity
  8
0
100
AcDbLine
 62
7
  6
CONTINUOUS
 10
4.9345086085
 20
4.3040001265
 11
4.9369771525
 21
4.3033353706
  0
LINE
  5
2A7
100
AcDbEntity
  8
0
100
AcDbLine
 62
7
  6
CONTINUOUS
 10
4.9320772664
 20
4.3046717316
 11
4.9345086085
 21
4.3040001265
  0
LINE
  5
2A8
100
AcDbEntity
  8
0
100
AcDbLine
 62
7
  6
CONTINUOUS
 10
4.9296834183
 20
4.3053494145
 11
4.9320772664
 21
4.3046717316
  0
LINE
  5
2A9
100
AcDbEntity
  8
0
100
AcDbLine
 62
7
  6
CONTINUOUS
 10
4.927327533
 20
4.3060323517
 11
4.9296834183
 21
4.3053494145
  0
LINE
  5
2AA
100
AcDbEntity
  8
0
100
AcDbLine
 62
7
  6
CONTINUOUS
 10
4.9250100688
 20
4.3067197176
 11
4.927327533
 21
4.3060323517
  0
LINE
  5
2AB
100
AcDbEntity
  8
0
100
AcDbLine
 62
7
  6
CONTINUOUS
 10
4.9227312897
 20
4.3074107408
 11
4.9250100688
 21
4.3067197176
  0
LINE
  5
2AC
100
AcDbEntity
  8
0
100
AcDbLine
 62
7
  6
CONTINUOUS
 10
4.9204916467
 20
4.3081045887
 11
4.9227312897
 21
4.3074107408
  0
LINE
  5
2AD
100
AcDbEntity
  8
0
100
AcDbLine
 62
7
  6
CONTINUOUS
 10
4.9182915484
 20
4.3088004381
 11
4.9204916467
 21
4.3081045887
  0
LINE
  5
2AE
100
AcDbEntity
  8
0
100
AcDbLine
 62
7
  6
CONTINUOUS
 10
4.9161310744
 20
4.3094975712
 11
4.9182915484
 21
4.3088004381
  0
LINE
  5
2AF
100
AcDbEntity
  8
0
100
AcDbLine
 62
7
  6
CONTINUOUS
 10
4.9140102184
 20
4.3101953049
 11
4.9161310744
 21
4.3094975712
  0
LINE
  5
2B0
100
AcDbEntity
  8
0
100
AcDbLine
 62
7
  6
CONTINUOUS
 10
4.9119288198
 20
4.3108930173
 11
4.9140102184
 21
4.3101953049
  0
LINE
  5
2B1
100
AcDbEntity
  8
0
100
AcDbLine
 62
7
  6
CONTINUOUS
 10
4.909886402
 20
4.3115902073
 11
4.9119288198
 21
4.3108930173
  0
LINE
  5
2B2
100
AcDbEntity
  8
0
100
AcDbLine
 62
7
  6
CONTINUOUS
 10
4.9078820007
 20
4.3122865622
 11
4.909886402
 21
4.3115902073
  0
LINE
  5
2B3
100
AcDbEntity
  8
0
100
AcDbLine
 62
7
  6
CONTINUOUS
 10
4.9059134364
 20
4.3129822326
 11
4.9078820007
 21
4.3122865622
  0
LINE
  5
2B4
100
AcDbEntity
  8
0
100
AcDbLine
 62
7
  6
CONTINUOUS
 10
4.9039793375
 20
4.3136771354
 11
4.9059134364
 21
4.3129822326
  0
LINE
  5
2B5
100
AcDbEntity
  8
0
100
AcDbLine
 62
7
  6
CONTINUOUS
 10
4.9020776944
 20
4.3143714611
 11
4.9039793375
 21
4.3136771354
  0
LINE
  5
2B6
100
AcDbEntity
  8
0
100
AcDbLine
 62
7
  6
CONTINUOUS
 10
4.9002065146
 20
4.3150654459
 11
4.9020776944
 21
4.3143714611
  0
LINE
  5
2B7
100
AcDbEntity
  8
0
100
AcDbLine
 62
7
  6
CONTINUOUS
 10
4.898364442
 20
4.3157591353
 11
4.9002065146
 21
4.3150654459
  0
LINE
  5
2B8
100
AcDbEntity
  8
0
100
AcDbLine
 62
7
  6
CONTINUOUS
 10
4.8965495062
 20
4.3164528457
 11
4.898364442
 21
4.3157591353
  0
LINE
  5
2B9
100
AcDbEntity
  8
0
100
AcDbLine
 62
7
  6
CONTINUOUS
 10
4.8947597499
 20
4.3171469342
 11
4.8965495062
 21
4.3164528457
  0
LINE
  5
2BA
100
AcDbEntity
  8
0
100
AcDbLine
 62
7
  6
CONTINUOUS
 10
4.8929938489
 20
4.3178415542
 11
4.8947597499
 21
4.3171469342
  0
LINE
  5
2BB
100
AcDbEntity
  8
0
100
AcDbLine
 62
7
  6
CONTINUOUS
 10
4.9548989172
 20
4.318030256
 11
4.9572474531
 21
4.317498265
  0
LINE
  5
2BC
100
AcDbEntity
  8
0
100
AcDbLine
 62
7
  6
CONTINUOUS
 10
4.9525710719
 20
4.3185734774
 11
4.9548989172
 21
4.318030256
  0
LINE
  5
2BD
100
AcDbEntity
  8
0
100
AcDbLine
 62
7
  6
CONTINUOUS
 10
4.9502628386
 20
4.3191278374
 11
4.9525710719
 21
4.3185734774
  0
LINE
  5
2BE
100
AcDbEntity
  8
0
100
AcDbLine
 62
7
  6
CONTINUOUS
 10
4.9479735079
 20
4.3196931843
 11
4.9502628386
 21
4.3191278374
  0
LINE
  5
2BF
100
AcDbEntity
  8
0
100
AcDbLine
 62
7
  6
CONTINUOUS
 10
4.9457019962
 20
4.3202694849
 11
4.9479735079
 21
4.3196931843
  0
LINE
  5
2C0
100
AcDbEntity
  8
0
100
AcDbLine
 62
7
  6
CONTINUOUS
 10
4.9434472162
 20
4.3208567383
 11
4.9457019962
 21
4.3202694849
  0
LINE
  5
2C1
100
AcDbEntity
  8
0
100
AcDbLine
 62
7
  6
CONTINUOUS
 10
4.9412087302
 20
4.3214547996
 11
4.9434472162
 21
4.3208567383
  0
LINE
  5
2C2
100
AcDbEntity
  8
0
100
AcDbLine
 62
7
  6
CONTINUOUS
 10
4.9389861745
 20
4.3220635129
 11
4.9412087302
 21
4.3214547996
  0
LINE
  5
2C3
100
AcDbEntity
  8
0
100
AcDbLine
 62
7
  6
CONTINUOUS
 10
4.936779854
 20
4.3226825429
 11
4.9389861745
 21
4.3220635129
  0
LINE
  5
2C4
100
AcDbEntity
  8
0
100
AcDbLine
 62
7
  6
CONTINUOUS
 10
4.9345899046
 20
4.3233115971
 11
4.936779854
 21
4.3226825429
  0
LINE
  5
2C5
100
AcDbEntity
  8
0
100
AcDbLine
 62
7
  6
CONTINUOUS
 10
4.9324165235
 20
4.3239503635
 11
4.9345899046
 21
4.3233115971
  0
LINE
  5
2C6
100
AcDbEntity
  8
0
100
AcDbLine
 62
7
  6
CONTINUOUS
 10
4.9302599023
 20
4.3245985282
 11
4.9324165235
 21
4.3239503635
  0
LINE
  5
2C7
100
AcDbEntity
  8
0
100
AcDbLine
 62
7
  6
CONTINUOUS
 10
4.9281201697
 20
4.3252557938
 11
4.9302599023
 21
4.3245985282
  0
LINE
  5
2C8
100
AcDbEntity
  8
0
100
AcDbLine
 62
7
  6
CONTINUOUS
 10
4.9259975099
 20
4.3259218437
 11
4.9281201697
 21
4.3252557938
  0
LINE
  5
2C9
100
AcDbEntity
  8
0
100
AcDbLine
 62
7
  6
CONTINUOUS
 10
4.9238921029
 20
4.3265963596
 11
4.9259975099
 21
4.3259218437
  0
LINE
  5
2CA
100
AcDbEntity
  8
0
100
AcDbLine
 62
7
  6
CONTINUOUS
 10
4.9218040656
 20
4.3272790378
 11
4.9238921029
 21
4.3265963596
  0
LINE
  5
2CB
100
AcDbEntity
  8
0
100
AcDbLine
 62
7
  6
CONTINUOUS
 10
4.9197335696
 20
4.3279695532
 11
4.9218040656
 21
4.3272790378
  0
LINE
  5
2CC
100
AcDbEntity
  8
0
100
AcDbLine
 62
7
  6
CONTINUOUS
 10
4.9176807825
 20
4.3286675789
 11
4.9197335696
 21
4.3279695532
  0
LINE
  5
2CD
100
AcDbEntity
  8
0
100
AcDbLine
 62
7
  6
CONTINUOUS
 10
4.9156458097
 20
4.329372807
 11
4.9176807825
 21
4.3286675789
  0
LINE
  5
2CE
100
AcDbEntity
  8
0
100
AcDbLine
 62
7
  6
CONTINUOUS
 10
4.9136288112
 20
4.3300849091
 11
4.9156458097
 21
4.329372807
  0
LINE
  5
2CF
100
AcDbEntity
  8
0
100
AcDbLine
 62
7
  6
CONTINUOUS
 10
4.9116299431
 20
4.3308035557
 11
4.9136288112
 21
4.3300849091
  0
LINE
  5
2D0
100
AcDbEntity
  8
0
100
AcDbLine
 62
7
  6
CONTINUOUS
 10
4.9096492998
 20
4.3315284373
 11
4.9116299431
 21
4.3308035557
  0
LINE
  5
2D1
100
AcDbEntity
  8
0
100
AcDbLine
 62
7
  6
CONTINUOUS
 10
4.9076870301
 20
4.3322592227
 11
4.9096492998
 21
4.3315284373
  0
LINE
  5
2D2
100
AcDbEntity
  8
0
100
AcDbLine
 62
7
  6
CONTINUOUS
 10
4.9057432784
 20
4.3329955774
 11
4.9076870301
 21
4.3322592227
  0
LINE
  5
2D3
100
AcDbEntity
  8
0
100
AcDbLine
 62
7
  6
CONTINUOUS
 10
4.9038181281
 20
4.3337371872
 11
4.9057432784
 21
4.3329955774
  0
LINE
  5
2D4
100
AcDbEntity
  8
0
100
AcDbLine
 62
7
  6
CONTINUOUS
 10
4.9019117162
 20
4.3344837158
 11
4.9038181281
 21
4.3337371872
  0
LINE
  5
2D5
100
AcDbEntity
  8
0
100
AcDbLine
 62
7
  6
CONTINUOUS
 10
4.9000241736
 20
4.3352348272
 11
4.9019117162
 21
4.3344837158
  0
LINE
  5
2D6
100
AcDbEntity
  8
0
100
AcDbLine
 62
7
  6
CONTINUOUS
 10
4.8912498685
 20
4.3185371361
 11
4.8929938489
 21
4.3178415542
  0
LINE
  5
2D7
100
AcDbEntity
  8
0
100
AcDbLine
 62
7
  6
CONTINUOUS
 10
4.8895258878
 20
4.319234149
 11
4.8912498685
 21
4.3185371361
  0
LINE
  5
2D8
100
AcDbEntity
  8
0
100
AcDbLine
 62
7
  6
CONTINUOUS
 10
4.8981555803
 20
4.3359902043
 11
4.9000241736
 21
4.3352348272
  0
LINE
  5
2D9
100
AcDbEntity
  8
0
100
AcDbLine
 62
7
  6
CONTINUOUS
 10
4.8878206152
 20
4.3199328464
 11
4.8895258878
 21
4.319234149
  0
LINE
  5
2DA
100
AcDbEntity
  8
0
100
AcDbLine
 62
7
  6
CONTINUOUS
 10
4.8963060682
 20
4.3367495075
 11
4.8981555803
 21
4.3359902043
  0
LINE
  5
2DB
100
AcDbEntity
  8
0
100
AcDbLine
 62
7
  6
CONTINUOUS
 10
4.8861321535
 20
4.3206337638
 11
4.8878206152
 21
4.3199328464
  0
LINE
  5
2DC
100
AcDbEntity
  8
0
100
AcDbLine
 62
7
  6
CONTINUOUS
 10
4.8944758744
 20
4.3375123513
 11
4.8963060682
 21
4.3367495075
  0
LINE
  5
2DD
100
AcDbEntity
  8
0
100
AcDbLine
 62
7
  6
CONTINUOUS
 10
4.8844586178
 20
4.3213374719
 11
4.8861321535
 21
4.3206337638
  0
LINE
  5
2DE
100
AcDbEntity
  8
0
100
AcDbLine
 62
7
  6
CONTINUOUS
 10
4.8926651328
 20
4.3382783882
 11
4.8944758744
 21
4.3375123513
  0
LINE
  5
2DF
100
AcDbEntity
  8
0
100
AcDbLine
 62
7
  6
CONTINUOUS
 10
4.8827987572
 20
4.3220443105
 11
4.8844586178
 21
4.3213374719
  0
LINE
  5
2E0
100
AcDbEntity
  8
0
100
AcDbLine
 62
7
  6
CONTINUOUS
 10
4.8908740768
 20
4.3390472238
 11
4.8926651328
 21
4.3382783882
  0
LINE
  5
2E1
100
AcDbEntity
  8
0
100
AcDbLine
 62
7
  6
CONTINUOUS
 10
4.8811505523
 20
4.3227549803
 11
4.8827987572
 21
4.3220443105
  0
LINE
  5
2E2
100
AcDbEntity
  8
0
100
AcDbLine
 62
7
  6
CONTINUOUS
 10
4.8891029326
 20
4.3398184619
 11
4.8908740768
 21
4.3390472238
  0
LINE
  5
2E3
100
AcDbEntity
  8
0
100
AcDbLine
 62
7
  6
CONTINUOUS
 10
4.8795130318
 20
4.3234697648
 11
4.8811505523
 21
4.3227549803
  0
LINE
  5
2E4
100
AcDbEntity
  8
0
100
AcDbLine
 62
7
  6
CONTINUOUS
 10
4.8778859014
 20
4.3241886678
 11
4.8795130318
 21
4.3234697648
  0
LINE
  5
2E5
100
AcDbEntity
  8
0
100
AcDbLine
 62
7
  6
CONTINUOUS
 10
4.8873518275
 20
4.3405917463
 11
4.8891029326
 21
4.3398184619
  0
LINE
  5
2E6
100
AcDbEntity
  8
0
100
AcDbLine
 62
7
  6
CONTINUOUS
 10
4.8762694109
 20
4.3249114547
 11
4.8778859014
 21
4.3241886678
  0
LINE
  5
2E7
100
AcDbEntity
  8
0
100
AcDbLine
 62
7
  6
CONTINUOUS
 10
4.8856209791
 20
4.3413666779
 11
4.8873518275
 21
4.3405917463
  0
LINE
  5
2E8
100
AcDbEntity
  8
0
100
AcDbLine
 62
7
  6
CONTINUOUS
 10
4.8746638083
 20
4.3256378857
 11
4.8762694109
 21
4.3249114547
  0
LINE
  5
2E9
100
AcDbEntity
  8
0
100
AcDbLine
 62
7
  6
CONTINUOUS
 10
4.8839106001
 20
4.342142856
 11
4.8856209791
 21
4.3413666779
  0
LINE
  5
2EA
100
AcDbEntity
  8
0
100
AcDbLine
 62
7
  6
CONTINUOUS
 10
4.8730692398
 20
4.3263677619
 11
4.8746638083
 21
4.3256378857
  0
LINE
  5
2EB
100
AcDbEntity
  8
0
100
AcDbLine
 62
7
  6
CONTINUOUS
 10
4.8822208054
 20
4.3429199212
 11
4.8839106001
 21
4.342142856
  0
LINE
  5
2EC
100
AcDbEntity
  8
0
100
AcDbLine
 62
7
  6
CONTINUOUS
 10
4.870698567
 20
4.3274685139
 11
4.8730692398
 21
4.3263677619
  0
LINE
  5
2ED
100
AcDbEntity
  8
0
100
AcDbLine
 62
7
  6
CONTINUOUS
 10
4.8805517994
 20
4.3436974705
 11
4.8822208054
 21
4.3429199212
  0
LINE
  5
2EE
100
AcDbEntity
  8
0
100
AcDbLine
 62
7
  6
CONTINUOUS
 10
4.8789037826
 20
4.3444750976
 11
4.8805517994
 21
4.3436974705
  0
LINE
  5
2EF
100
AcDbEntity
  8
0
100
AcDbLine
 62
7
  6
CONTINUOUS
 10
4.8683538701
 20
4.3285757115
 11
4.870698567
 21
4.3274685139
  0
LINE
  5
2F0
100
AcDbEntity
  8
0
100
AcDbLine
 62
7
  6
CONTINUOUS
 10
4.8772768588
 20
4.3452524391
 11
4.8789037826
 21
4.3444750976
  0
LINE
  5
2F1
100
AcDbEntity
  8
0
100
AcDbLine
 62
7
  6
CONTINUOUS
 10
4.8660357837
 20
4.3296885701
 11
4.8683538701
 21
4.3285757115
  0
LINE
  5
2F2
100
AcDbEntity
  8
0
100
AcDbLine
 62
7
  6
CONTINUOUS
 10
4.8756712241
 20
4.3460290853
 11
4.8772768588
 21
4.3452524391
  0
LINE
  5
2F3
100
AcDbEntity
  8
0
100
AcDbLine
 62
7
  6
CONTINUOUS
 10
4.8637449314
 20
4.330806288
 11
4.8660357837
 21
4.3296885701
  0
LINE
  5
2F4
100
AcDbEntity
  8
0
100
AcDbLine
 62
7
  6
CONTINUOUS
 10
4.8740870829
 20
4.3468046195
 11
4.8756712241
 21
4.3460290853
  0
LWPOLYLINE
  5
2F5
100
AcDbEntity
  8
0
100
AcDbPolyline
 62
7
  6
CONTINUOUS
 90
13
 70
0
 10
4.7894522557
 20
4.3765411696
 10
4.7894536426
 20
4.3765404811
 10
4.7894814436
 20
4.3765263975
 10
4.7895401976
 20
4.3764956168
 10
4.7896197719
 20
4.3764526093
 10
4.789717927
 20
4.37639808
 10
4.7898363389
 20
4.3763306054
 10
4.7899704159
 20
4.3762523675
 10
4.7901178676
 20
4.3761643971
 10
4.7902804611
 20
4.3760653294
 10
4.7904595694
 20
4.3759540685
 10
4.7906567956
 20
4.3758296619
 10
4.7908695067
 20
4.3756938507
  0
LINE
  5
2F6
100
AcDbEntity
  8
0
100
AcDbLine
 62
7
  6
CONTINUOUS
 10
4.8725244072
 20
4.3475787375
 11
4.8740870829
 21
4.3468046195
  0
LINE
  5
2F7
100
AcDbEntity
  8
0
100
AcDbLine
 62
7
  6
CONTINUOUS
 10
4.861481922
 20
4.3319280504
 11
4.8637449314
 21
4.330806288
  0
LINE
  5
2F8
100
AcDbEntity
  8
0
100
AcDbLine
 62
7
  6
CONTINUOUS
 10
4.8709830664
 20
4.3483511891
 11
4.8725244072
 21
4.3475787375
  0
LINE
  5
2F9
100
AcDbEntity
  8
0
100
AcDbLine
 62
7
  6
CONTINUOUS
 10
4.8592473486
 20
4.3330530319
 11
4.861481922
 21
4.3319280504
  0
LINE
  5
2FA
100
AcDbEntity
  8
0
100
AcDbLine
 62
7
  6
CONTINUOUS
 10
4.8694625332
 20
4.3491219305
 11
4.8709830664
 21
4.3483511891
  0
LINE
  5
2FB
100
AcDbEntity
  8
0
100
AcDbLine
 62
7
  6
CONTINUOUS
 10
4.857041791
 20
4.3341803951
 11
4.8592473486
 21
4.3330530319
  0
LINE
  5
2FC
100
AcDbEntity
  8
0
100
AcDbLine
 62
7
  6
CONTINUOUS
 10
4.8679624685
 20
4.3498908341
 11
4.8694625332
 21
4.3491219305
  0
LINE
  5
2FD
100
AcDbEntity
  8
0
100
AcDbLine
 62
7
  6
CONTINUOUS
 10
4.866482404
 20
4.350657848
 11
4.8679624685
 21
4.3498908341
  0
LINE
  5
2FE
100
AcDbEntity
  8
0
100
AcDbLine
 62
7
  6
CONTINUOUS
 10
4.8548658193
 20
4.3353092881
 11
4.857041791
 21
4.3341803951
  0
LINE
  5
2FF
100
AcDbEntity
  8
0
100
AcDbLine
 62
7
  6
CONTINUOUS
 10
4.8650218749
 20
4.3514229304
 11
4.866482404
 21
4.350657848
  0
LINE
  5
300
100
AcDbEntity
  8
0
100
AcDbLine
 62
7
  6
CONTINUOUS
 10
4.8527199877
 20
4.3364388497
 11
4.8548658193
 21
4.3353092881
  0
LINE
  5
301
100
AcDbEntity
  8
0
100
AcDbLine
 62
7
  6
CONTINUOUS
 10
4.8628669111
 20
4.3525667528
 11
4.8650218749
 21
4.3514229304
  0
LINE
  5
302
100
AcDbEntity
  8
0
100
AcDbLine
 62
7
  6
CONTINUOUS
 10
4.8506048344
 20
4.3375682099
 11
4.8527199877
 21
4.3364388497
  0
LINE
  5
303
100
AcDbEntity
  8
0
100
AcDbLine
 62
7
  6
CONTINUOUS
 10
4.8607536399
 20
4.3537059144
 11
4.8628669111
 21
4.3525667528
  0
LINE
  5
304
100
AcDbEntity
  8
0
100
AcDbLine
 62
7
  6
CONTINUOUS
 10
4.8485208899
 20
4.3386964869
 11
4.8506048344
 21
4.3375682099
  0
LINE
  5
305
100
AcDbEntity
  8
0
100
AcDbLine
 62
7
  6
CONTINUOUS
 10
4.8586806627
 20
4.3548403153
 11
4.8607536399
 21
4.3537059144
  0
LINE
  5
306
100
AcDbEntity
  8
0
100
AcDbLine
 62
7
  6
CONTINUOUS
 10
4.8464686725
 20
4.3398227893
 11
4.8485208899
 21
4.3386964869
  0
LINE
  5
307
100
AcDbEntity
  8
0
100
AcDbLine
 62
7
  6
CONTINUOUS
 10
4.8566465971
 20
4.3559698958
 11
4.8586806627
 21
4.3548403153
  0
LINE
  5
308
100
AcDbEntity
  8
0
100
AcDbLine
 62
7
  6
CONTINUOUS
 10
4.8444486725
 20
4.3409462246
 11
4.8464686725
 21
4.3398227893
  0
LINE
  5
309
100
AcDbEntity
  8
0
100
AcDbLine
 62
7
  6
CONTINUOUS
 10
4.8424611116
 20
4.3420660398
 11
4.8444486725
 21
4.3409462246
  0
LINE
  5
30A
100
AcDbEntity
  8
0
100
AcDbLine
 62
7
  6
CONTINUOUS
 10
4.8546500805
 20
4.3570946335
 11
4.8566465971
 21
4.3559698958
  0
LINE
  5
30B
100
AcDbEntity
  8
0
100
AcDbLine
 62
7
  6
CONTINUOUS
 10
4.8405059392
 20
4.3431816331
 11
4.8424611116
 21
4.3420660398
  0
LINE
  5
30C
100
AcDbEntity
  8
0
100
AcDbLine
 62
7
  6
CONTINUOUS
 10
4.8526898146
 20
4.3582145149
 11
4.8546500805
 21
4.3570946335
  0
LINE
  5
30D
100
AcDbEntity
  8
0
100
AcDbLine
 62
7
  6
CONTINUOUS
 10
4.8385830798
 20
4.344292416
 11
4.8405059392
 21
4.3431816331
  0
LINE
  5
30E
100
AcDbEntity
  8
0
100
AcDbLine
 62
7
  6
CONTINUOUS
 10
4.8507645926
 20
4.3593295167
 11
4.8526898146
 21
4.3582145149
  0
LINE
  5
30F
100
AcDbEntity
  8
0
100
AcDbLine
 62
7
  6
CONTINUOUS
 10
4.8366924523
 20
4.3453978056
 11
4.8385830798
 21
4.344292416
  0
LINE
  5
310
100
AcDbEntity
  8
0
100
AcDbLine
 62
7
  6
CONTINUOUS
 10
4.8488732286
 20
4.3604396444
 11
4.8507645926
 21
4.3593295167
  0
LINE
  5
311
100
AcDbEntity
  8
0
100
AcDbLine
 62
7
  6
CONTINUOUS
 10
4.8348339832
 20
4.3464972222
 11
4.8366924523
 21
4.3453978056
  0
LINE
  5
312
100
AcDbEntity
  8
0
100
AcDbLine
 62
7
  6
CONTINUOUS
 10
4.8470145524
 20
4.3615449344
 11
4.8488732286
 21
4.3604396444
  0
LINE
  5
313
100
AcDbEntity
  8
0
100
AcDbLine
 62
7
  6
CONTINUOUS
 10
4.8330075865
 20
4.3475900895
 11
4.8348339832
 21
4.3464972222
  0
LINE
  5
314
100
AcDbEntity
  8
0
100
AcDbLine
 62
7
  6
CONTINUOUS
 10
4.8451874039
 20
4.362645454
 11
4.8470145524
 21
4.3615449344
  0
LINE
  5
315
100
AcDbEntity
  8
0
100
AcDbLine
 62
7
  6
CONTINUOUS
 10
4.8312131697
 20
4.348675837
 11
4.8330075865
 21
4.3475900895
  0
LINE
  5
316
100
AcDbEntity
  8
0
100
AcDbLine
 62
7
  6
CONTINUOUS
 10
4.8433906312
 20
4.3637413001
 11
4.8451874039
 21
4.362645454
  0
LINE
  5
317
100
AcDbEntity
  8
0
100
AcDbLine
 62
7
  6
CONTINUOUS
 10
4.8294506552
 20
4.3497538968
 11
4.8312131697
 21
4.348675837
  0
LINE
  5
318
100
AcDbEntity
  8
0
100
AcDbLine
 62
7
  6
CONTINUOUS
 10
4.8416230912
 20
4.3648325987
 11
4.8433906312
 21
4.3637413001
  0
LINE
  5
319
100
AcDbEntity
  8
0
100
AcDbLine
 62
7
  6
CONTINUOUS
 10
4.827719948
 20
4.3508237036
 11
4.8294506552
 21
4.3497538968
  0
LINE
  5
31A
100
AcDbEntity
  8
0
100
AcDbLine
 62
7
  6
CONTINUOUS
 10
4.826020826
 20
4.3518847735
 11
4.827719948
 21
4.3508237036
  0
LINE
  5
31B
100
AcDbEntity
  8
0
100
AcDbLine
 62
7
  6
CONTINUOUS
 10
4.8398836609
 20
4.3659195023
 11
4.8416230912
 21
4.3648325987
  0
LWPOLYLINE
  5
31C
100
AcDbEntity
  8
0
100
AcDbPolyline
 62
7
  6
CONTINUOUS
 90
11
 70
0
 10
4.7882410859
 20
4.403827948
 10
4.7882449318
 20
4.4038255259
 10
4.7882718649
 20
4.4038082938
 10
4.7883161044
 20
4.4037793497
 10
4.7883744112
 20
4.4037403951
 10
4.7884461704
 20
4.4036915184
 10
4.7885319179
 20
4.4036320428
 10
4.788629865
 20
4.4035629284
 10
4.7887388341
 20
4.4034847849
 10
4.7888598113
 20
4.4033966939
 10
4.7889940856
 20
4.4032975792
  0
LINE
  5
31D
100
AcDbEntity
  8
0
100
AcDbLine
 62
7
  6
CONTINUOUS
 10
4.8243529801
 20
4.3529366976
 11
4.826020826
 21
4.3518847735
  0
LINE
  5
31E
100
AcDbEntity
  8
0
100
AcDbLine
 62
7
  6
CONTINUOUS
 10
4.8381712343
 20
4.3670021881
 11
4.8398836609
 21
4.3659195023
  0
LINE
  5
31F
100
AcDbEntity
  8
0
100
AcDbLine
 62
7
  6
CONTINUOUS
 10
4.8221772632
 20
4.3543243353
 11
4.8243529801
 21
4.3529366976
  0
LINE
  5
320
100
AcDbEntity
  8
0
100
AcDbLine
 62
7
  6
CONTINUOUS
 10
4.8364847076
 20
4.3680808602
 11
4.8381712343
 21
4.3670021881
  0
LINE
  5
321
100
AcDbEntity
  8
0
100
AcDbLine
 62
7
  6
CONTINUOUS
 10
4.8200558089
 20
4.355694051
 11
4.8221772632
 21
4.3543243353
  0
LINE
  5
322
100
AcDbEntity
  8
0
100
AcDbLine
 62
7
  6
CONTINUOUS
 10
4.8348230089
 20
4.3691557298
 11
4.8364847076
 21
4.3680808602
  0
LINE
  5
323
100
AcDbEntity
  8
0
100
AcDbLine
 62
7
  6
CONTINUOUS
 10
4.7908695067
 20
4.3756938507
 11
4.7913263391
 21
4.3753980123
  0
LINE
  5
324
100
AcDbEntity
  8
0
100
AcDbLine
 62
7
  6
CONTINUOUS
 10
4.8179878622
 20
4.3570449109
 11
4.8200558089
 21
4.355694051
  0
LINE
  5
325
100
AcDbEntity
  8
0
100
AcDbLine
 62
7
  6
CONTINUOUS
 10
4.8331854307
 20
4.3702268013
 11
4.8348230089
 21
4.3691557298
  0
LINE
  5
326
100
AcDbEntity
  8
0
100
AcDbLine
 62
7
  6
CONTINUOUS
 10
4.7913263391
 20
4.3753980123
 11
4.7918208872
 21
4.3750726976
  0
LINE
  5
327
100
AcDbEntity
  8
0
100
AcDbLine
 62
7
  6
CONTINUOUS
 10
4.8159727074
 20
4.3583759814
 11
4.8179878622
 21
4.3570449109
  0
LINE
  5
328
100
AcDbEntity
  8
0
100
AcDbLine
 62
7
  6
CONTINUOUS
 10
4.8315718978
 20
4.3712936877
 11
4.8331854307
 21
4.3702268013
  0
LINE
  5
329
100
AcDbEntity
  8
0
100
AcDbLine
 62
7
  6
CONTINUOUS
 10
4.8140096803
 20
4.3596862861
 11
4.8159727074
 21
4.3583759814
  0
LINE
  5
32A
100
AcDbEntity
  8
0
100
AcDbLine
 62
7
  6
CONTINUOUS
 10
4.8299824321
 20
4.3723559319
 11
4.8315718978
 21
4.3712936877
  0
LINE
  5
32B
100
AcDbEntity
  8
0
100
AcDbLine
 62
7
  6
CONTINUOUS
 10
4.7918208872
 20
4.3750726976
 11
4.7923411261
 21
4.3747249172
  0
LINE
  5
32C
100
AcDbEntity
  8
0
100
AcDbLine
 62
7
  6
CONTINUOUS
 10
4.8120981452
 20
4.360974856
 11
4.8140096803
 21
4.3596862861
  0
LINE
  5
32D
100
AcDbEntity
  8
0
100
AcDbLine
 62
7
  6
CONTINUOUS
 10
4.8284170253
 20
4.3734130869
 11
4.8299824321
 21
4.3723559319
  0
LINE
  5
32E
100
AcDbEntity
  8
0
100
AcDbLine
 62
7
  6
CONTINUOUS
 10
4.7923411261
 20
4.3747249172
 11
4.7928922054
 21
4.3743509407
  0
LINE
  5
32F
100
AcDbEntity
  8
0
100
AcDbLine
 62
7
  6
CONTINUOUS
 10
4.809780716
 20
4.3625530821
 11
4.8120981452
 21
4.360974856
  0
LINE
  5
330
100
AcDbEntity
  8
0
100
AcDbLine
 62
7
  6
CONTINUOUS
 10
4.8268756586
 20
4.3744647094
 11
4.8284170253
 21
4.3734130869
  0
LINE
  5
331
100
AcDbEntity
  8
0
100
AcDbLine
 62
7
  6
CONTINUOUS
 10
4.7928922054
 20
4.3743509407
 11
4.7937696867
 21
4.3737488196
  0
LINE
  5
332
100
AcDbEntity
  8
0
100
AcDbLine
 62
7
  6
CONTINUOUS
 10
4.8075449202
 20
4.3640914479
 11
4.809780716
 21
4.3625530821
  0
LINE
  5
333
100
AcDbEntity
  8
0
100
AcDbLine
 62
7
  6
CONTINUOUS
 10
4.8253583351
 20
4.3755103621
 11
4.8268756586
 21
4.3744647094
  0
LINE
  5
334
100
AcDbEntity
  8
0
100
AcDbLine
 62
7
  6
CONTINUOUS
 10
4.7937696867
 20
4.3737488196
 11
4.7946907917
 21
4.3731106498
  0
LINE
  5
335
100
AcDbEntity
  8
0
100
AcDbLine
 62
7
  6
CONTINUOUS
 10
4.8049731141
 20
4.3658782915
 11
4.8075449202
 21
4.3640914479
  0
LINE
  5
336
100
AcDbEntity
  8
0
100
AcDbLine
 62
7
  6
CONTINUOUS
 10
4.8238650524
 20
4.3765496034
 11
4.8253583351
 21
4.3755103621
  0
LINE
  5
337
100
AcDbEntity
  8
0
100
AcDbLine
 62
7
  6
CONTINUOUS
 10
4.7946907917
 20
4.3731106498
 11
4.7969874535
 21
4.3714999655
  0
LINE
  5
338
100
AcDbEntity
  8
0
100
AcDbLine
 62
7
  6
CONTINUOUS
 10
4.8013534777
 20
4.3684183264
 11
4.8049731141
 21
4.3658782915
  0
LINE
  5
339
100
AcDbEntity
  8
0
100
AcDbLine
 62
7
  6
CONTINUOUS
 10
4.8223957889
 20
4.3775819874
 11
4.8238650524
 21
4.3765496034
  0
LINE
  5
33A
100
AcDbEntity
  8
0
100
AcDbLine
 62
7
  6
CONTINUOUS
 10
4.7969874535
 20
4.3714999655
 11
4.8013534777
 21
4.3684183264
  0
LINE
  5
33B
100
AcDbEntity
  8
0
100
AcDbLine
 62
7
  6
CONTINUOUS
 10
4.8204740716
 20
4.3789470696
 11
4.8223957889
 21
4.3775819874
  0
LINE
  5
33C
100
AcDbEntity
  8
0
100
AcDbLine
 62
7
  6
CONTINUOUS
 10
4.818594995
 20
4.38029814
 11
4.8204740716
 21
4.3789470696
  0
LINE
  5
33D
100
AcDbEntity
  8
0
100
AcDbLine
 62
7
  6
CONTINUOUS
 10
4.8167585359
 20
4.3816341278
 11
4.818594995
 21
4.38029814
  0
LINE
  5
33E
100
AcDbEntity
  8
0
100
AcDbLine
 62
7
  6
CONTINUOUS
 10
4.8149645642
 20
4.3829539817
 11
4.8167585359
 21
4.3816341278
  0
LINE
  5
33F
100
AcDbEntity
  8
0
100
AcDbLine
 62
7
  6
CONTINUOUS
 10
4.8132127477
 20
4.3842569382
 11
4.8149645642
 21
4.3829539817
  0
LINE
  5
340
100
AcDbEntity
  8
0
100
AcDbLine
 62
7
  6
CONTINUOUS
 10
4.7889940856
 20
4.4032975792
 11
4.7893048774
 21
4.4030646545
  0
LINE
  5
341
100
AcDbEntity
  8
0
100
AcDbLine
 62
7
  6
CONTINUOUS
 10
4.8115024939
 20
4.3855423216
 11
4.8132127477
 21
4.3842569382
  0
LINE
  5
342
100
AcDbEntity
  8
0
100
AcDbLine
 62
7
  6
CONTINUOUS
 10
4.8098331094
 20
4.3868094785
 11
4.8115024939
 21
4.3855423216
  0
LINE
  5
343
100
AcDbEntity
  8
0
100
AcDbLine
 62
7
  6
CONTINUOUS
 10
4.7893048774
 20
4.4030646545
 11
4.789654817
 21
4.4027987132
  0
LINE
  5
344
100
AcDbEntity
  8
0
100
AcDbLine
 62
7
  6
CONTINUOUS
 10
4.8082041664
 20
4.3880578086
 11
4.8098331094
 21
4.3868094785
  0
LINE
  5
345
100
AcDbEntity
  8
0
100
AcDbLine
 62
7
  6
CONTINUOUS
 10
4.789654817
 20
4.4027987132
 11
4.7900366535
 21
4.4025055028
  0
LINE
  5
346
100
AcDbEntity
  8
0
100
AcDbLine
 62
7
  6
CONTINUOUS
 10
4.806224081
 20
4.3895904577
 11
4.8082041664
 21
4.3880578086
  0
LINE
  5
347
100
AcDbEntity
  8
0
100
AcDbLine
 62
7
  6
CONTINUOUS
 10
4.7900366535
 20
4.4025055028
 11
4.7904396459
 21
4.4021928953
  0
LINE
  5
348
100
AcDbEntity
  8
0
100
AcDbLine
 62
7
  6
CONTINUOUS
 10
4.8043055477
 20
4.391090917
 11
4.806224081
 21
4.3895904577
  0
LINE
  5
349
100
AcDbEntity
  8
0
100
AcDbLine
 62
7
  6
CONTINUOUS
 10
4.7904396459
 20
4.4021928953
 11
4.7908692687
 21
4.4018555694
  0
LINE
  5
34A
100
AcDbEntity
  8
0
100
AcDbLine
 62
7
  6
CONTINUOUS
 10
4.8020860571
 20
4.3928444933
 11
4.8043055477
 21
4.391090917
  0
LINE
  5
34B
100
AcDbEntity
  8
0
100
AcDbLine
 62
7
  6
CONTINUOUS
 10
4.7908692687
 20
4.4018555694
 11
4.7918103855
 21
4.4011075605
  0
LINE
  5
34C
100
AcDbEntity
  8
0
100
AcDbLine
 62
7
  6
CONTINUOUS
 10
4.7996167852
 20
4.394815673
 11
4.8020860571
 21
4.3928444933
  0
LINE
  5
34D
100
AcDbEntity
  8
0
100
AcDbLine
 62
7
  6
CONTINUOUS
 10
4.7918103855
 20
4.4011075605
 11
4.7931104918
 21
4.4000657943
  0
LINE
  5
34E
100
AcDbEntity
  8
0
100
AcDbLine
 62
7
  6
CONTINUOUS
 10
4.7931104918
 20
4.4000657943
 11
4.7996167852
 21
4.394815673
  0
LINE
  5
34F
100
AcDbEntity
  8
0
100
AcDbLine
 62
7
  6
CONTINUOUS
 10
5.3552799196
 20
4.4208268634
 11
5.3548111242
 21
4.4208268634
  0
LINE
  5
350
100
AcDbEntity
  8
0
100
AcDbLine
 62
7
  6
CONTINUOUS
 10
5.4125892801
 20
4.5208268634
 11
5.4129859369
 21
4.5208268634
  0
LINE
  5
351
100
AcDbEntity
  8
0
100
AcDbLine
 62
7
  6
CONTINUOUS
 10
5.4220329226
 20
4.5458268634
 11
5.41450984
 21
4.5458268634
  0
LINE
  5
352
100
AcDbEntity
  8
0
100
AcDbLine
 62
7
  6
CONTINUOUS
 10
5.4165189563
 20
4.5520768634
 11
5.4240089885
 21
4.5520768634
  0
LINE
  5
353
100
AcDbEntity
  8
0
100
AcDbLine
 62
7
  6
CONTINUOUS
 10
5.4268827911
 20
4.5791601977
 11
5.4278182139
 21
4.5791601977
  0
LINE
  5
354
100
AcDbEntity
  8
0
100
AcDbLine
 62
7
  6
CONTINUOUS
 10
5.4249353924
 20
4.5833268634
 11
5.4258445384
 21
4.5833268634
  0
LINE
  5
355
100
AcDbEntity
  8
0
100
AcDbLine
 62
7
  6
CONTINUOUS
 10
5.4340152869
 20
4.5916601977
 11
5.4267239025
 21
4.5916601977
  0
LINE
  5
356
100
AcDbEntity
  8
0
100
AcDbLine
 62
7
  6
CONTINUOUS
 10
5.4279431908
 20
4.5979101947
 11
5.4342584385
 21
4.5979101947
  0
LINE
  5
357
100
AcDbEntity
  8
0
100
AcDbLine
 62
7
  6
CONTINUOUS
 10
5.4387460893
 20
4.6291601947
 11
5.4396892269
 21
4.6291601947
  0
LINE
  5
358
100
AcDbEntity
  8
0
100
AcDbLine
 62
7
  6
CONTINUOUS
 10
5.1682506832
 20
4.3325760927
 11
5.1700957516
 21
4.3332798759
  0
LINE
  5
359
100
AcDbEntity
  8
0
100
AcDbLine
 62
7
  6
CONTINUOUS
 10
5.1663890386
 20
4.3318773456
 11
5.1682506832
 21
4.3325760927
  0
LINE
  5
35A
100
AcDbEntity
  8
0
100
AcDbLine
 62
7
  6
CONTINUOUS
 10
5.164510813
 20
4.3311838727
 11
5.1663890386
 21
4.3318773456
  0
LINE
  5
35B
100
AcDbEntity
  8
0
100
AcDbLine
 62
7
  6
CONTINUOUS
 10
5.1626160142
 20
4.3304959156
 11
5.164510813
 21
4.3311838727
  0
LINE
  5
35C
100
AcDbEntity
  8
0
100
AcDbLine
 62
7
  6
CONTINUOUS
 10
5.1607046518
 20
4.3298137167
 11
5.1626160142
 21
4.3304959156
  0
LINE
  5
35D
100
AcDbEntity
  8
0
100
AcDbLine
 62
7
  6
CONTINUOUS
 10
5.1587767279
 20
4.3291375169
 11
5.1607046518
 21
4.3298137167
  0
LINE
  5
35E
100
AcDbEntity
  8
0
100
AcDbLine
 62
7
  6
CONTINUOUS
 10
5.1568322568
 20
4.3284675622
 11
5.1587767279
 21
4.3291375169
  0
LINE
  5
35F
100
AcDbEntity
  8
0
100
AcDbLine
 62
7
  6
CONTINUOUS
 10
5.1548712549
 20
4.3278041006
 11
5.1568322568
 21
4.3284675622
  0
LINE
  5
360
100
AcDbEntity
  8
0
100
AcDbLine
 62
7
  6
CONTINUOUS
 10
5.1528937309
 20
4.3271473783
 11
5.1548712549
 21
4.3278041006
  0
LINE
  5
361
100
AcDbEntity
  8
0
100
AcDbLine
 62
7
  6
CONTINUOUS
 10
5.150899706
 20
4.3264976467
 11
5.1528937309
 21
4.3271473783
  0
LINE
  5
362
100
AcDbEntity
  8
0
100
AcDbLine
 62
7
  6
CONTINUOUS
 10
5.1488892038
 20
4.3258551584
 11
5.150899706
 21
4.3264976467
  0
LINE
  5
363
100
AcDbEntity
  8
0
100
AcDbLine
 62
7
  6
CONTINUOUS
 10
5.1468622407
 20
4.3252201617
 11
5.1488892038
 21
4.3258551584
  0
LINE
  5
364
100
AcDbEntity
  8
0
100
AcDbLine
 62
7
  6
CONTINUOUS
 10
5.1448188459
 20
4.3245929093
 11
5.1468622407
 21
4.3252201617
  0
LINE
  5
365
100
AcDbEntity
  8
0
100
AcDbLine
 62
7
  6
CONTINUOUS
 10
5.1427590511
 20
4.3239736552
 11
5.1448188459
 21
4.3245929093
  0
LINE
  5
366
100
AcDbEntity
  8
0
100
AcDbLine
 62
7
  6
CONTINUOUS
 10
5.14068288
 20
4.3233626521
 11
5.1427590511
 21
4.3239736552
  0
LINE
  5
367
100
AcDbEntity
  8
0
100
AcDbLine
 62
7
  6
CONTINUOUS
 10
5.1385903696
 20
4.3227601575
 11
5.14068288
 21
4.3233626521
  0
LINE
  5
368
100
AcDbEntity
  8
0
100
AcDbLine
 62
7
  6
CONTINUOUS
 10
5.2753417927
 20
4.3947043816
 11
5.2826659556
 21
4.4006117871
  0
LINE
  5
369
100
AcDbEntity
  8
0
100
AcDbLine
 62
7
  6
CONTINUOUS
 10
5.2826659556
 20
4.4006117871
 11
5.2838738981
 21
4.4015752178
  0
LINE
  5
36A
100
AcDbEntity
  8
0
100
AcDbLine
 62
7
  6
CONTINUOUS
 10
5.2728581534
 20
4.3927230332
 11
5.2753417927
 21
4.3947043816
  0
LINE
  5
36B
100
AcDbEntity
  8
0
100
AcDbLine
 62
7
  6
CONTINUOUS
 10
5.2838738981
 20
4.4015752178
 11
5.2844291222
 21
4.4020139557
  0
LINE
  5
36C
100
AcDbEntity
  8
0
100
AcDbLine
 62
7
  6
CONTINUOUS
 10
5.2707118718
 20
4.3910282494
 11
5.2728581534
 21
4.3927230332
  0
LINE
  5
36D
100
AcDbEntity
  8
0
100
AcDbLine
 62
7
  6
CONTINUOUS
 10
5.2689484222
 20
4.3896490429
 11
5.2707118718
 21
4.3910282494
  0
LINE
  5
36E
100
AcDbEntity
  8
0
100
AcDbLine
 62
7
  6
CONTINUOUS
 10
5.2844291222
 20
4.4020139557
 11
5.2849458354
 21
4.4024174069
  0
LINE
  5
36F
100
AcDbEntity
  8
0
100
AcDbLine
 62
7
  6
CONTINUOUS
 10
5.2671459019
 20
4.3882526014
 11
5.2689484222
 21
4.3896490429
  0
LINE
  5
370
100
AcDbEntity
  8
0
100
AcDbLine
 62
7
  6
CONTINUOUS
 10
5.2849458354
 20
4.4024174069
 11
5.2854279018
 21
4.4027888061
  0
LINE
  5
371
100
AcDbEntity
  8
0
100
AcDbLine
 62
7
  6
CONTINUOUS
 10
5.2653062901
 20
4.3868416619
 11
5.2671459019
 21
4.3882526014
  0
LWPOLYLINE
  5
372
100
AcDbEntity
  8
0
100
AcDbPolyline
 62
7
  6
CONTINUOUS
 90
8
 70
0
 10
5.2854279018
 20
4.4027888061
 10
5.285854328
 20
4.4031125325
 10
5.2860439432
 20
4.4032542438
 10
5.2862168827
 20
4.4033816538
 10
5.2863743879
 20
4.4034959184
 10
5.2865149333
 20
4.4035962381
 10
5.2866330662
 20
4.4036791082
 10
5.2866560625
 20
4.4036950553
  0
LINE
  5
373
100
AcDbEntity
  8
0
100
AcDbLine
 62
7
  6
CONTINUOUS
 10
5.2634312509
 20
4.3854188787
 11
5.2653062901
 21
4.3868416619
  0
LINE
  5
374
100
AcDbEntity
  8
0
100
AcDbLine
 62
7
  6
CONTINUOUS
 10
5.2615225675
 20
4.3839866093
 11
5.2634312509
 21
4.3854188787
  0
LINE
  5
375
100
AcDbEntity
  8
0
100
AcDbLine
 62
7
  6
CONTINUOUS
 10
5.2595818781
 20
4.3825472122
 11
5.2615225675
 21
4.3839866093
  0
LINE
  5
376
100
AcDbEntity
  8
0
100
AcDbLine
 62
7
  6
CONTINUOUS
 10
5.258106393
 20
4.3814642696
 11
5.2595818781
 21
4.3825472122
  0
LINE
  5
377
100
AcDbEntity
  8
0
100
AcDbLine
 62
7
  6
CONTINUOUS
 10
5.256614079
 20
4.3803790549
 11
5.258106393
 21
4.3814642696
  0
LINE
  5
378
100
AcDbEntity
  8
0
100
AcDbLine
 62
7
  6
CONTINUOUS
 10
5.2551047466
 20
4.3792918051
 11
5.256614079
 21
4.3803790549
  0
LINE
  5
379
100
AcDbEntity
  8
0
100
AcDbLine
 62
7
  6
CONTINUOUS
 10
5.2535782139
 20
4.3782027109
 11
5.2551047466
 21
4.3792918051
  0
LINE
  5
37A
100
AcDbEntity
  8
0
100
AcDbLine
 62
7
  6
CONTINUOUS
 10
5.252034244
 20
4.3771119493
 11
5.2535782139
 21
4.3782027109
  0
LINE
  5
37B
100
AcDbEntity
  8
0
100
AcDbLine
 62
7
  6
CONTINUOUS
 10
5.2708707525
 20
4.3664001001
 11
5.279818462
 21
4.3726997526
  0
LINE
  5
37C
100
AcDbEntity
  8
0
100
AcDbLine
 62
7
  6
CONTINUOUS
 10
5.2504725852
 20
4.3760197036
 11
5.252034244
 21
4.3771119493
  0
LINE
  5
37D
100
AcDbEntity
  8
0
100
AcDbLine
 62
7
  6
CONTINUOUS
 10
5.279818462
 20
4.3726997526
 11
5.2810100809
 21
4.3735299366
  0
LINE
  5
37E
100
AcDbEntity
  8
0
100
AcDbLine
 62
7
  6
CONTINUOUS
 10
5.2682017728
 20
4.3645410176
 11
5.2708707525
 21
4.3664001001
  0
LINE
  5
37F
100
AcDbEntity
  8
0
100
AcDbLine
 62
7
  6
CONTINUOUS
 10
5.2488930042
 20
4.374926144
 11
5.2504725852
 21
4.3760197036
  0
LINE
  5
380
100
AcDbEntity
  8
0
100
AcDbLine
 62
7
  6
CONTINUOUS
 10
5.2658436862
 20
4.362914452
 11
5.2682017728
 21
4.3645410176
  0
LINE
  5
381
100
AcDbEntity
  8
0
100
AcDbLine
 62
7
  6
CONTINUOUS
 10
5.2810100809
 20
4.3735299366
 11
5.2818580066
 21
4.3741135483
  0
LINE
  5
382
100
AcDbEntity
  8
0
100
AcDbLine
 62
7
  6
CONTINUOUS
 10
5.2472952571
 20
4.3738314295
 11
5.2488930042
 21
4.374926144
  0
LINE
  5
383
100
AcDbEntity
  8
0
100
AcDbLine
 62
7
  6
CONTINUOUS
 10
5.2634257186
 20
4.3612640959
 11
5.2658436862
 21
4.362914452
  0
LINE
  5
384
100
AcDbEntity
  8
0
100
AcDbLine
 62
7
  6
CONTINUOUS
 10
5.2818580066
 20
4.3741135483
 11
5.2826604243
 21
4.3746598459
  0
LINE
  5
385
100
AcDbEntity
  8
0
100
AcDbLine
 62
7
  6
CONTINUOUS
 10
5.2456790703
 20
4.3727357253
 11
5.2472952571
 21
4.3738314295
  0
LINE
  5
386
100
AcDbEntity
  8
0
100
AcDbLine
 62
7
  6
CONTINUOUS
 10
5.2613682192
 20
4.3598747101
 11
5.2634257186
 21
4.3612640959
  0
LWPOLYLINE
  5
387
100
AcDbEntity
  8
0
100
AcDbPolyline
 62
7
  6
CONTINUOUS
 90
3
 70
0
 10
5.2826604243
 20
4.3746598459
 10
5.2831584812
 20
4.37499473
 10
5.2833971383
 20
4.3751533344
  0
LINE
  5
388
100
AcDbEntity
  8
0
100
AcDbLine
 62
7
  6
CONTINUOUS
 10
5.2440441775
 20
4.3716391964
 11
5.2456790703
 21
4.3727357253
  0
LINE
  5
389
100
AcDbEntity
  8
0
100
AcDbLine
 62
7
  6
CONTINUOUS
 10
5.2592735321
 20
4.3584749627
 11
5.2613682192
 21
4.3598747101
  0
LINE
  5
38A
100
AcDbEntity
  8
0
100
AcDbLine
 62
7
  6
CONTINUOUS
 10
5.2423903208
 20
4.3705420044
 11
5.2440441775
 21
4.3716391964
  0
LINE
  5
38B
100
AcDbEntity
  8
0
100
AcDbLine
 62
7
  6
CONTINUOUS
 10
5.2571417326
 20
4.3570661714
 11
5.2592735321
 21
4.3584749627
  0
LINE
  5
38C
100
AcDbEntity
  8
0
100
AcDbLine
 62
7
  6
CONTINUOUS
 10
5.2407172262
 20
4.3694443118
 11
5.2423903208
 21
4.3705420044
  0
LINE
  5
38D
100
AcDbEntity
  8
0
100
AcDbLine
 62
7
  6
CONTINUOUS
 10
5.2833971383
 20
4.3751533344
 11
5.2838547128
 21
4.3754531186
  0
LINE
  5
38E
100
AcDbEntity
  8
0
100
AcDbLine
 62
7
  6
CONTINUOUS
 10
5.2554096175
 20
4.3559334326
 11
5.2571417326
 21
4.3570661714
  0
LINE
  5
38F
100
AcDbEntity
  8
0
100
AcDbLine
 62
7
  6
CONTINUOUS
 10
5.2390246102
 20
4.3683462874
 11
5.2407172262
 21
4.3694443118
  0
LINE
  5
390
100
AcDbEntity
  8
0
100
AcDbLine
 62
7
  6
CONTINUOUS
 10
5.2536537304
 20
4.3547962252
 11
5.2554096175
 21
4.3559334326
  0
LWPOLYLINE
  5
391
100
AcDbEntity
  8
0
100
AcDbPolyline
 62
7
  6
CONTINUOUS
 90
11
 70
0
 10
5.2838547128
 20
4.3754531186
 10
5.2842826514
 20
4.375728579
 10
5.2844850418
 20
4.375857072
 10
5.2846742695
 20
4.3759759508
 10
5.2848492318
 20
4.3760845203
 10
5.2850100227
 20
4.376182791
 10
5.2851531052
 20
4.376268556
 10
5.2852773721
 20
4.3763413301
 10
5.2853830201
 20
4.376401657
 10
5.2854687605
 20
4.3764493047
 10
5.2854848323
 20
4.3764580763
  0
LINE
  5
392
100
AcDbEntity
  8
0
100
AcDbLine
 62
7
  6
CONTINUOUS
 10
5.2373121955
 20
4.3672481027
 11
5.2390246102
 21
4.3683462874
  0
LINE
  5
393
100
AcDbEntity
  8
0
100
AcDbLine
 62
7
  6
CONTINUOUS
 10
5.2518740382
 20
4.3536550815
 11
5.2536537304
 21
4.3547962252
  0
LINE
  5
394
100
AcDbEntity
  8
0
100
AcDbLine
 62
7
  6
CONTINUOUS
 10
5.2500704736
 20
4.3525104955
 11
5.2518740382
 21
4.3536550815
  0
LINE
  5
395
100
AcDbEntity
  8
0
100
AcDbLine
 62
7
  6
CONTINUOUS
 10
5.2355797088
 20
4.3661499321
 11
5.2373121955
 21
4.3672481027
  0
LINE
  5
396
100
AcDbEntity
  8
0
100
AcDbLine
 62
7
  6
CONTINUOUS
 10
5.248242943
 20
4.3513629518
 11
5.2500704736
 21
4.3525104955
  0
LINE
  5
397
100
AcDbEntity
  8
0
100
AcDbLine
 62
7
  6
CONTINUOUS
 10
5.233826866
 20
4.3650519543
 11
5.2355797088
 21
4.3661499321
  0
LINE
  5
398
100
AcDbEntity
  8
0
100
AcDbLine
 62
7
  6
CONTINUOUS
 10
5.2463913765
 20
4.3502129142
 11
5.248242943
 21
4.3513629518
  0
LINE
  5
399
100
AcDbEntity
  8
0
100
AcDbLine
 62
7
  6
CONTINUOUS
 10
5.232053379
 20
4.3639543546
 11
5.233826866
 21
4.3650519543
  0
LINE
  5
39A
100
AcDbEntity
  8
0
100
AcDbLine
 62
7
  6
CONTINUOUS
 10
5.2445156689
 20
4.3490608355
 11
5.2463913765
 21
4.3502129142
  0
LINE
  5
39B
100
AcDbEntity
  8
0
100
AcDbLine
 62
7
  6
CONTINUOUS
 10
5.2302589641
 20
4.3628573242
 11
5.232053379
 21
4.3639543546
  0
LINE
  5
39C
100
AcDbEntity
  8
0
100
AcDbLine
 62
7
  6
CONTINUOUS
 10
5.2426157221
 20
4.3479071622
 11
5.2445156689
 21
4.3490608355
  0
LINE
  5
39D
100
AcDbEntity
  8
0
100
AcDbLine
 62
7
  6
CONTINUOUS
 10
5.2284433415
 20
4.3617610609
 11
5.2302589641
 21
4.3628573242
  0
LINE
  5
39E
100
AcDbEntity
  8
0
100
AcDbLine
 62
7
  6
CONTINUOUS
 10
5.2406914466
 20
4.3467523311
 11
5.2426157221
 21
4.3479071622
  0
LINE
  5
39F
100
AcDbEntity
  8
0
100
AcDbLine
 62
7
  6
CONTINUOUS
 10
5.2266062254
 20
4.3606657676
 11
5.2284433415
 21
4.3617610609
  0
LINE
  5
3A0
100
AcDbEntity
  8
0
100
AcDbLine
 62
7
  6
CONTINUOUS
 10
5.2387427333
 20
4.3455967762
 11
5.2406914466
 21
4.3467523311
  0
LINE
  5
3A1
100
AcDbEntity
  8
0
100
AcDbLine
 62
7
  6
CONTINUOUS
 10
5.2247473274
 20
4.359571655
 11
5.2266062254
 21
4.3606657676
  0
LINE
  5
3A2
100
AcDbEntity
  8
0
100
AcDbLine
 62
7
  6
CONTINUOUS
 10
5.236769486
 20
4.3444409288
 11
5.2387427333
 21
4.3455967762
  0
LINE
  5
3A3
100
AcDbEntity
  8
0
100
AcDbLine
 62
7
  6
CONTINUOUS
 10
5.2228663628
 20
4.3584789419
 11
5.2247473274
 21
4.359571655
  0
LINE
  5
3A4
100
AcDbEntity
  8
0
100
AcDbLine
 62
7
  6
CONTINUOUS
 10
5.2347716132
 20
4.3432852177
 11
5.236769486
 21
4.3444409288
  0
LINE
  5
3A5
100
AcDbEntity
  8
0
100
AcDbLine
 62
7
  6
CONTINUOUS
 10
5.2209630504
 20
4.3573878551
 11
5.2228663628
 21
4.3584789419
  0
LINE
  5
3A6
100
AcDbEntity
  8
0
100
AcDbLine
 62
7
  6
CONTINUOUS
 10
5.2327490145
 20
4.3421300708
 11
5.2347716132
 21
4.3432852177
  0
LINE
  5
3A7
100
AcDbEntity
  8
0
100
AcDbLine
 62
7
  6
CONTINUOUS
 10
5.2190371037
 20
4.3562986264
 11
5.2209630504
 21
4.3573878551
  0
LINE
  5
3A8
100
AcDbEntity
  8
0
100
AcDbLine
 62
7
  6
CONTINUOUS
 10
5.2307016012
 20
4.3409759174
 11
5.2327490145
 21
4.3421300708
  0
LINE
  5
3A9
100
AcDbEntity
  8
0
100
AcDbLine
 62
7
  6
CONTINUOUS
 10
5.2170875015
 20
4.355211089
 11
5.2190371037
 21
4.3562986264
  0
LINE
  5
3AA
100
AcDbEntity
  8
0
100
AcDbLine
 62
7
  6
CONTINUOUS
 10
5.2286292756
 20
4.339823179
 11
5.2307016012
 21
4.3409759174
  0
LINE
  5
3AB
100
AcDbEntity
  8
0
100
AcDbLine
 62
7
  6
CONTINUOUS
 10
5.2151117453
 20
4.3541243002
 11
5.2170875015
 21
4.355211089
  0
LINE
  5
3AC
100
AcDbEntity
  8
0
100
AcDbLine
 62
7
  6
CONTINUOUS
 10
5.2265318298
 20
4.3386722193
 11
5.2286292756
 21
4.339823179
  0
LINE
  5
3AD
100
AcDbEntity
  8
0
100
AcDbLine
 62
7
  6
CONTINUOUS
 10
5.2249421751
 20
4.3378104085
 11
5.2265318298
 21
4.3386722193
  0
LINE
  5
3AE
100
AcDbEntity
  8
0
100
AcDbLine
 62
7
  6
CONTINUOUS
 10
5.2131071352
 20
4.3530372859
 11
5.2151117453
 21
4.3541243002
  0
LINE
  5
3AF
100
AcDbEntity
  8
0
100
AcDbLine
 62
7
  6
CONTINUOUS
 10
5.2233382713
 20
4.3369500044
 11
5.2249421751
 21
4.3378104085
  0
LINE
  5
3B0
100
AcDbEntity
  8
0
100
AcDbLine
 62
7
  6
CONTINUOUS
 10
5.2110709383
 20
4.351949139
 11
5.2131071352
 21
4.3530372859
  0
LINE
  5
3B1
100
AcDbEntity
  8
0
100
AcDbLine
 62
7
  6
CONTINUOUS
 10
5.221720074
 20
4.3360911847
 11
5.2233382713
 21
4.3369500044
  0
LINE
  5
3B2
100
AcDbEntity
  8
0
100
AcDbLine
 62
7
  6
CONTINUOUS
 10
5.2090003845
 20
4.3508590197
 11
5.2110709383
 21
4.351949139
  0
LINE
  5
3B3
100
AcDbEntity
  8
0
100
AcDbLine
 62
7
  6
CONTINUOUS
 10
5.2200875378
 20
4.3352341275
 11
5.221720074
 21
4.3360911847
  0
LINE
  5
3B4
100
AcDbEntity
  8
0
100
AcDbLine
 62
7
  6
CONTINUOUS
 10
5.2184406194
 20
4.3343790121
 11
5.2200875378
 21
4.3352341275
  0
LINE
  5
3B5
100
AcDbEntity
  8
0
100
AcDbLine
 62
7
  6
CONTINUOUS
 10
5.2068926696
 20
4.3497661606
 11
5.2090003845
 21
4.3508590197
  0
LINE
  5
3B6
100
AcDbEntity
  8
0
100
AcDbLine
 62
7
  6
CONTINUOUS
 10
5.2167792777
 20
4.3335260191
 11
5.2184406194
 21
4.3343790121
  0
LINE
  5
3B7
100
AcDbEntity
  8
0
100
AcDbLine
 62
7
  6
CONTINUOUS
 10
5.2047449572
 20
4.3486698712
 11
5.2068926696
 21
4.3497661606
  0
LINE
  5
3B8
100
AcDbEntity
  8
0
100
AcDbLine
 62
7
  6
CONTINUOUS
 10
5.2151034728
 20
4.3326753302
 11
5.2167792777
 21
4.3335260191
  0
LINE
  5
3B9
100
AcDbEntity
  8
0
100
AcDbLine
 62
7
  6
CONTINUOUS
 10
5.2134131632
 20
4.3318271263
 11
5.2151034728
 21
4.3326753302
  0
LINE
  5
3BA
100
AcDbEntity
  8
0
100
AcDbLine
 62
7
  6
CONTINUOUS
 10
5.2025543789
 20
4.3475695411
 11
5.2047449572
 21
4.3486698712
  0
LINE
  5
3BB
100
AcDbEntity
  8
0
100
AcDbLine
 62
7
  6
CONTINUOUS
 10
5.2010686812
 20
4.3468334462
 11
5.2025543789
 21
4.3475695411
  0
LINE
  5
3BC
100
AcDbEntity
  8
0
100
AcDbLine
 62
7
  6
CONTINUOUS
 10
5.2117083086
 20
4.3309815895
 11
5.2134131632
 21
4.3318271263
  0
LINE
  5
3BD
100
AcDbEntity
  8
0
100
AcDbLine
 62
7
  6
CONTINUOUS
 10
5.199562222
 20
4.3460954017
 11
5.2010686812
 21
4.3468334462
  0
LINE
  5
3BE
100
AcDbEntity
  8
0
100
AcDbLine
 62
7
  6
CONTINUOUS
 10
5.2099888707
 20
4.3301389038
 11
5.2117083086
 21
4.3309815895
  0
LINE
  5
3BF
100
AcDbEntity
  8
0
100
AcDbLine
 62
7
  6
CONTINUOUS
 10
5.1980349389
 20
4.3453556733
 11
5.199562222
 21
4.3460954017
  0
LINE
  5
3C0
100
AcDbEntity
  8
0
100
AcDbLine
 62
7
  6
CONTINUOUS
 10
5.2082548129
 20
4.3292992544
 11
5.2099888707
 21
4.3301389038
  0
LINE
  5
3C1
100
AcDbEntity
  8
0
100
AcDbLine
 62
7
  6
CONTINUOUS
 10
5.1964871772
 20
4.3446147234
 11
5.1980349389
 21
4.3453556733
  0
LINE
  5
3C2
100
AcDbEntity
  8
0
100
AcDbLine
 62
7
  6
CONTINUOUS
 10
5.2065061
 20
4.3284628279
 11
5.2082548129
 21
4.3292992544
  0
LINE
  5
3C3
100
AcDbEntity
  8
0
100
AcDbLine
 62
7
  6
CONTINUOUS
 10
5.1949192665
 20
4.3438730008
 11
5.1964871772
 21
4.3446147234
  0
LINE
  5
3C4
100
AcDbEntity
  8
0
100
AcDbLine
 62
7
  6
CONTINUOUS
 10
5.2047426963
 20
4.3276298102
 11
5.2065061
 21
4.3284628279
  0
LINE
  5
3C5
100
AcDbEntity
  8
0
100
AcDbLine
 62
7
  6
CONTINUOUS
 10
5.1933313979
 20
4.3431308843
 11
5.1949192665
 21
4.3438730008
  0
LINE
  5
3C6
100
AcDbEntity
  8
0
100
AcDbLine
 62
7
  6
CONTINUOUS
 10
5.2029645676
 20
4.3268003887
 11
5.2047426963
 21
4.3276298102
  0
LINE
  5
3C7
100
AcDbEntity
  8
0
100
AcDbLine
 62
7
  6
CONTINUOUS
 10
5.1917239025
 20
4.3423888134
 11
5.1933313979
 21
4.3431308843
  0
LINE
  5
3C8
100
AcDbEntity
  8
0
100
AcDbLine
 62
7
  6
CONTINUOUS
 10
5.2011716815
 20
4.3259747529
 11
5.2029645676
 21
4.3268003887
  0
LINE
  5
3C9
100
AcDbEntity
  8
0
100
AcDbLine
 62
7
  6
CONTINUOUS
 10
5.1900971166
 20
4.3416472234
 11
5.1917239025
 21
4.3423888134
  0
LINE
  5
3CA
100
AcDbEntity
  8
0
100
AcDbLine
 62
7
  6
CONTINUOUS
 10
5.1993640075
 20
4.3251530939
 11
5.2011716815
 21
4.3259747529
  0
LINE
  5
3CB
100
AcDbEntity
  8
0
100
AcDbLine
 62
7
  6
CONTINUOUS
 10
5.1884512446
 20
4.3409064827
 11
5.1900971166
 21
4.3416472234
  0
LINE
  5
3CC
100
AcDbEntity
  8
0
100
AcDbLine
 62
7
  6
CONTINUOUS
 10
5.1975415169
 20
4.3243356042
 11
5.1993640075
 21
4.3251530939
  0
LINE
  5
3CD
100
AcDbEntity
  8
0
100
AcDbLine
 62
7
  6
CONTINUOUS
 10
5.1867866318
 20
4.3401670184
 11
5.1884512446
 21
4.3409064827
  0
LINE
  5
3CE
100
AcDbEntity
  8
0
100
AcDbLine
 62
7
  6
CONTINUOUS
 10
5.1957041816
 20
4.3235224761
 11
5.1975415169
 21
4.3243356042
  0
LINE
  5
3CF
100
AcDbEntity
  8
0
100
AcDbLine
 62
7
  6
CONTINUOUS
 10
5.1851036292
 20
4.339429253
 11
5.1867866318
 21
4.3401670184
  0
LINE
  5
3D0
100
AcDbEntity
  8
0
100
AcDbLine
 62
7
  6
CONTINUOUS
 10
5.1938520229
 20
4.322713924
 11
5.1957041816
 21
4.3235224761
  0
LINE
  5
3D1
100
AcDbEntity
  8
0
100
AcDbLine
 62
7
  6
CONTINUOUS
 10
5.1834024554
 20
4.3386935447
 11
5.1851036292
 21
4.339429253
  0
LINE
  5
3D2
100
AcDbEntity
  8
0
100
AcDbLine
 62
7
  6
CONTINUOUS
 10
5.1919846036
 20
4.321909966
 11
5.1938520229
 21
4.322713924
  0
LINE
  5
3D3
100
AcDbEntity
  8
0
100
AcDbLine
 62
7
  6
CONTINUOUS
 10
5.1816834711
 20
4.3379603084
 11
5.1834024554
 21
4.3386935447
  0
LINE
  5
3D4
100
AcDbEntity
  8
0
100
AcDbLine
 62
7
  6
CONTINUOUS
 10
5.1901002141
 20
4.3211100953
 11
5.1919846036
 21
4.321909966
  0
LINE
  5
3D5
100
AcDbEntity
  8
0
100
AcDbLine
 62
7
  6
CONTINUOUS
 10
5.1799470434
 20
4.3372299535
 11
5.1816834711
 21
4.3379603084
  0
LINE
  5
3D6
100
AcDbEntity
  8
0
100
AcDbLine
 62
7
  6
CONTINUOUS
 10
5.1881965959
 20
4.3203136191
 11
5.1901002141
 21
4.3211100953
  0
LINE
  5
3D7
100
AcDbEntity
  8
0
100
AcDbLine
 62
7
  6
CONTINUOUS
 10
5.1781934032
 20
4.3365028258
 11
5.1799470434
 21
4.3372299535
  0
LINE
  5
3D8
100
AcDbEntity
  8
0
100
AcDbLine
 62
7
  6
CONTINUOUS
 10
5.1862714719
 20
4.3195198916
 11
5.1881965959
 21
4.3203136191
  0
LINE
  5
3D9
100
AcDbEntity
  8
0
100
AcDbLine
 62
7
  6
CONTINUOUS
 10
5.1764229589
 20
4.3357793364
 11
5.1781934032
 21
4.3365028258
  0
LINE
  5
3DA
100
AcDbEntity
  8
0
100
AcDbLine
 62
7
  6
CONTINUOUS
 10
5.184322551
 20
4.318728317
 11
5.1862714719
 21
4.3195198916
  0
LINE
  5
3DB
100
AcDbEntity
  8
0
100
AcDbLine
 62
7
  6
CONTINUOUS
 10
5.1746358938
 20
4.3350597973
 11
5.1764229589
 21
4.3357793364
  0
LINE
  5
3DC
100
AcDbEntity
  8
0
100
AcDbLine
 62
7
  6
CONTINUOUS
 10
5.1823475235
 20
4.3179383504
 11
5.184322551
 21
4.318728317
  0
LINE
  5
3DD
100
AcDbEntity
  8
0
100
AcDbLine
 62
7
  6
CONTINUOUS
 10
5.1728322668
 20
4.3343444679
 11
5.1746358938
 21
4.3350597973
  0
LINE
  5
3DE
100
AcDbEntity
  8
0
100
AcDbLine
 62
7
  6
CONTINUOUS
 10
5.1803440618
 20
4.3171494997
 11
5.1823475235
 21
4.3179383504
  0
LWPOLYLINE
  5
3DF
100
AcDbEntity
  8
0
100
AcDbPolyline
 62
7
  6
CONTINUOUS
 90
3
 70
0
 10
5.1700957516
 20
4.3332798759
 10
5.1710120668
 20
4.3336335801
 10
5.1728322668
 20
4.3343444679
  0
LINE
  5
3E0
100
AcDbEntity
  8
0
100
AcDbLine
 62
7
  6
CONTINUOUS
 10
5.1783098199
 20
4.3163613275
 11
5.1803440618
 21
4.3171494997
  0
LINE
  5
3E1
100
AcDbEntity
  8
0
100
AcDbLine
 62
7
  6
CONTINUOUS
 10
5.1762424348
 20
4.315573453
 11
5.1783098199
 21
4.3163613275
  0
LINE
  5
3E2
100
AcDbEntity
  8
0
100
AcDbLine
 62
7
  6
CONTINUOUS
 10
5.1741395254
 20
4.3147855518
 11
5.1762424348
 21
4.315573453
  0
LINE
  5
3E3
100
AcDbEntity
  8
0
100
AcDbLine
 62
7
  6
CONTINUOUS
 10
5.1719986936
 20
4.3139973588
 11
5.1741395254
 21
4.3147855518
  0
LINE
  5
3E4
100
AcDbEntity
  8
0
100
AcDbLine
 62
7
  6
CONTINUOUS
 10
5.1698175242
 20
4.3132086725
 11
5.1719986936
 21
4.3139973588
  0
LINE
  5
3E5
100
AcDbEntity
  8
0
100
AcDbLine
 62
7
  6
CONTINUOUS
 10
5.1675935857
 20
4.3124193575
 11
5.1698175242
 21
4.3132086725
  0
LINE
  5
3E6
100
AcDbEntity
  8
0
100
AcDbLine
 62
7
  6
CONTINUOUS
 10
5.1653244279
 20
4.3116293466
 11
5.1675935857
 21
4.3124193575
  0
LINE
  5
3E7
100
AcDbEntity
  8
0
100
AcDbLine
 62
7
  6
CONTINUOUS
 10
5.1630075813
 20
4.3108386428
 11
5.1653244279
 21
4.3116293466
  0
LINE
  5
3E8
100
AcDbEntity
  8
0
100
AcDbLine
 62
7
  6
CONTINUOUS
 10
5.1606408493
 20
4.3100474156
 11
5.1630075813
 21
4.3108386428
  0
LINE
  5
3E9
100
AcDbEntity
  8
0
100
AcDbLine
 62
7
  6
CONTINUOUS
 10
5.1582223429
 20
4.3092560075
 11
5.1606408493
 21
4.3100474156
  0
LINE
  5
3EA
100
AcDbEntity
  8
0
100
AcDbLine
 62
7
  6
CONTINUOUS
 10
5.156580271
 20
4.3087284895
 11
5.1582223429
 21
4.3092560075
  0
LINE
  5
3EB
100
AcDbEntity
  8
0
100
AcDbLine
 62
7
  6
CONTINUOUS
 10
5.1549140604
 20
4.3082012967
 11
5.156580271
 21
4.3087284895
  0
LINE
  5
3EC
100
AcDbEntity
  8
0
100
AcDbLine
 62
7
  6
CONTINUOUS
 10
5.1532236146
 20
4.3076747215
 11
5.1549140604
 21
4.3082012967
  0
LINE
  5
3ED
100
AcDbEntity
  8
0
100
AcDbLine
 62
7
  6
CONTINUOUS
 10
5.1515095344
 20
4.3071492732
 11
5.1532236146
 21
4.3076747215
  0
LINE
  5
3EE
100
AcDbEntity
  8
0
100
AcDbLine
 62
7
  6
CONTINUOUS
 10
5.149772136
 20
4.3066253675
 11
5.1515095344
 21
4.3071492732
  0
LINE
  5
3EF
100
AcDbEntity
  8
0
100
AcDbLine
 62
7
  6
CONTINUOUS
 10
5.1480119401
 20
4.3061034751
 11
5.149772136
 21
4.3066253675
  0
LINE
  5
3F0
100
AcDbEntity
  8
0
100
AcDbLine
 62
7
  6
CONTINUOUS
 10
5.1462294699
 20
4.3055840591
 11
5.1480119401
 21
4.3061034751
  0
LINE
  5
3F1
100
AcDbEntity
  8
0
100
AcDbLine
 62
7
  6
CONTINUOUS
 10
5.1444250631
 20
4.3050675217
 11
5.1462294699
 21
4.3055840591
  0
CIRCLE
  5
3F2
100
AcDbEntity
  8
0
100
AcDbCircle
 62
7
  6
CONTINUOUS
 10
5.0375486211
 20
4.6708268634
 40
0.54
  0
ARC
  5
3F3
100
AcDbEntity
  8
0
100
AcDbCircle
 62
7
  6
CONTINUOUS
 10
5.0375486211
 20
4.6708268634
 40
0.4042934306
100
AcDbArc
 50
321.8033274295
 51
338.2216076918
  0
ARC
  5
3F4
100
AcDbEntity
  8
0
100
AcDbCircle
 62
7
  6
CONTINUOUS
 10
5.0375486211
 20
4.6708268634
 40
0.4042934306
100
AcDbArc
 50
341.9900965379
 51
342.9190627574
  0
ARC
  5
3F5
100
AcDbEntity
  8
0
100
AcDbCircle
 62
7
  6
CONTINUOUS
 10
5.0375486211
 20
4.6708268634
 40
0.4042934306
100
AcDbArc
 50
348.70767003
 51
354.0845669217
  0
ARC
  5
3F6
100
AcDbEntity
  8
0
100
AcDbCircle
 62
7
  6
CONTINUOUS
 10
5.0375486211
 20
4.6708268634
 40
0.4039251117
100
AcDbArc
 50
321.762207863
 51
338.200732461
  0
ARC
  5
3F7
100
AcDbEntity
  8
0
100
AcDbCircle
 62
7
  6
CONTINUOUS
 10
5.0375486211
 20
4.6708268634
 40
0.4033553269
100
AcDbArc
 50
349.5850795868
 51
354.0707598374
  0
ARC
  5
3F8
100
AcDbEntity
  8
0
100
AcDbCircle
 62
7
  6
CONTINUOUS
 10
5.0375486211
 20
4.6708268634
 40
0.4008904248
100
AcDbArc
 50
342.7695552707
 51
346.7819446524
  0
ARC
  5
3F9
100
AcDbEntity
  8
0
100
AcDbCircle
 62
7
  6
CONTINUOUS
 10
5.0375486211
 20
4.6708268634
 40
0.3999798413
100
AcDbArc
 50
342.7290975541
 51
346.7513053908
  0
ARC
  5
3FA
100
AcDbEntity
  8
0
100
AcDbCircle
 62
7
  6
CONTINUOUS
 10
5.0375486211
 20
4.6708268634
 40
0.3980326235
100
AcDbArc
 50
342.6419302326
 51
347.300879659
  0
ARC
  5
3FB
100
AcDbEntity
  8
0
100
AcDbCircle
 62
7
  6
CONTINUOUS
 10
5.0375486211
 20
4.6708268634
 40
0.3971457674
100
AcDbArc
 50
341.6545256077
 51
347.2720462692
  0
ARC
  5
3FC
100
AcDbEntity
  8
0
100
AcDbCircle
 62
7
  6
CONTINUOUS
 10
5.0375486211
 20
4.6708268634
 40
0.3971457674
100
AcDbArc
 50
348.5016880171
 51
349.4203761338
  0
ARC
  5
3FD
100
AcDbEntity
  8
0
100
AcDbCircle
 62
7
  6
CONTINUOUS
 10
5.037548673
 20
4.653840159
 40
0.3646896863
100
AcDbArc
 50
253.7236013209
 51
286.2697006984
  0
CIRCLE
  5
3FE
100
AcDbEntity
  8
0
100
AcDbCircle
 62
7
  6
CONTINUOUS
 10
5.0375486211
 20
4.6708268634
 40
0.3507488796
  0
CIRCLE
  5
3FF
100
AcDbEntity
  8
0
100
AcDbCircle
 62
7
  6
CONTINUOUS
 10
5.0375486211
 20
4.6708268634
 40
0.3340200599
  0
ARC
  5
400
100
AcDbEntity
  8
0
100
AcDbCircle
 62
7
  6
CONTINUOUS
 10
4.7925289187
 20
4.3858258609
 40
0.0100515926
100
AcDbArc
 50
230.10458569
 51
257.4948627645
  0
ARC
  5
401
100
AcDbEntity
  8
0
100
AcDbCircle
 62
7
  6
CONTINUOUS
 10
5.2825684156
 20
4.385825335
 40
0.0100515559
100
AcDbArc
 50
282.5105937754
 51
309.8969692848
  0
ARC
  5
402
100
AcDbEntity
  8
0
100
AcDbCircle
 62
7
  6
CONTINUOUS
 10
5.2825674758
 20
4.4126854956
 40
0.0100143682
100
AcDbArc
 50
290.9984025877
 51
313.0490351139
  0
ARC
  5
403
100
AcDbEntity
  8
0
100
AcDbCircle
 62
7
  6
CONTINUOUS
 10
4.7925300218
 20
4.4126851488
 40
0.0100142691
100
AcDbArc
 50
226.9485429741
 51
248.998333812
  0
SPLINE
  5
404
100
AcDbEntity
  8
0
100
AcDbSpline
 62
7
  6
CONTINUOUS
 70
0
 71
3
 72
13
 73
9
 74
0
 42
0.0000001
 43
0.0000001
 44
0.0000000001
 40
0.0
 40
0.0
 40
0.0
 40
0.0
 40
0.1235013555
 40
0.247582295
 40
0.3721841552
 40
0.4972376263
 40
0.7482287067
 40
1.0
 40
1.0
 40
1.0
 40
1.0
 10
4.5117806145
 20
4.5477969883
 30
0.0
 10
4.5091037073
 20
4.5523733118
 30
0.0
 10
4.5040502473
 20
4.5617345191
 30
0.0
 10
4.4974236208
 20
4.5762853494
 30
0.0
 10
4.4917612797
 20
4.5913102978
 30
0.0
 10
4.4855288515
 20
4.6118928615
 30
0.0
 10
4.4802849462
 20
4.6384110987
 30
0.0
 10
4.4788821038
 20
4.6600186514
 30
0.0
 10
4.4788821038
 20
4.6708268634
 30
0.0
  0
SPLINE
  5
405
100
AcDbEntity
  8
0
100
AcDbSpline
 62
7
  6
CONTINUOUS
 70
0
 71
3
 72
21
 73
17
 74
0
 42
0.0000001
 43
0.0000001
 44
0.0000000001
 40
0.0
 40
0.0
 40
0.0
 40
0.0
 40
0.0602469737
 40
0.1207944777
 40
0.181663616
 40
0.2428692543
 40
0.3044194738
 40
0.3663156369
 40
0.4285522177
 40
0.4911170624
 40
0.5539917469
 40
0.617151587
 40
0.6805673168
 40
0.744204381
 40
0.8719114355
 40
1.0
 40
1.0
 40
1.0
 40
1.0
 10
4.538099665
 20
4.4656109304
 30
0.0
 10
4.5337015975
 20
4.4679522199
 30
0.0
 10
4.525054129
 20
4.4729750824
 30
0.0
 10
4.5126391016
 20
4.481457635
 30
0.0
 10
4.5008058251
 20
4.4908633715
 30
0.0
 10
4.4896121765
 20
4.5011442306
 30
0.0
 10
4.4791111615
 20
4.5122485038
 30
0.0
 10
4.4693518894
 20
4.5241202373
 30
0.0
 10
4.4603807213
 20
4.5367011158
 30
0.0
 10
4.4522388306
 20
4.5499287268
 30
0.0
 10
4.4449642892
 20
4.5637386493
 30
0.0
 10
4.4385907746
 20
4.5780635344
 30
0.0
 10
4.4331470771
 20
4.5928345517
 30
0.0
 10
4.4271573592
 20
4.6130470276
 30
0.0
 10
4.4221196115
 20
4.6390564092
 30
0.0
 10
4.4207720928
 20
4.6602339223
 30
0.0
 10
4.4207720928
 20
4.6708268634
 30
0.0
  0
SPLINE
  5
406
100
AcDbEntity
  8
0
100
AcDbSpline
 62
7
  6
CONTINUOUS
 70
0
 71
3
 72
27
 73
23
 74
0
 42
0.0000001
 43
0.0000001
 44
0.0000000001
 40
0.0
 40
0.0
 40
0.0
 40
0.0
 40
0.0299510384
 40
0.0599381561
 40
0.0899711995
 40
0.1200594425
 40
0.1804187584
 40
0.2410988221
 40
0.271585001
 40
0.3021703389
 40
0.3328595716
 40
0.3636564653
 40
0.4255678583
 40
0.4879336349
 40
0.5507508009
 40
0.6140015555
 40
0.6776537788
 40
0.7416625488
 40
0.8059719275
 40
0.8705120029
 40
0.9352197351
 40
1.0
 40
1.0
 40
1.0
 40
1.0
 10
4.5474537973
 20
4.4440827187
 30
0.0
 10
4.5442910613
 20
4.4444817775
 30
0.0
 10
4.5379805398
 20
4.4454382499
 30
0.0
 10
4.5285921683
 20
4.4473433093
 30
0.0
 10
4.5192951199
 20
4.4497147598
 30
0.0
 10
4.5070370181
 20
4.4534944301
 30
0.0
 10
4.492031651
 20
4.459364174
 30
0.0
 10
4.4776299207
 20
4.4666814829
 30
0.0
 10
4.4665237892
 20
4.4733660072
 30
0.0
 10
4.4584018792
 20
4.4787967036
 30
0.0
 10
4.4505183107
 20
4.484623649
 30
0.0
 10
4.4403301562
 20
4.4929182084
 30
0.0
 10
4.4282687007
 20
4.5042223849
 30
0.0
 10
4.4150228882
 20
4.5191267222
 30
0.0
 10
4.4030798828
 20
4.535271925
 30
0.0
 10
4.3925346029
 20
4.5525224985
 30
0.0
 10
4.3834692244
 20
4.5707358745
 30
0.0
 10
4.3759544248
 20
4.5897625322
 30
0.0
 10
4.370048858
 20
4.6094466314
 30
0.0
 10
4.3657970465
 20
4.629629004
 30
0.0
 10
4.363233462
 20
4.6501432752
 30
0.0
 10
4.3626620818
 20
4.6639320333
 30
0.0
 10
4.3626620818
 20
4.6708268634
 30
0.0
  0
SPLINE
  5
407
100
AcDbEntity
  8
0
100
AcDbSpline
 62
7
  6
CONTINUOUS
 70
0
 71
3
 72
24
 73
20
 74
0
 42
0.0000001
 43
0.0000001
 44
0.0000000001
 40
0.0
 40
0.0
 40
0.0
 40
0.0
 40
0.0301314207
 40
0.0602396476
 40
0.1204185455
 40
0.180678157
 40
0.24113034
 40
0.3018780157
 40
0.36301051
 40
0.4245989906
 40
0.4866935885
 40
0.5493212776
 40
0.6124844169
 40
0.6761609599
 40
0.7403055363
 40
0.8048526724
 40
0.8697167846
 40
0.934803514
 40
1.0
 40
1.0
 40
1.0
 40
1.0
 10
4.5423773901
 20
4.4448019506
 30
0.0
 10
4.5386802321
 20
4.4442335731
 30
0.0
 10
4.5312534812
 20
4.4433128287
 30
0.0
 10
4.5163291382
 20
4.4423451499
 30
0.0
 10
4.4975978839
 20
4.4427812734
 30
0.0
 10
4.4753138453
 20
4.4459365254
 30
0.0
 10
4.453479282
 20
4.4516821995
 30
0.0
 10
4.432352993
 20
4.459945598
 30
0.0
 10
4.4121796574
 20
4.4706231628
 30
0.0
 10
4.3931901284
 20
4.4835834451
 30
0.0
 10
4.3755981468
 20
4.4986697405
 30
0.0
 10
4.3595988486
 20
4.51570288
 30
0.0
 10
4.3453673506
 20
4.5344837879
 30
0.0
 10
4.3330578664
 20
4.5547959616
 30
0.0
 10
4.3228024738
 20
4.5764078911
 30
0.0
 10
4.314711023
 20
4.5990750627
 30
0.0
 10
4.3088689804
 20
4.622543825
 30
0.0
 10
4.3053391654
 20
4.6465484524
 30
0.0
 10
4.3045520708
 20
4.6627332037
 30
0.0
 10
4.3045520708
 20
4.6708268634
 30
0.0
  0
SPLINE
  5
408
100
AcDbEntity
  8
0
100
AcDbSpline
 62
7
  6
CONTINUOUS
 70
0
 71
3
 72
24
 73
20
 74
0
 42
0.0000001
 43
0.0000001
 44
0.0000000001
 40
0.0
 40
0.0
 40
0.0
 40
0.0
 40
0.0301314207
 40
0.0602396476
 40
0.1204185455
 40
0.180678157
 40
0.24113034
 40
0.3018780157
 40
0.36301051
 40
0.4245989906
 40
0.4866935885
 40
0.5493212776
 40
0.6124844169
 40
0.6761609599
 40
0.7403055363
 40
0.8048526724
 40
0.8697167846
 40
0.934803514
 40
1.0
 40
1.0
 40
1.0
 40
1.0
 10
4.4842673791
 20
4.4448019506
 30
0.0
 10
4.4805702212
 20
4.4442335731
 30
0.0
 10
4.4731434702
 20
4.4433128287
 30
0.0
 10
4.4582191272
 20
4.4423451499
 30
0.0
 10
4.4394878729
 20
4.4427812734
 30
0.0
 10
4.4172038343
 20
4.4459365254
 30
0.0
 10
4.395369271
 20
4.4516821995
 30
0.0
 10
4.374242982
 20
4.459945598
 30
0.0
 10
4.3540696464
 20
4.4706231628
 30
0.0
 10
4.3350801174
 20
4.4835834451
 30
0.0
 10
4.3174881358
 20
4.4986697405
 30
0.0
 10
4.3014888377
 20
4.51570288
 30
0.0
 10
4.2872573397
 20
4.5344837879
 30
0.0
 10
4.2749478554
 20
4.5547959616
 30
0.0
 10
4.2646924628
 20
4.5764078911
 30
0.0
 10
4.256601012
 20
4.5990750627
 30
0.0
 10
4.2507589694
 20
4.622543825
 30
0.0
 10
4.2472291544
 20
4.6465484524
 30
0.0
 10
4.2464420598
 20
4.6627332037
 30
0.0
 10
4.2464420598
 20
4.6708268634
 30
0.0
  0
SPLINE
  5
409
100
AcDbEntity
  8
0
100
AcDbSpline
 62
7
  6
CONTINUOUS
 70
0
 71
3
 72
13
 73
9
 74
0
 42
0.0000001
 43
0.0000001
 44
0.0000000001
 40
0.0
 40
0.0
 40
0.0
 40
0.0
 40
0.251771716
 40
0.5027629268
 40
0.6278163575
 40
0.7524181029
 40
0.876498874
 40
1.0
 40
1.0
 40
1.0
 40
1.0
 10
4.4788821038
 20
4.6708268634
 30
0.0
 10
4.4788821038
 20
4.6816354031
 30
0.0
 10
4.4802850311
 20
4.7032435998
 30
0.0
 10
4.4855292457
 20
4.7297625928
 30
0.0
 10
4.4917620376
 20
4.7503456897
 30
0.0
 10
4.4974246943
 20
4.7653709967
 30
0.0
 10
4.5040516959
 20
4.7799221358
 30
0.0
 10
4.5091054243
 20
4.7892835258
 30
0.0
 10
4.511782478
 20
4.7938599281
 30
0.0
  0
SPLINE
  5
40A
100
AcDbEntity
  8
0
100
AcDbSpline
 62
7
  6
CONTINUOUS
 70
0
 71
3
 72
21
 73
17
 74
0
 42
0.0000001
 43
0.0000001
 44
0.0000000001
 40
0.0
 40
0.0
 40
0.0
 40
0.0
 40
0.1280889673
 40
0.2557962766
 40
0.3194334169
 40
0.3828491834
 40
0.4460090325
 40
0.5088836968
 40
0.5714484917
 40
0.6336849977
 40
0.6955810719
 40
0.7571311826
 40
0.8183367035
 40
0.8792057283
 40
0.9397531193
 40
1.0
 40
1.0
 40
1.0
 40
1.0
 10
4.4207720928
 20
4.6708268634
 30
0.0
 10
4.4207720928
 20
4.6814201259
 30
0.0
 10
4.4221196928
 20
4.7025982709
 30
0.0
 10
4.4271577392
 20
4.7286083954
 30
0.0
 10
4.4331478052
 20
4.7488213987
 30
0.0
 10
4.4385918085
 20
4.7635927713
 30
0.0
 10
4.444965684
 20
4.7779179656
 30
0.0
 10
4.4522406139
 20
4.7917281584
 30
0.0
 10
4.4603829465
 20
4.8049559806
 30
0.0
 10
4.4693545824
 20
4.8175370204
 30
0.0
 10
4.4791143481
 20
4.8294088619
 30
0.0
 10
4.4896158995
 20
4.8405131645
 30
0.0
 10
4.5008100761
 20
4.8507940198
 30
0.0
 10
4.5126439249
 20
4.8601996531
 30
0.0
 10
4.5250595159
 20
4.8686820601
 30
0.0
 10
4.5337073705
 20
4.8737047667
 30
0.0
 10
4.5381056262
 20
4.8760459747
 30
0.0
  0
SPLINE
  5
40B
100
AcDbEntity
  8
0
100
AcDbSpline
 62
7
  6
CONTINUOUS
 70
0
 71
3
 72
26
 73
22
 74
0
 42
0.0000001
 43
0.0000001
 44
0.0000000001
 40
0.0
 40
0.0
 40
0.0
 40
0.0
 40
0.0647815026
 40
0.1294904162
 40
0.1940316427
 40
0.2583421293
 40
0.3223519697
 40
0.3860052386
 40
0.4492570095
 40
0.5120751706
 40
0.5744419266
 40
0.6363542895
 40
0.6978245618
 40
0.7284103844
 40
0.7588970551
 40
0.8195781031
 40
0.8799384322
 40
0.9100271986
 40
0.9400607652
 40
0.9700484154
 40
1.0
 40
1.0
 40
1.0
 40
1.0
 10
4.3626620818
 20
4.6708268634
 30
0.0
 10
4.3626620818
 20
4.6777217183
 30
0.0
 10
4.3632334658
 20
4.6915105204
 30
0.0
 10
4.3657970661
 20
4.7120248501
 30
0.0
 10
4.3700489
 20
4.7322072662
 30
0.0
 10
4.3759544935
 20
4.7518913943
 30
0.0
 10
4.3834693231
 20
4.770918073
 30
0.0
 10
4.3925347122
 20
4.7891314468
 30
0.0
 10
4.4030800758
 20
4.8063820551
 30
0.0
 10
4.4150229048
 20
4.8225271083
 30
0.0
 10
4.4282694917
 20
4.837431944
 30
0.0
 10
4.4427138355
 20
4.8509701044
 30
0.0
 10
4.4556781924
 20
4.8610360188
 30
0.0
 10
4.4665239482
 20
4.868287791
 30
0.0
 10
4.4776302397
 20
4.8749724358
 30
0.0
 10
4.4920319293
 20
4.8822896511
 30
0.0
 10
4.5070373324
 20
4.8881594303
 30
0.0
 10
4.5192954682
 20
4.8919390469
 30
0.0
 10
4.528592531
 20
4.8943105231
 30
0.0
 10
4.5379809359
 20
4.8962155306
 30
0.0
 10
4.5442914729
 20
4.8971720026
 30
0.0
 10
4.5474542176
 20
4.8975710619
 30
0.0
  0
SPLINE
  5
40C
100
AcDbEntity
  8
0
100
AcDbSpline
 62
7
  6
CONTINUOUS
 70
0
 71
3
 72
24
 73
20
 74
0
 42
0.0000001
 43
0.0000001
 44
0.0000000001
 40
0.0
 40
0.0
 40
0.0
 40
0.0
 40
0.0651962187
 40
0.1302826624
 40
0.1951465271
 40
0.2596934709
 40
0.3238379501
 40
0.3875144987
 40
0.4506777524
 40
0.5133056512
 40
0.5754005321
 40
0.6369893373
 40
0.6981221521
 40
0.7588701042
 40
0.8193224596
 40
0.8795820869
 40
0.9397607969
 40
0.9698688334
 40
1.0
 40
1.0
 40
1.0
 40
1.0
 10
4.3045520708
 20
4.6708268634
 30
0.0
 10
4.3045520708
 20
4.6789191916
 30
0.0
 10
4.3053389059
 20
4.6951012746
 30
0.0
 10
4.30886756
 20
4.719102026
 30
0.0
 10
4.3147076862
 20
4.7425671609
 30
0.0
 10
4.3227965075
 20
4.7652310865
 30
0.0
 10
4.3330486069
 20
4.7868402764
 30
0.0
 10
4.345354208
 20
4.8071503341
 30
0.0
 10
4.3595813172
 20
4.8259298563
 30
0.0
 10
4.3755758216
 20
4.8429624358
 30
0.0
 10
4.3931627199
 20
4.8580490766
 30
0.0
 10
4.4121470036
 20
4.8710106733
 30
0.0
 10
4.4323150725
 20
4.8816905658
 30
0.0
 10
4.4534362213
 20
4.8899573241
 30
0.0
 10
4.4752659256
 20
4.8957073848
 30
0.0
 10
4.4975455386
 20
4.8988679993
 30
0.0
 10
4.5162736047
 20
4.8993093934
 30
0.0
 10
4.5311957578
 20
4.8983462774
 30
0.0
 10
4.538621546
 20
4.8974279923
 30
0.0
 10
4.542318257
 20
4.8968608655
 30
0.0
  0
SPLINE
  5
40D
100
AcDbEntity
  8
0
100
AcDbSpline
 62
7
  6
CONTINUOUS
 70
0
 71
3
 72
24
 73
20
 74
0
 42
0.0000001
 43
0.0000001
 44
0.0000000001
 40
0.0
 40
0.0
 40
0.0
 40
0.0
 40
0.0651962187
 40
0.1302826624
 40
0.1951465271
 40
0.2596934709
 40
0.3238379501
 40
0.3875144987
 40
0.4506777524
 40
0.5133056512
 40
0.5754005321
 40
0.6369893373
 40
0.6981221521
 40
0.7588701042
 40
0.8193224596
 40
0.8795820869
 40
0.9397607969
 40
0.9698688334
 40
1.0
 40
1.0
 40
1.0
 40
1.0
 10
4.2464420598
 20
4.6708268634
 30
0.0
 10
4.2464420598
 20
4.6789191916
 30
0.0
 10
4.2472288949
 20
4.6951012746
 30
0.0
 10
4.250757549
 20
4.719102026
 30
0.0
 10
4.2565976752
 20
4.7425671609
 30
0.0
 10
4.2646864965
 20
4.7652310865
 30
0.0
 10
4.274938596
 20
4.7868402764
 30
0.0
 10
4.287244197
 20
4.8071503341
 30
0.0
 10
4.3014713062
 20
4.8259298563
 30
0.0
 10
4.3174658106
 20
4.8429624358
 30
0.0
 10
4.3350527089
 20
4.8580490766
 30
0.0
 10
4.3540369927
 20
4.8710106733
 30
0.0
 10
4.3742050615
 20
4.8816905658
 30
0.0
 10
4.3953262104
 20
4.8899573241
 30
0.0
 10
4.4171559146
 20
4.8957073848
 30
0.0
 10
4.4394355276
 20
4.8988679993
 30
0.0
 10
4.4581635937
 20
4.8993093934
 30
0.0
 10
4.4730857468
 20
4.8983462774
 30
0.0
 10
4.480511535
 20
4.8974279923
 30
0.0
 10
4.4842082461
 20
4.8968608655
 30
0.0
  0
SPLINE
  5
40E
100
AcDbEntity
  8
0
100
AcDbSpline
 62
7
  6
CONTINUOUS
 70
0
 71
3
 72
26
 73
22
 74
0
 42
0.0000001
 43
0.0000001
 44
0.0000000001
 40
0.0
 40
0.0
 40
0.0
 40
0.0
 40
0.059323726
 40
0.0890876
 40
0.1189280021
 40
0.1788603352
 40
0.2392079113
 40
0.2695636343
 40
0.3000426546
 40
0.3613719028
 40
0.4232349586
 40
0.4856378386
 40
0.5170462949
 40
0.5485842287
 40
0.6120183023
 40
0.6759124196
 40
0.7402120293
 40
0.8048505513
 40
0.8697481047
 40
0.934834702
 40
1.0
 40
1.0
 40
1.0
 40
1.0
 10
4.4917264315
 20
4.4598603664
 30
0.0
 10
4.4860762005
 20
4.4608295152
 30
0.0
 10
4.4776546533
 20
4.4626996931
 30
0.0
 10
4.4666419573
 20
4.4659969419
 30
0.0
 10
4.4557435406
 20
4.4698380346
 30
0.0
 10
4.4424213419
 20
4.4756381425
 30
0.0
 10
4.429661662
 20
4.4826910528
 30
0.0
 10
4.4198283318
 20
4.4890569683
 30
0.0
 10
4.4102211258
 20
4.495923708
 30
0.0
 10
4.3987442952
 20
4.5053825137
 30
0.0
 10
4.3859674203
 20
4.5180010094
 30
0.0
 10
4.3762240288
 20
4.5294904543
 30
0.0
 10
4.3690042106
 20
4.5392207566
 30
0.0
 10
4.3621532016
 20
4.549334888
 30
0.0
 10
4.3543663859
 20
4.56258877
 30
0.0
 10
4.3463504994
 20
4.5793051281
 30
0.0
 10
4.3397050664
 20
4.5967369991
 30
0.0
 10
4.3344825853
 20
4.6147470465
 30
0.0
 10
4.3307224065
 20
4.6331959027
 30
0.0
 10
4.3284553294
 20
4.6519369002
 30
0.0
 10
4.3279499125
 20
4.6645296189
 30
0.0
 10
4.3279499125
 20
4.6708268634
 30
0.0
  0
SPLINE
  5
40F
100
AcDbEntity
  8
0
100
AcDbSpline
 62
7
  6
CONTINUOUS
 70
0
 71
3
 72
26
 73
22
 74
0
 42
0.0000001
 43
0.0000001
 44
0.0000000001
 40
0.0
 40
0.0
 40
0.0
 40
0.0
 40
0.065165298
 40
0.1302518953
 40
0.1951494487
 40
0.2597879707
 40
0.3240875804
 40
0.3879816977
 40
0.4514157713
 40
0.4829537051
 40
0.5143621614
 40
0.5767650414
 40
0.6386280972
 40
0.6999573454
 40
0.7304363657
 40
0.7607920887
 40
0.8211396648
 40
0.8810719979
 40
0.9109124
 40
0.940676274
 40
1.0
 40
1.0
 40
1.0
 40
1.0
 10
4.2698399015
 20
4.6708268634
 30
0.0
 10
4.2698399015
 20
4.6645296189
 30
0.0
 10
4.2703453184
 20
4.6519369002
 30
0.0
 10
4.2726123956
 20
4.6331959027
 30
0.0
 10
4.2763725743
 20
4.6147470465
 30
0.0
 10
4.2815950554
 20
4.5967369991
 30
0.0
 10
4.2882404884
 20
4.5793051281
 30
0.0
 10
4.2962563749
 20
4.56258877
 30
0.0
 10
4.3040431906
 20
4.549334888
 30
0.0
 10
4.3108941996
 20
4.5392207566
 30
0.0
 10
4.3181140178
 20
4.5294904543
 30
0.0
 10
4.3278574093
 20
4.5180010094
 30
0.0
 10
4.3406342842
 20
4.5053825137
 30
0.0
 10
4.3521111148
 20
4.495923708
 30
0.0
 10
4.3617183208
 20
4.4890569683
 30
0.0
 10
4.371551651
 20
4.4826910528
 30
0.0
 10
4.384311331
 20
4.4756381425
 30
0.0
 10
4.3976335296
 20
4.4698380346
 30
0.0
 10
4.4085319463
 20
4.4659969419
 30
0.0
 10
4.4195446423
 20
4.4626996931
 30
0.0
 10
4.4279661895
 20
4.4608295152
 30
0.0
 10
4.4336164205
 20
4.4598603664
 30
0.0
  0
SPLINE
  5
410
100
AcDbEntity
  8
0
100
AcDbSpline
 62
7
  6
CONTINUOUS
 70
0
 71
3
 72
26
 73
22
 74
0
 42
0.0000001
 43
0.0000001
 44
0.0000000001
 40
0.0
 40
0.0
 40
0.0
 40
0.0
 40
0.0651654353
 40
0.1302521607
 40
0.1951498287
 40
0.2597884447
 40
0.324088122
 40
0.3879822776
 40
0.4514163582
 40
0.4829542844
 40
0.5143627256
 40
0.5767655531
 40
0.6386285324
 40
0.6999576875
 40
0.7304366586
 40
0.7607923317
 40
0.8211398103
 40
0.8810720614
 40
0.9109124333
 40
0.9406762857
 40
1.0
 40
1.0
 40
1.0
 40
1.0
 10
4.3279499125
 20
4.6708268634
 30
0.0
 10
4.3279499125
 20
4.6771243617
 30
0.0
 10
4.3284553701
 20
4.6897175878
 30
0.0
 10
4.3307226297
 20
4.7084593284
 30
0.0
 10
4.3344831094
 20
4.7269088926
 30
0.0
 10
4.3397060049
 20
4.7449195955
 30
0.0
 10
4.3463519599
 20
4.7623520531
 30
0.0
 10
4.3543684675
 20
4.7790689131
 30
0.0
 10
4.3621558777
 20
4.7923231335
 30
0.0
 10
4.3690074013
 20
4.8024374787
 30
0.0
 10
4.376227754
 20
4.8121679521
 30
0.0
 10
4.3859718548
 20
4.8236575347
 30
0.0
 10
4.3987496347
 20
4.836276063
 30
0.0
 10
4.4102272521
 20
4.8457347776
 30
0.0
 10
4.4198350965
 20
4.8526013688
 30
0.0
 10
4.4296690659
 20
4.8589670863
 30
0.0
 10
4.4424295489
 20
4.866019654
 30
0.0
 10
4.4557525401
 20
4.8718192871
 30
0.0
 10
4.4666515728
 20
4.8756599227
 30
0.0
 10
4.477664873
 20
4.8789566646
 30
0.0
 10
4.4860868537
 20
4.8808264033
 30
0.0
 10
4.4917373602
 20
4.8817952345
 30
0.0
  0
SPLINE
  5
411
100
AcDbEntity
  8
0
100
AcDbSpline
 62
7
  6
CONTINUOUS
 70
0
 71
3
 72
24
 73
20
 74
0
 42
0.0000001
 43
0.0000001
 44
0.0000000001
 40
0.0
 40
0.0
 40
0.0
 40
0.0
 40
0.0650354684
 40
0.1300007646
 40
0.194789528
 40
0.259338216
 40
0.3235725094
 40
0.3874285658
 40
0.4508539526
 40
0.5138063294
 40
0.5762570332
 40
0.6381913097
 40
0.6996087478
 40
0.7605245587
 40
0.8209689032
 40
0.8809862552
 40
0.9108602917
 40
0.9406504637
 40
1.0
 40
1.0
 40
1.0
 40
1.0
 10
4.3860599235
 20
4.6708268634
 30
0.0
 10
4.3860599235
 20
4.6768852484
 30
0.0
 10
4.3865277824
 20
4.6890006741
 30
0.0
 10
4.3886264871
 20
4.7070418902
 30
0.0
 10
4.3921087853
 20
4.724822897
 30
0.0
 10
4.3969483458
 20
4.742212624
 30
0.0
 10
4.4031109957
 20
4.7590865538
 30
0.0
 10
4.4105521589
 20
4.7753222939
 30
0.0
 10
4.4192183194
 20
4.7908023167
 30
0.0
 10
4.4290474307
 20
4.805414289
 30
0.0
 10
4.439968358
 20
4.8190524009
 30
0.0
 10
4.4519024245
 20
4.8316176534
 30
0.0
 10
4.464763795
 20
4.8430182924
 30
0.0
 10
4.4784595766
 20
4.8531714871
 30
0.0
 10
4.4928898049
 20
4.8620029995
 30
0.0
 10
4.5054629842
 20
4.8682180755
 30
0.0
 10
4.5157759099
 20
4.8724632873
 30
0.0
 10
4.5262134079
 20
4.8762096476
 30
0.0
 10
4.5342192503
 20
4.8784724633
 30
0.0
 10
4.5396039424
 20
4.8797261542
 30
0.0
  0
SPLINE
  5
412
100
AcDbEntity
  8
0
100
AcDbSpline
 62
7
  6
CONTINUOUS
 70
0
 71
3
 72
18
 73
14
 74
0
 42
0.0000001
 43
0.0000001
 44
0.0000000001
 40
0.0
 40
0.0
 40
0.0
 40
0.0
 40
0.1279083903
 40
0.1917876329
 40
0.2555391382
 40
0.3824868845
 40
0.5085222458
 40
0.5711487591
 40
0.633465809
 40
0.6954536391
 40
0.7570977804
 40
0.8792652405
 40
1.0
 40
1.0
 40
1.0
 40
1.0
 10
4.4441699345
 20
4.6708268634
 30
0.0
 10
4.4441699345
 20
4.6793591244
 30
0.0
 10
4.4448663406
 20
4.6921668818
 30
0.0
 10
4.4471801242
 20
4.7090612323
 30
0.0
 10
4.4504013008
 20
4.7257427129
 30
0.0
 10
4.4561096124
 20
4.746132076
 30
0.0
 10
4.4640173339
 20
4.7656946395
 30
0.0
 10
4.471589402
 20
4.7806347514
 30
0.0
 10
4.4778546416
 20
4.7914240744
 30
0.0
 10
4.484695751
 20
4.8017794975
 30
0.0
 10
4.4945190874
 20
4.8149172053
 30
0.0
 10
4.5081025322
 20
4.8300900323
 30
0.0
 10
4.5203212019
 20
4.8408027114
 30
0.0
 10
4.5266948082
 20
4.8457261061
 30
0.0
  0
SPLINE
  5
413
100
AcDbEntity
  8
0
100
AcDbSpline
 62
7
  6
CONTINUOUS
 70
0
 71
3
 72
18
 73
14
 74
0
 42
0.0000001
 43
0.0000001
 44
0.0000000001
 40
0.0
 40
0.0
 40
0.0
 40
0.0
 40
0.1207347595
 40
0.2429022196
 40
0.3045463609
 40
0.366534191
 40
0.4288512409
 40
0.4914777542
 40
0.6175131155
 40
0.7444608618
 40
0.8082123671
 40
0.8720916097
 40
1.0
 40
1.0
 40
1.0
 40
1.0
 10
4.5266948082
 20
4.4959276206
 30
0.0
 10
4.5203212019
 20
4.5008510153
 30
0.0
 10
4.5081025322
 20
4.5115636944
 30
0.0
 10
4.4945190874
 20
4.5267365214
 30
0.0
 10
4.484695751
 20
4.5398742292
 30
0.0
 10
4.4778546416
 20
4.5502296523
 30
0.0
 10
4.471589402
 20
4.5610189753
 30
0.0
 10
4.4640173339
 20
4.5759590873
 30
0.0
 10
4.4561096124
 20
4.5955216507
 30
0.0
 10
4.4504013008
 20
4.6159110138
 30
0.0
 10
4.4471801242
 20
4.6325924944
 30
0.0
 10
4.4448663406
 20
4.6494868449
 30
0.0
 10
4.4441699345
 20
4.6622946023
 30
0.0
 10
4.4441699345
 20
4.6708268634
 30
0.0
  0
SPLINE
  5
414
100
AcDbEntity
  8
0
100
AcDbSpline
 62
7
  6
CONTINUOUS
 70
0
 71
3
 72
24
 73
20
 74
0
 42
0.0000001
 43
0.0000001
 44
0.0000000001
 40
0.0
 40
0.0
 40
0.0
 40
0.0
 40
0.0139520048
 40
0.0201438974
 40
0.0271356933
 40
0.0357219017
 40
0.0463585926
 40
0.0592856896
 40
0.0745802511
 40
0.1122372437
 40
0.1590554817
 40
0.2145470799
 40
0.2781134179
 40
0.3490923834
 40
0.4268011599
 40
0.5105594845
 40
0.599771633
 40
0.7922982688
 40
1.0
 40
1.0
 40
1.0
 40
1.0
 10
4.7856924636
 20
4.4053659755
 30
0.0
 10
4.7856921284
 20
4.4053932077
 30
0.0
 10
4.785699484
 20
4.4054364177
 30
0.0
 10
4.785741548
 20
4.4054715652
 30
0.0
 10
4.7857831306
 20
4.4054837012
 30
0.0
 10
4.7858346639
 20
4.4054843647
 30
0.0
 10
4.7858968024
 20
4.4054741813
 30
0.0
 10
4.7859698061
 20
4.4054531776
 30
0.0
 10
4.7860902073
 20
4.40540774
 30
0.0
 10
4.7862658308
 20
4.4053228753
 30
0.0
 10
4.7865039468
 20
4.4051887709
 30
0.0
 10
4.7867790853
 20
4.4050179143
 30
0.0
 10
4.7870883239
 20
4.404812976
 30
0.0
 10
4.7874286797
 20
4.404576673
 30
0.0
 10
4.7877971258
 20
4.4043118435
 30
0.0
 10
4.7881908086
 20
4.4040212195
 30
0.0
 10
4.7887605204
 20
4.4035917438
 30
0.0
 10
4.789516457
 20
4.4030074695
 30
0.0
 10
4.7901299567
 20
4.402523766
 30
0.0
 10
4.7904475477
 20
4.4022717514
 30
0.0
  0
SPLINE
  5
415
100
AcDbEntity
  8
0
100
AcDbSpline
 62
7
  6
CONTINUOUS
 70
0
 71
3
 72
45
 73
41
 74
0
 42
0.0000001
 43
0.0000001
 44
0.0000000001
 40
0.0
 40
0.0
 40
0.0
 40
0.0
 40
0.0064212684
 40
0.013341239
 40
0.0205473092
 40
0.0279288056
 40
0.0430005691
 40
0.0583094691
 40
0.0737551938
 40
0.0892891352
 40
0.1048846101
 40
0.1205255392
 40
0.1519034973
 40
0.1833742442
 40
0.2149106718
 40
0.2464963408
 40
0.2781202839
 40
0.309774606
 40
0.3731342676
 40
0.436555057
 40
0.5000076128
 40
0.5634601217
 40
0.6268808538
 40
0.6902404274
 40
0.7218946895
 40
0.7535185587
 40
0.7851041356
 40
0.816640446
 40
0.8481110301
 40
0.8794887518
 40
0.8951295104
 40
0.9107247669
 40
0.9262584144
 40
0.9417037033
 40
0.9570118854
 40
0.9720823239
 40
0.9794627043
 40
0.9866670079
 40
0.9935838953
 40
1.0
 40
1.0
 40
1.0
 40
1.0
 10
4.7904475477
 20
4.4022717514
 30
0.0
 10
4.7913525672
 20
4.401553601
 30
0.0
 10
4.7932206048
 20
4.40004609
 30
0.0
 10
4.7960900892
 20
4.3977151511
 30
0.0
 10
4.7990988768
 20
4.395281646
 30
0.0
 10
4.8032654569
 20
4.3919474261
 30
0.0
 10
4.8086155775
 20
4.3877590013
 30
0.0
 10
4.8151985138
 20
4.3827934231
 30
0.0
 10
4.8219453551
 20
4.3779095955
 30
0.0
 10
4.8288343525
 20
4.3731372218
 30
0.0
 10
4.8358530167
 20
4.3684935824
 30
0.0
 10
4.8453822745
 20
4.3624829659
 30
0.0
 10
4.8575743694
 20
4.3553463857
 30
0.0
 10
4.8726058654
 20
4.3474320256
 30
0.0
 10
4.8880151599
 20
4.3401920004
 30
0.0
 10
4.9037646098
 20
4.3336531764
 30
0.0
 10
4.9198180935
 20
4.3278371597
 30
0.0
 10
4.9415817471
 20
4.3210691697
 30
0.0
 10
4.9693664659
 20
4.3145007085
 30
0.0
 10
5.003309568
 20
4.3097393086
 30
0.0
 10
5.0375662356
 20
4.308147038
 30
0.0
 10
5.0718227406
 20
4.3097425752
 30
0.0
 10
5.1057653548
 20
4.3145072036
 30
0.0
 10
5.1335494102
 20
4.3210783077
 30
0.0
 10
5.1553123851
 20
4.327848345
 30
0.0
 10
5.1713652812
 20
4.3336658638
 30
0.0
 10
5.1871140688
 20
4.3402061497
 30
0.0
 10
5.2025226244
 20
4.3474475896
 30
0.0
 10
5.2175533051
 20
4.3553632979
 30
0.0
 10
5.2297446568
 20
4.3625009439
 30
0.0
 10
5.23927328
 20
4.3685123553
 30
0.0
 10
5.2462914307
 20
4.373156548
 30
0.0
 10
5.253179874
 20
4.3779294216
 30
0.0
 10
5.2599260962
 20
4.3828136598
 30
0.0
 10
5.2665082894
 20
4.3877794819
 30
0.0
 10
5.2718576777
 20
4.3919679192
 30
0.0
 10
5.2760234919
 20
4.3953018842
 30
0.0
 10
5.2790313579
 20
4.3977348217
 30
0.0
 10
5.2818994578
 20
4.4000646069
 30
0.0
 10
5.2837664042
 20
4.4015711091
 30
0.0
 10
5.2846707981
 20
4.4022885533
 30
0.0
  0
SPLINE
  5
416
100
AcDbEntity
  8
0
100
AcDbSpline
 62
7
  6
CONTINUOUS
 70
0
 71
3
 72
24
 73
20
 74
0
 42
0.0000001
 43
0.0000001
 44
0.0000000001
 40
0.0
 40
0.0
 40
0.0
 40
0.0
 40
0.2078172152
 40
0.4003652264
 40
0.48958746
 40
0.5733770758
 40
0.6511371992
 40
0.7221595223
 40
0.7857318363
 40
0.8411654181
 40
0.8878746222
 40
0.9254166966
 40
0.9406658302
 40
0.9535628563
 40
0.9641941463
 40
0.9727935018
 40
0.9798036854
 40
0.9860096397
 40
1.0
 40
1.0
 40
1.0
 40
1.0
 10
5.2846707981
 20
4.4022885533
 30
0.0
 10
5.2849871178
 20
4.4025394857
 30
0.0
 10
5.2855980481
 20
4.4030209865
 30
0.0
 10
5.2863508501
 20
4.4036024893
 30
0.0
 10
5.2869181289
 20
4.4040298613
 30
0.0
 10
5.2873101979
 20
4.4043191276
 30
0.0
 10
5.287677177
 20
4.4045827877
 30
0.0
 10
5.2880161563
 20
4.4048180242
 30
0.0
 10
5.2883240053
 20
4.4050218947
 30
0.0
 10
5.2885977144
 20
4.4051915966
 30
0.0
 10
5.2888344055
 20
4.405324519
 30
0.0
 10
5.2890088926
 20
4.405408444
 30
0.0
 10
5.2891284867
 20
4.4054532727
 30
0.0
 10
5.2892010513
 20
4.4054739492
 30
0.0
 10
5.2892628719
 20
4.4054839635
 30
0.0
 10
5.2893142093
 20
4.4054832866
 30
0.0
 10
5.2893556947
 20
4.4054712605
 30
0.0
 10
5.2893977931
 20
4.4054363238
 30
0.0
 10
5.289405145
 20
4.4053931547
 30
0.0
 10
5.2894047787
 20
4.4053659755
 30
0.0
  0
SPLINE
  5
417
100
AcDbEntity
  8
0
100
AcDbSpline
 62
7
  6
CONTINUOUS
 70
0
 71
3
 72
17
 73
13
 74
0
 42
0.0000001
 43
0.0000001
 44
0.0000000001
 40
0.0
 40
0.0
 40
0.0
 40
0.0
 40
0.0191787561
 40
0.0450956914
 40
0.0779447766
 40
0.1176250886
 40
0.2164286868
 40
0.338626754
 40
0.480882034
 40
0.6402572219
 40
0.814126219
 40
1.0
 40
1.0
 40
1.0
 40
1.0
 10
5.2894047787
 20
4.4053659755
 30
0.0
 10
5.2894042938
 20
4.4053332742
 30
0.0
 10
5.2893880126
 20
4.4052570218
 30
0.0
 10
5.2893395342
 20
4.4051332159
 30
0.0
 10
5.2892633937
 20
4.4049833026
 30
0.0
 10
5.2891147235
 20
4.4047316921
 30
0.0
 10
5.2888626735
 20
4.4043650048
 30
0.0
 10
5.2884886741
 20
4.4038711242
 30
0.0
 10
5.2880342163
 20
4.4033089995
 30
0.0
 10
5.2875101888
 20
4.4026901711
 30
0.0
 10
5.2869262965
 20
4.4020247558
 30
0.0
 10
5.2865151503
 20
4.4015694399
 30
0.0
 10
5.2863013554
 20
4.4013354354
 30
0.0
  0
SPLINE
  5
418
100
AcDbEntity
  8
0
100
AcDbSpline
 62
7
  6
CONTINUOUS
 70
0
 71
3
 72
45
 73
41
 74
0
 42
0.0000001
 43
0.0000001
 44
0.0000000001
 40
0.0
 40
0.0
 40
0.0
 40
0.0
 40
0.0061908547
 40
0.0129611156
 40
0.0200724562
 40
0.0273937877
 40
0.0424026187
 40
0.0576873209
 40
0.0731273156
 40
0.0886654699
 40
0.1042710867
 40
0.1199259808
 40
0.1513385709
 40
0.1828499794
 40
0.2144308213
 40
0.2460635236
 40
0.277736465
 40
0.3094413237
 40
0.3729040268
 40
0.4364313481
 40
0.4999928852
 40
0.5635543754
 40
0.6270817274
 40
0.6905445122
 40
0.7222494222
 40
0.753922427
 40
0.7855552096
 40
0.8171361556
 40
0.8486477017
 40
0.8800604889
 40
0.8957155241
 40
0.9113213303
 40
0.9268597557
 40
0.942300156
 40
0.9575855154
 40
0.9725955941
 40
0.9799180089
 40
0.9870310643
 40
0.9938043239
 40
1.0
 40
1.0
 40
1.0
 40
1.0
 10
5.2863013554
 20
4.4013354354
 30
0.0
 10
5.2855352444
 20
4.4004969057
 30
0.0
 10
5.2838964249
 20
4.3987732399
 30
0.0
 10
5.2812929654
 20
4.3961683906
 30
0.0
 10
5.2784877738
 20
4.3934730305
 30
0.0
 10
5.2745281521
 20
4.3897988257
 30
0.0
 10
5.2693588408
 20
4.385225225
 30
0.0
 10
5.262921352
 20
4.3798423014
 30
0.0
 10
5.2562673304
 20
4.3745715887
 30
0.0
 10
5.2494330938
 20
4.3694382216
 30
0.0
 10
5.2424394287
 20
4.3644559485
 30
0.0
 10
5.2329103465
 20
4.3580192731
 30
0.0
 10
5.2206673915
 20
4.3503950491
 30
0.0
 10
5.2055130922
 20
4.3419571475
 30
0.0
 10
5.1899297811
 20
4.3342486154
 30
0.0
 10
5.1739638994
 20
4.3272933043
 30
0.0
 10
5.1576582944
 20
4.3211110245
 30
0.0
 10
5.1355184801
 20
4.3139203281
 30
0.0
 10
5.1072004025
 20
4.306945079
 30
0.0
 10
5.0725545719
 20
4.3018897365
 30
0.0
 10
5.0375630725
 20
4.3001974067
 30
0.0
 10
5.0025714332
 20
4.3018869501
 30
0.0
 10
4.9679251871
 20
4.3069395289
 30
0.0
 10
4.9396065262
 20
4.3139125356
 30
0.0
 10
4.9174661033
 20
4.3211014744
 30
0.0
 10
4.9011599713
 20
4.3272824649
 30
0.0
 10
4.8851934917
 20
4.3342365173
 30
0.0
 10
4.8696095099
 20
4.3419438264
 30
0.0
 10
4.8544544616
 20
4.3503805481
 30
0.0
 10
4.8422108157
 20
4.3580038273
 30
0.0
 10
4.8326811271
 20
4.3644397778
 30
0.0
 10
4.8256869608
 20
4.3694215374
 30
0.0
 10
4.8188521661
 20
4.3745544258
 30
0.0
 10
4.8121974991
 20
4.3798247175
 30
0.0
 10
4.8057592052
 20
4.3852073387
 30
0.0
 10
4.8005890469
 20
4.3897808083
 30
0.0
 10
4.7966284854
 20
4.3934550911
 30
0.0
 10
4.793822197
 20
4.3961508439
 30
0.0
 10
4.7912171201
 20
4.3987565495
 30
0.0
 10
4.7895769813
 20
4.4004809374
 30
0.0
 10
4.7888100545
 20
4.4013199197
 30
0.0
  0
SPLINE
  5
419
100
AcDbEntity
  8
0
100
AcDbSpline
 62
7
  6
CONTINUOUS
 70
0
 71
3
 72
17
 73
13
 74
0
 42
0.0000001
 43
0.0000001
 44
0.0000000001
 40
0.0
 40
0.0
 40
0.0
 40
0.0
 40
0.185856721
 40
0.3597661974
 40
0.5191813712
 40
0.6614060963
 40
0.7835256051
 40
0.8823563537
 40
0.92212305
 40
0.9550503596
 40
0.980966811
 40
1.0
 40
1.0
 40
1.0
 40
1.0
 10
4.7888100545
 20
4.4013199197
 30
0.0
 10
4.7885953401
 20
4.4015548073
 30
0.0
 10
4.7881823581
 20
4.4020119126
 30
0.0
 10
4.7875958033
 20
4.402679971
 30
0.0
 10
4.787069362
 20
4.403301229
 30
0.0
 10
4.7866128952
 20
4.4038653932
 30
0.0
 10
4.7862372651
 20
4.4043610529
 30
0.0
 10
4.7859840973
 20
4.4047292671
 30
0.0
 10
4.7858346255
 20
4.4049821725
 30
0.0
 10
4.7857579627
 20
4.4051329194
 30
0.0
 10
4.7857092125
 20
4.4052570493
 30
0.0
 10
4.7856927965
 20
4.4053333873
 30
0.0
 10
4.7856924636
 20
4.4053659755
 30
0.0
  0
SPLINE
  5
41A
100
AcDbEntity
  8
0
100
AcDbSpline
 62
7
  6
CONTINUOUS
 70
0
 71
3
 72
21
 73
17
 74
0
 42
0.0000001
 43
0.0000001
 44
0.0000000001
 40
0.0
 40
0.0
 40
0.0
 40
0.0
 40
0.0199094638
 40
0.028586757
 40
0.037348303
 40
0.0469472083
 40
0.0579671625
 40
0.0856016771
 40
0.1217503211
 40
0.1667146949
 40
0.2204123135
 40
0.2824300214
 40
0.428747561
 40
0.6001654981
 40
0.7920064415
 40
1.0
 40
1.0
 40
1.0
 40
1.0
 10
4.7860805956
 20
4.3781125421
 30
0.0
 10
4.7860799684
 20
4.3781520522
 30
0.0
 10
4.7860876472
 20
4.3782112365
 30
0.0
 10
4.7861293563
 20
4.3782739321
 30
0.0
 10
4.7861722831
 20
4.3783075268
 30
0.0
 10
4.7862269517
 20
4.3783294911
 30
0.0
 10
4.7863219828
 20
4.3783451841
 30
0.0
 10
4.7864716018
 20
4.3783326501
 30
0.0
 10
4.7866812938
 20
4.3782805603
 30
0.0
 10
4.7869335919
 20
4.3781902994
 30
0.0
 10
4.7872260965
 20
4.3780629363
 30
0.0
 10
4.7876927595
 20
4.3778330534
 30
0.0
 10
4.7883512863
 20
4.3774656362
 30
0.0
 10
4.789215922
 20
4.3769407823
 30
0.0
 10
4.7901704888
 20
4.3763288429
 30
0.0
 10
4.7908315744
 20
4.375889813
 30
0.0
 10
4.7911742056
 20
4.3756595573
 30
0.0
  0
SPLINE
  5
41B
100
AcDbEntity
  8
0
100
AcDbSpline
 62
7
  6
CONTINUOUS
 70
0
 71
3
 72
45
 73
41
 74
0
 42
0.0000001
 43
0.0000001
 44
0.0000000001
 40
0.0
 40
0.0
 40
0.0
 40
0.0
 40
0.003110225
 40
0.0063852743
 40
0.0132756068
 40
0.0204584593
 40
0.0278212378
 40
0.042865322
 40
0.058154349
 40
0.0735851516
 40
0.0891074815
 40
0.1046936169
 40
0.1203268273
 40
0.1516928715
 40
0.1831543182
 40
0.2146827949
 40
0.2462611311
 40
0.2778779242
 40
0.309525011
 40
0.3728719159
 40
0.4362786658
 40
0.4997163705
 40
0.5631548334
 40
0.6265633707
 40
0.6899132902
 40
0.7215625075
 40
0.753181989
 40
0.7847637624
 40
0.8162967508
 40
0.8477643952
 40
0.8791395393
 40
0.9103722407
 40
0.9259062461
 40
0.9413542542
 40
0.9566709049
 40
0.9717649694
 40
0.9791709616
 40
0.9864206085
 40
0.99342136
 40
1.0
 40
1.0
 40
1.0
 40
1.0
 10
4.7911742056
 20
4.3756595573
 30
0.0
 10
4.791630057
 20
4.3753532151
 30
0.0
 10
4.7925613341
 20
4.3747174771
 30
0.0
 10
4.794486286
 20
4.3733794517
 30
0.0
 10
4.7969882664
 20
4.371611674
 30
0.0
 10
4.8000754964
 20
4.3694213684
 30
0.0
 10
4.8043432026
 20
4.3664066075
 30
0.0
 10
4.8098068604
 20
4.3626038887
 30
0.0
 10
4.8165059683
 20
4.3580834329
 30
0.0
 10
4.8233507872
 20
4.353629839
 30
0.0
 10
4.8303198867
 20
4.3492734512
 30
0.0
 10
4.8374012601
 20
4.3450319184
 30
0.0
 10
4.846992169
 20
4.3395393927
 30
0.0
 10
4.8592201324
 20
4.3330159995
 30
0.0
 10
4.8742343451
 20
4.3257807065
 30
0.0
 10
4.8895713166
 20
4.3191615213
 30
0.0
 10
4.9051984986
 20
4.3131829205
 30
0.0
 10
4.9210848889
 20
4.3078641427
 30
0.0
 10
4.9425738036
 20
4.3016721065
 30
0.0
 10
4.9699285885
 20
4.2956554007
 30
0.0
 10
5.003267294
 20
4.2912725824
 30
0.0
 10
5.0368766487
 20
4.2897678186
 30
0.0
 10
5.0704912933
 20
4.2911571244
 30
0.0
 10
5.1038458186
 20
4.2954256826
 30
0.0
 10
5.1312222277
 20
4.3013490839
 30
0.0
 10
5.1527334282
 20
4.3074683238
 30
0.0
 10
5.1686391424
 20
4.3127336795
 30
0.0
 10
5.1842881563
 20
4.3186602463
 30
0.0
 10
5.1996494585
 20
4.3252290613
 30
0.0
 10
5.2146907621
 20
4.3324163012
 30
0.0
 10
5.2293772337
 20
4.3401899823
 30
0.0
 10
5.2413075899
 20
4.3471311014
 30
0.0
 10
5.2506412628
 20
4.3529269444
 30
0.0
 10
5.2575070601
 20
4.3573665975
 30
0.0
 10
5.2642315773
 20
4.3618792954
 30
0.0
 10
5.2697206884
 20
4.3656828136
 30
0.0
 10
5.2740151846
 20
4.3687086099
 30
0.0
 10
5.2771348056
 20
4.3709205534
 30
0.0
 10
5.2801362979
 20
4.3730464617
 30
0.0
 10
5.2821022582
 20
4.3744196017
 30
0.0
 10
5.2830613126
 20
4.3750751594
 30
0.0
  0
SPLINE
  5
41C
100
AcDbEntity
  8
0
100
AcDbSpline
 62
7
  6
CONTINUOUS
 70
0
 71
3
 72
21
 73
17
 74
0
 42
0.0000001
 43
0.0000001
 44
0.0000000001
 40
0.0
 40
0.0
 40
0.0
 40
0.0
 40
0.2038604054
 40
0.3936470558
 40
0.5650733174
 40
0.7129290019
 40
0.7762686163
 40
0.8315763086
 40
0.8782239021
 40
0.9158563588
 40
0.9444857761
 40
0.9556886051
 40
0.9651985624
 40
0.973594467
 40
0.9816721698
 40
1.0
 40
1.0
 40
1.0
 40
1.0
 10
5.2830613126
 20
4.3750751594
 30
0.0
 10
5.2834537389
 20
4.3753434009
 30
0.0
 10
5.2842138268
 20
4.3758579763
 30
0.0
 10
5.2853148789
 20
4.376581795
 30
0.0
 10
5.2863201907
 20
4.3772130826
 30
0.0
 10
5.287091102
 20
4.3776628324
 30
0.0
 10
5.2876414332
 20
4.377951711
 30
0.0
 10
5.287989718
 20
4.3781170075
 30
0.0
 10
5.2882916923
 20
4.3782394828
 30
0.0
 10
5.2885435734
 20
4.3783166444
 30
0.0
 10
5.288723597
 20
4.3783453346
 30
0.0
 10
5.2888389504
 20
4.3783373636
 30
0.0
 10
5.2889048429
 20
4.378318466
 30
0.0
 10
5.2889569111
 20
4.3782854879
 30
0.0
 10
5.2890076503
 20
4.3782201218
 30
0.0
 10
5.2890171749
 20
4.3781552741
 30
0.0
 10
5.2890166466
 20
4.3781125421
 30
0.0
  0
SPLINE
  5
41D
100
AcDbEntity
  8
0
100
AcDbSpline
 62
7
  6
CONTINUOUS
 70
0
 71
3
 72
16
 73
12
 74
0
 42
0.0000001
 43
0.0000001
 44
0.0000000001
 40
0.0
 40
0.0
 40
0.0
 40
0.0
 40
0.0241462084
 40
0.0539824594
 40
0.0897161954
 40
0.1313020651
 40
0.2312893087
 40
0.3521419377
 40
0.4916431393
 40
0.6474879353
 40
1.0
 40
1.0
 40
1.0
 40
1.0
 10
5.2890166466
 20
4.3781125421
 30
0.0
 10
5.2890162587
 20
4.3780753018
 30
0.0
 10
5.2890037295
 20
4.3779922621
 30
0.0
 10
5.2889623565
 20
4.3778599824
 30
0.0
 10
5.2888972503
 20
4.3777078216
 30
0.0
 10
5.2887717635
 20
4.3774646687
 30
0.0
 10
5.2885568324
 20
4.3771210201
 30
0.0
 10
5.2882336914
 20
4.3766686542
 30
0.0
 10
5.2878386223
 20
4.3761624832
 30
0.0
 10
5.2871996236
 20
4.3753941435
 30
0.0
 10
5.2866763996
 20
4.3748098017
 30
0.0
 10
5.2863080493
 20
4.3744098865
 30
0.0
  0
SPLINE
  5
41E
100
AcDbEntity
  8
0
100
AcDbSpline
 62
7
  6
CONTINUOUS
 70
0
 71
3
 72
49
 73
45
 74
0
 42
0.0000001
 43
0.0000001
 44
0.0000000001
 40
0.0
 40
0.0
 40
0.0
 40
0.0
 40
0.0028974825
 40
0.0060029797
 40
0.0126514787
 40
0.0196851048
 40
0.0269570627
 40
0.0343832733
 40
0.0419136743
 40
0.0571773009
 40
0.0726118107
 40
0.0881533402
 40
0.1037677969
 40
0.1194351369
 40
0.1508796937
 40
0.1824284649
 40
0.2140497379
 40
0.2457245976
 40
0.2774406402
 40
0.3091890678
 40
0.3727410655
 40
0.4363571366
 40
0.5000062074
 40
0.5636552758
 40
0.6272713195
 40
0.6908232614
 40
0.7225716517
 40
0.7542876481
 40
0.7859624499
 40
0.8175836468
 40
0.8491323107
 40
0.8805766976
 40
0.8962439134
 40
0.9118582085
 40
0.9273995175
 40
0.9428336993
 40
0.9580967777
 40
0.9656267513
 40
0.9730523177
 40
0.9803233195
 40
0.9873553995
 40
0.9940013651
 40
0.9971051372
 40
1.0
 40
1.0
 40
1.0
 40
1.0
 10
5.2863080493
 20
4.3744098865
 30
0.0
 10
5.2859512385
 20
4.3740224996
 30
0.0
 10
5.2852005333
 20
4.3732304499
 30
0.0
 10
5.2835838155
 20
4.3715948824
 30
0.0
 10
5.2813832506
 20
4.3694801784
 30
0.0
 10
5.2785729379
 20
4.366908975
 30
0.0
 10
5.2756051756
 20
4.3643016769
 30
0.0
 10
5.2725235426
 20
4.3616881894
 30
0.0
 10
5.2682784703
 20
4.3582017282
 30
0.0
 10
5.2628119207
 20
4.3539103647
 30
0.0
 10
5.2560638094
 20
4.3488982859
 30
0.0
 10
5.2491382167
 20
4.3440228577
 30
0.0
 10
5.2420592532
 20
4.3392962814
 30
0.0
 10
5.2324258383
 20
4.3331957633
 30
0.0
 10
5.2200750765
 20
4.3259805526
 30
0.0
 10
5.2048297953
 20
4.3180081118
 30
0.0
 10
5.1891926354
 20
4.3107344967
 30
0.0
 10
5.1732083749
 20
4.3041791629
 30
0.0
 10
5.1569173522
 20
4.298358252
 30
0.0
 10
5.1348360724
 20
4.2915935818
 30
0.0
 10
5.1066580758
 20
4.2850398912
 30
0.0
 10
5.0722519465
 20
4.2802951519
 30
0.0
 10
5.0375374011
 20
4.2787090371
 30
0.0
 10
5.0028229542
 20
4.2802971979
 30
0.0
 10
4.9684171201
 20
4.2850439639
 30
0.0
 10
4.9402395327
 20
4.2915993177
 30
0.0
 10
4.918158678
 20
4.2983652886
 30
0.0
 10
4.9018680249
 20
4.3041871574
 30
0.0
 10
4.8858841844
 20
4.3107434291
 30
0.0
 10
4.8702474984
 20
4.3180179592
 30
0.0
 10
4.8550027533
 20
4.3259912867
 30
0.0
 10
4.8426524947
 20
4.3332072146
 30
0.0
 10
4.83301953
 20
4.3393082889
 30
0.0
 10
4.8259409416
 20
4.3440352614
 30
0.0
 10
4.8190157685
 20
4.3489110616
 30
0.0
 10
4.8122681508
 20
4.3539234708
 30
0.0
 10
4.8068020908
 20
4.3582150749
 30
0.0
 10
4.8025575152
 20
4.3617016773
 30
0.0
 10
4.7994763847
 20
4.3643151877
 30
0.0
 10
4.7965093015
 20
4.3669223927
 30
0.0
 10
4.7936999525
 20
4.3694932939
 30
0.0
 10
4.7915004522
 20
4.3716075852
 30
0.0
 10
4.7898849267
 20
4.3732425737
 30
0.0
 10
4.7891349561
 20
4.3740342325
 30
0.0
 10
4.7887785852
 20
4.3744213773
 30
0.0
  0
SPLINE
  5
41F
100
AcDbEntity
  8
0
100
AcDbSpline
 62
7
  6
CONTINUOUS
 70
0
 71
3
 72
16
 73
12
 74
0
 42
0.0000001
 43
0.0000001
 44
0.0000000001
 40
0.0
 40
0.0
 40
0.0
 40
0.0
 40
0.352440237
 40
0.5082682931
 40
0.6478005099
 40
0.7686782452
 40
0.8686103619
 40
0.9101436054
 40
0.9458500746
 40
0.975721626
 40
1.0
 40
1.0
 40
1.0
 40
1.0
 10
4.7887785852
 20
4.3744213773
 30
0.0
 10
4.7884116767
 20
4.3748199697
 30
0.0
 10
4.7878905063
 20
4.3754024074
 30
0.0
 10
4.7872540423
 20
4.3761683435
 30
0.0
 10
4.786860497
 20
4.3766730253
 30
0.0
 10
4.7865386153
 20
4.3771239791
 30
0.0
 10
4.786324521
 20
4.3774663812
 30
0.0
 10
4.7861995876
 20
4.3777085463
 30
0.0
 10
4.7861347874
 20
4.3778601534
 30
0.0
 10
4.7860935685
 20
4.3779922232
 30
0.0
 10
4.7860810679
 20
4.3780752256
 30
0.0
 10
4.7860805956
 20
4.3781125421
 30
0.0
  0
SPLINE
  5
420
100
AcDbEntity
  8
0
100
AcDbSpline
 62
7
  6
CONTINUOUS
 70
0
 71
3
 72
24
 73
20
 74
0
 42
0.0000001
 43
0.0000001
 44
0.0000000001
 40
0.0
 40
0.0
 40
0.0
 40
0.0
 40
0.0593495363
 40
0.0891397083
 40
0.1190137448
 40
0.1790310968
 40
0.2394754413
 40
0.3003912522
 40
0.3618086903
 40
0.4237429668
 40
0.4861936706
 40
0.5491460474
 40
0.6125714342
 40
0.6764274906
 40
0.740661784
 40
0.805210472
 40
0.8699992354
 40
0.9349645316
 40
1.0
 40
1.0
 40
1.0
 40
1.0
 10
4.5396039424
 20
4.4619275725
 30
0.0
 10
4.5342192503
 20
4.4631812634
 30
0.0
 10
4.5262134079
 20
4.4654440792
 30
0.0
 10
4.5157759099
 20
4.4691904394
 30
0.0
 10
4.5054629842
 20
4.4734356512
 30
0.0
 10
4.4928898049
 20
4.4796507272
 30
0.0
 10
4.4784595766
 20
4.4884822397
 30
0.0
 10
4.464763795
 20
4.4986354343
 30
0.0
 10
4.4519024245
 20
4.5100360733
 30
0.0
 10
4.439968358
 20
4.5226013258
 30
0.0
 10
4.4290474307
 20
4.5362394377
 30
0.0
 10
4.4192183194
 20
4.55085141
 30
0.0
 10
4.4105521589
 20
4.5663314328
 30
0.0
 10
4.4031109957
 20
4.5825671729
 30
0.0
 10
4.3969483458
 20
4.5994411027
 30
0.0
 10
4.3921087853
 20
4.6168308297
 30
0.0
 10
4.3886264871
 20
4.6346118365
 30
0.0
 10
4.3865277824
 20
4.6526530526
 30
0.0
 10
4.3860599235
 20
4.6647684783
 30
0.0
 10
4.3860599235
 20
4.6708268634
 30
0.0
  0
SPLINE
  5
421
100
AcDbEntity
  8
0
100
AcDbSpline
 62
7
  6
CONTINUOUS
 70
0
 71
3
 72
26
 73
22
 74
0
 42
0.0000001
 43
0.0000001
 44
0.0000000001
 40
0.0
 40
0.0
 40
0.0
 40
0.0
 40
0.0593237143
 40
0.0890875667
 40
0.1189279386
 40
0.1788601897
 40
0.2392076683
 40
0.2695633414
 40
0.3000423125
 40
0.3613714676
 40
0.4232344469
 40
0.4856372744
 40
0.5170457156
 40
0.5485836418
 40
0.6120177224
 40
0.675911878
 40
0.7402115553
 40
0.8048501713
 40
0.8697478393
 40
0.9348345647
 40
1.0
 40
1.0
 40
1.0
 40
1.0
 10
4.4336273493
 20
4.8817952345
 30
0.0
 10
4.4279768427
 20
4.8808264033
 30
0.0
 10
4.419554862
 20
4.8789566646
 30
0.0
 10
4.4085415618
 20
4.8756599227
 30
0.0
 10
4.3976425291
 20
4.8718192871
 30
0.0
 10
4.3843195379
 20
4.866019654
 30
0.0
 10
4.3715590549
 20
4.8589670863
 30
0.0
 10
4.3617250856
 20
4.8526013688
 30
0.0
 10
4.3521172411
 20
4.8457347776
 30
0.0
 10
4.3406396237
 20
4.836276063
 30
0.0
 10
4.3278618438
 20
4.8236575347
 30
0.0
 10
4.3181177431
 20
4.8121679521
 30
0.0
 10
4.3108973903
 20
4.8024374787
 30
0.0
 10
4.3040458668
 20
4.7923231335
 30
0.0
 10
4.2962584566
 20
4.7790689131
 30
0.0
 10
4.2882419489
 20
4.7623520531
 30
0.0
 10
4.2815959939
 20
4.7449195955
 30
0.0
 10
4.2763730984
 20
4.7269088926
 30
0.0
 10
4.2726126187
 20
4.7084593284
 30
0.0
 10
4.2703453591
 20
4.6897175878
 30
0.0
 10
4.2698399015
 20
4.6771243617
 30
0.0
 10
4.2698399015
 20
4.6708268634
 30
0.0
  0
ENDSEC
  0
SECTION
  2
OBJECTS
  0
DICTIONARY
  5
C
100
AcDbDictionary
280
0
281
1
  3
ACAD_GROUP
350
D
  3
ACAD_MLINESTYLE
350
17
  3
ACAD_LAYOUT
350
1A
  3
ACAD_PLOTSETTINGS
350
19
  3
ACAD_PLOTSTYLENAME
350
E
  0
DICTIONARY
  5
D
102
{ACAD_REACTORS
330
C
102
}
100
AcDbDictionary
280
0
281
1
  0
ACDBDICTIONARYWDFLT
  5
E
102
{ACAD_REACTORS
330
C
102
}
100
AcDbDictionary
281
1
  3
Normal
350
F
100
AcDbDictionaryWithDefault
340
F
  0
DICTIONARY
  5
17
102
{ACAD_REACTORS
330
C
102
}
100
AcDbDictionary
280
0
281
1
  3
Standard
350
18
  0
DICTIONARY
  5
19
102
{ACAD_REACTORS
330
C
102
}
100
AcDbDictionary
281
1
  0
DICTIONARY
  5
1A
102
{ACAD_REACTORS
330
C
102
}
100
AcDbDictionary
281
1
  3
Model
350
422
  3
Layout1
350
423
  0
ACDBPLACEHOLDER
  5
F
102
{ACAD_REACTORS
330
E
102
}
  0
MLINESTYLE
  5
18
102
{ACAD_REACTORS
330
17
102
}
100
AcDbMlineStyle
  2
STANDARD
 70
0
  3

 62
256
 51
90.0
 52
90.0
 71
2
 49
0.5
 62
256
  6
BYLAYER
 49
-0.5
 62
256
  6
BYLAYER
  0
LAYOUT
  5
422
102
{ACAD_REACTORS
330
1A
102
}
100
AcDbPlotSettings
  1

  2
none_device
  4
ANSI_A_(11.00_x_8.50_Inches)
  6

 40
0.0
 41
0.0
 42
0.0
 43
0.0
 44
279.4
 45
215.9
 46
0.0
 47
0.0
 48
0.0
 49
0.0
140
0.0
141
0.0
142
1.0
143
1.0
 70
1024
 72
0
 73
0
 74
0
  7

 75
0
147
1.0
148
0.0
149
0.0
100
AcDbLayout
  1
Model
 70
0
 71
0
 10
0.0
 20
0.0
 11
11.0
 21
8.5
 12
0.0
 22
0.0
 32
0.0
 14
0.0
 24
0.0
 34
0.0
 15
0.0
 25
0.0
 35
0.0
146
0.0
 13
0.0
 23
0.0
 33
0.0
 16
1.0
 26
0.0
 36
0.0
 17
0.0
 27
1.0
 37
0.0
 76
0
330
202
345
0
346
0
  0
LAYOUT
  5
423
102
{ACAD_REACTORS
330
1A
102
}
100
AcDbPlotSettings
  1

  2
none_device
  4
ANSI_A_(11.00_x_8.50_Inches)
  6

 40
0.0
 41
0.0
 42
0.0
 43
0.0
 44
279.4
 45
215.9
 46
0.0
 47
0.0
 48
0.0
 49
0.0
140
0.0
141
0.0
142
1.0
143
1.0
 70
0
 72
0
 73
0
 74
0
  7

 75
0
147
1.0
148
0.0
149
0.0
100
AcDbLayout
  1
Layout1
 70
0
 71
1
 10
0.0
 20
0.0
 11
11.0
 21
8.5
 12
0.0
 22
0.0
 32
0.0
 14
0.0
 24
0.0
 34
0.0
 15
0.0
 25
0.0
 35
0.0
146
0.0
 13
0.0
 23
0.0
 33
0.0
 16
1.0
 26
0.0
 36
0.0
 17
0.0
 27
1.0
 37
0.0
 76
0
330
203
345
0
346
0
  0
ENDSEC
  0
EOF
