999
DXF file: 2500-5751_right.dxf
999
Pro/ENGINEER 2013150 by Parametric Technology Corporation
  0
SECTION
  2
HEADER
  9
$ACADVER
  1
AC1021
  9
$DWGCODEPAGE
  3
ANSI_1252
  9
$EXTMAX
 10
11.0
 20
8.5
 30
0.0
  9
$EXTMIN
 10
0.0
 20
0.0
 30
0.0
  9
$LIMMIN
 10
0.0
 20
0.0
  9
$LIMMAX
 10
11.0
 20
8.5
  9
$VIEWCTR
 10
5.5
 20
4.25
  9
$VIEWSIZE
 40
8.5
  9
$CLAYER
  8
0
  9
$LTSCALE
 40
0.605
  9
$CELTYPE
  6
BYLAYER
  9
$DIMSCALE
 40
1.0
  9
$DIMASZ
 40
0.1
  9
$DIMEXO
 40
0.0625
  9
$DIMDLI
 40
0.418
  9
$DIMEXE
 40
0.125
  9
$DIMCEN
 40
0.099
  9
$DIMLFAC
 40
1.0
  9
$DIMBLK
  1
_FILLED
  9
$DIMTXT
 40
0.08
  9
$DIMTOL
 70
1
  9
$DIMLIM
 70
0
  9
$DIMTFAC
 40
1.0
  9
$DIMTP
 40
0.001
  9
$DIMTM
 40
0.001
  9
$DIMGAP
 40
0.09
  9
$DIMDSEP
 70
46
  9
$PDMODE
 70
3
  9
$PDSIZE
 40
0.3125
  9
$HANDSEED
  5
321
  9
$TILEMODE
 70
1
  9
$MEASUREMENT
 70
0
  9
$INSUNITS
 70
1
  0
ENDSEC
  0
SECTION
  2
CLASSES
  0
CLASS
  1
ACDBDICTIONARYWDFLT
  2
AcDbDictionaryWithDefault
  3
AutoCAD 2000
 90
0
 91
1
280
0
281
0
  0
CLASS
  1
ACDBPLACEHOLDER
  2
AcDbPlaceHolder
  3
AutoCAD 2000
 90
0
 91
1
280
0
281
0
  0
CLASS
  1
LAYOUT
  2
AcDbLayout
  3
AutoCAD 2000
 90
0
 91
0
280
0
281
0
  0
ENDSEC
  0
SECTION
  2
TABLES
  0
TABLE
  2
VPORT
  5
8
100
AcDbSymbolTable
 70
2
  0
VPORT
  5
1F4
100
AcDbSymbolTableRecord
100
AcDbViewportTableRecord
  2
*ACTIVE
 70
0
 10
0.0
 20
0.0
 11
1.0
 21
1.0
 12
5.5
 22
4.25
 13
0.0
 23
0.0
 14
1.0
 24
1.0
 15
0.0
 25
0.0
 16
0.0
 26
0.0
 36
1.0
 17
0.0
 27
0.0
 37
0.0
 40
8.5
 41
1.2941176471
 42
50.0
 43
0.0
 44
0.0
 50
0.0
 51
0.0
 71
0
 72
100
 73
1
 74
1
 75
0
 76
0
 77
0
 78
0
  0
ENDTAB
  0
TABLE
  2
LTYPE
  5
5
100
AcDbSymbolTable
 70
6
  0
LTYPE
  5
14
100
AcDbSymbolTableRecord
100
AcDbLinetypeTableRecord
  2
BYBLOCK
 70
0
  3

 72
65
 73
0
 40
0.0
  0
LTYPE
  5
15
100
AcDbSymbolTableRecord
100
AcDbLinetypeTableRecord
  2
BYLAYER
 70
0
  3

 72
65
 73
0
 40
0.0
  0
LTYPE
  5
16
100
AcDbSymbolTableRecord
100
AcDbLinetypeTableRecord
  2
CONTINUOUS
 70
64
  3
Solid line
 72
65
 73
0
 40
0.0
  0
LTYPE
  5
1F5
100
AcDbSymbolTableRecord
100
AcDbLinetypeTableRecord
  2
CENTER
 70
64
  3
____ _ ____ _ ____ _ ____ _ ____ _ ____ _ ____
 72
65
 73
4
 40
0.6
 49
0.375
 74
0
 49
-0.075
 74
0
 49
0.075
 74
0
 49
-0.075
 74
0
  0
LTYPE
  5
1F6
100
AcDbSymbolTableRecord
100
AcDbLinetypeTableRecord
  2
HIDDEN
 70
64
  3
- - - - - - - - - - - - - - - - - - - -
 72
65
 73
2
 40
0.2
 49
0.1
 74
0
 49
-0.1
 74
0
  0
LTYPE
  5
1F7
100
AcDbSymbolTableRecord
100
AcDbLinetypeTableRecord
  2
PHANTOM
 70
64
  3
_____ _ _ _____ _ _ _____ _ _ _____
 72
65
 73
6
 40
0.8
 49
0.45
 74
0
 49
-0.05
 74
0
 49
0.1
 74
0
 49
-0.05
 74
0
 49
0.1
 74
0
 49
-0.05
 74
0
  0
LTYPE
  5
1F8
100
AcDbSymbolTableRecord
100
AcDbLinetypeTableRecord
  2
DOT
 70
64
  3
. . . . . . . . . . . . . . . . . . . .
 72
65
 73
2
 40
0.2
 49
0.1
 74
0
 49
-0.1
 74
0
  0
LTYPE
  5
1F9
100
AcDbSymbolTableRecord
100
AcDbLinetypeTableRecord
  2
DASHED
 70
64
  3
- - - - - - - - - - - - - - - - - - - -
 72
65
 73
2
 40
0.2
 49
0.1
 74
0
 49
-0.1
 74
0
  0
ENDTAB
  0
TABLE
  2
LAYER
  5
2
100
AcDbSymbolTable
 70
36
  0
LAYER
  5
10
100
AcDbSymbolTableRecord
100
AcDbLayerTableRecord
  2
0
 70
0
 62
7
  6
CONTINUOUS
370
-3
390
F
  0
LAYER
  5
1FA
100
AcDbSymbolTableRecord
100
AcDbLayerTableRecord
  2
DEFAULT_1
 70
0
 62
7
  6
CENTER
370
-3
390
F
  0
LAYER
  5
1FB
100
AcDbSymbolTableRecord
100
AcDbLayerTableRecord
  2
DEFAULT_2
 70
0
 62
8
  6
HIDDEN
370
-3
390
F
  0
LAYER
  5
1FC
100
AcDbSymbolTableRecord
100
AcDbLayerTableRecord
  2
DEFAULT_3
 70
0
 62
7
  6
PHANTOM
370
-3
390
F
  0
LAYER
  5
1FD
100
AcDbSymbolTableRecord
100
AcDbLayerTableRecord
  2
01___PRT_ALL_DTM_PLN
 70
0
 62
7
  6
CONTINUOUS
370
-3
390
F
  0
LAYER
  5
1FE
100
AcDbSymbolTableRecord
100
AcDbLayerTableRecord
  2
01___PRT_DEF_DTM_PLN
 70
0
 62
7
  6
CONTINUOUS
370
-3
390
F
  0
LAYER
  5
1FF
100
AcDbSymbolTableRecord
100
AcDbLayerTableRecord
  2
02___PRT_ALL_AXES
 70
0
 62
7
  6
CONTINUOUS
370
-3
390
F
  0
LAYER
  5
200
100
AcDbSymbolTableRecord
100
AcDbLayerTableRecord
  2
03___PRT_ALL_CURVES
 70
0
 62
7
  6
CONTINUOUS
370
-3
390
F
  0
LAYER
  5
201
100
AcDbSymbolTableRecord
100
AcDbLayerTableRecord
  2
04___PRT_ALL_DTM_PNT
 70
0
 62
7
  6
CONTINUOUS
370
-3
390
F
  0
LAYER
  5
202
100
AcDbSymbolTableRecord
100
AcDbLayerTableRecord
  2
05___PRT_ALL_DTM_CSYS
 70
0
 62
7
  6
CONTINUOUS
370
-3
390
F
  0
LAYER
  5
203
100
AcDbSymbolTableRecord
100
AcDbLayerTableRecord
  2
05___PRT_DEF_DTM_CSYS
 70
0
 62
7
  6
CONTINUOUS
370
-3
390
F
  0
LAYER
  5
204
100
AcDbSymbolTableRecord
100
AcDbLayerTableRecord
  2
06___PRT_ALL_SURFS
 70
0
 62
7
  6
CONTINUOUS
370
-3
390
F
  0
LAYER
  5
205
100
AcDbSymbolTableRecord
100
AcDbLayerTableRecord
  2
ALL_FEATURES
 70
0
 62
7
  6
CONTINUOUS
370
-3
390
F
  0
LAYER
  5
206
100
AcDbSymbolTableRecord
100
AcDbLayerTableRecord
  2
AXES_FEATURES
 70
0
 62
7
  6
CONTINUOUS
370
-3
390
F
  0
LAYER
  5
207
100
AcDbSymbolTableRecord
100
AcDbLayerTableRecord
  2
DEFAULT_DATUM_CURVES
 70
0
 62
7
  6
CONTINUOUS
370
-3
390
F
  0
LAYER
  5
208
100
AcDbSymbolTableRecord
100
AcDbLayerTableRecord
  2
DEFAULT_SURFACES
 70
0
 62
7
  6
CONTINUOUS
370
-3
390
F
  0
LAYER
  5
209
100
AcDbSymbolTableRecord
100
AcDbLayerTableRecord
  2
DIMENSIONS
 70
0
 62
7
  6
CONTINUOUS
370
-3
390
F
  0
ENDTAB
  0
TABLE
  2
STYLE
  5
3
100
AcDbSymbolTable
 70
1
  0
STYLE
  5
11
100
AcDbSymbolTableRecord
100
AcDbTextStyleTableRecord
  2
STANDARD
 70
0
 40
0.0
 41
0.8
 50
0.0
 71
0
 42
0.2
  3
txt
  4

  0
STYLE
  5
20A
100
AcDbSymbolTableRecord
100
AcDbTextStyleTableRecord
  2
TEXTSTYLE_1
 70
0
 40
0.0
 41
0.8
 50
0.0
 71
0
 42
0.2
  3
gdt
  4

  0
ENDTAB
  0
TABLE
  2
VIEW
  5
6
100
AcDbSymbolTable
 70
0
  0
ENDTAB
  0
TABLE
  2
UCS
  5
7
100
AcDbSymbolTable
 70
0
  0
ENDTAB
  0
TABLE
  2
APPID
  5
9
100
AcDbSymbolTable
 70
1
  0
APPID
  5
20B
100
AcDbSymbolTableRecord
100
AcDbRegAppTableRecord
  2
ACAD
 70
0
  0
ENDTAB
  0
TABLE
  2
BLOCK_RECORD
  5
1
100
AcDbSymbolTable
 70
0
  0
BLOCK_RECORD
  5
20C
100
AcDbSymbolTableRecord
100
AcDbBlockTableRecord
  2
*Model_Space
  0
BLOCK_RECORD
  5
20D
100
AcDbSymbolTableRecord
100
AcDbBlockTableRecord
  2
*Paper_Space
  0
ENDTAB
  0
TABLE
  2
DIMSTYLE
  5
A
100
AcDbSymbolTable
 70
1
100
AcDbDimStyleTable
 71
0
  0
DIMSTYLE
105
20E
100
AcDbSymbolTableRecord
100
AcDbDimStyleTableRecord
  2
STANDARD
 70
0
  3

  4

 40
1.0
 41
0.1
 42
0.0625
 43
0.38
 44
0.125
 45
0.0
 46
0.0
 47
0.001
 48
0.001
140
0.08
141
0.09
142
0.0
143
25.4
144
1.0
145
0.0
146
1.0
147
0.09
 71
1.0
 72
0.0
 73
1
 74
1
 75
0
 76
0
 77
0
 78
4
170
0
171
2
172
0
173
0
174
0
175
0
176
0
177
0
178
0
270
2
271
3
272
3
273
2
274
2
275
0
280
0
281
0
282
0
283
1
284
4
285
0
286
0
287
3
288
0
340
11
278
46
  0
ENDTAB
  0
ENDSEC
  0
SECTION
  2
BLOCKS
  0
BLOCK
  5
20
100
AcDbEntity
  8
0
100
AcDbBlockBegin
  2
*Model_Space
 70
0
 10
0.0
 20
0.0
 30
0.0
  3
*Model_Space
  1

  0
ENDBLK
  5
21
100
AcDbEntity
  8
0
100
AcDbBlockEnd
  0
BLOCK
  5
1C
100
AcDbEntity
  8
0
100
AcDbBlockBegin
  2
*Paper_Space
 70
0
 10
0.0
 20
0.0
 30
0.0
  3
*Paper_Space
  1

  0
ENDBLK
  5
1D
100
AcDbEntity
  8
0
100
AcDbBlockEnd
  0
ENDSEC
  0
SECTION
  2
ENTITIES
  0
LINE
  5
20F
100
AcDbEntity
  8
0
100
AcDbLine
 62
7
  6
CONTINUOUS
 10
0.0
 20
0.0
 11
0.0
 21
8.5
  0
LINE
  5
210
100
AcDbEntity
  8
0
100
AcDbLine
 62
7
  6
CONTINUOUS
 10
0.0
 20
0.0
 11
11.0
 21
0.0
  0
LINE
  5
211
100
AcDbEntity
  8
0
100
AcDbLine
 62
7
  6
CONTINUOUS
 10
0.0
 20
8.5
 11
11.0
 21
8.5
  0
LINE
  5
212
100
AcDbEntity
  8
0
100
AcDbLine
 62
7
  6
CONTINUOUS
 10
11.0
 20
0.0
 11
11.0
 21
8.5
  0
LINE
  5
213
100
AcDbEntity
  8
02___PRT_ALL_AXES
100
AcDbLine
 62
7
  6
CONTINUOUS
 10
3.5390873139
 20
3.1662127792
 11
5.6990873139
 21
3.1662127792
  0
LWPOLYLINE
  5
214
100
AcDbEntity
  8
0
100
AcDbPolyline
 62
7
  6
CONTINUOUS
 90
3
 70
0
 10
4.0769454987
 20
5.1075599133
 10
4.0762030107
 20
5.1067763735
 10
4.0754371852
 20
5.1060126644
  0
LWPOLYLINE
  5
215
100
AcDbEntity
  8
0
100
AcDbPolyline
 62
7
  6
CONTINUOUS
 90
9
 70
0
 10
4.0754371852
 20
5.1060126644
 10
4.0745076159
 20
5.105138286
 10
4.0736359513
 20
5.1043630315
 10
4.0727412966
 20
5.103606314
 10
4.0718195819
 20
5.1028618155
 10
4.0708704307
 20
5.1021276399
 10
4.0698960853
 20
5.1014046049
 10
4.0688958596
 20
5.1006913752
 10
4.0678711646
 20
5.0999875694
  0
LWPOLYLINE
  5
216
100
AcDbEntity
  8
0
100
AcDbPolyline
 62
7
  6
CONTINUOUS
 90
9
 70
0
 10
4.0746507218
 20
5.1052692089
 10
4.0738448794
 20
5.1045454275
 10
4.0730142266
 20
5.1038336506
 10
4.0721578539
 20
5.103131228
 10
4.0712789953
 20
5.1024396439
 10
4.070377766
 20
5.1017582547
 10
4.0694553038
 20
5.1010870148
 10
4.0685118338
 20
5.1004247243
 10
4.0675460118
 20
5.0997694361
  0
LINE
  5
217
100
AcDbEntity
  8
0
100
AcDbLine
 62
7
  6
CONTINUOUS
 10
4.0678711646
 20
5.0999875694
 11
4.0665588614
 21
5.0991211466
  0
LINE
  5
218
100
AcDbEntity
  8
0
100
AcDbLine
 62
7
  6
CONTINUOUS
 10
4.0668220051
 20
5.0992920174
 11
4.0655499598
 21
5.0984790871
  0
LINE
  5
219
100
AcDbEntity
  8
0
100
AcDbLine
 62
7
  6
CONTINUOUS
 10
4.0657459735
 20
5.0986023654
 11
4.0645158795
 21
5.0978406752
  0
LWPOLYLINE
  5
21A
100
AcDbEntity
  8
0
100
AcDbPolyline
 62
7
  6
CONTINUOUS
 90
3
 70
0
 10
4.0646436081
 20
5.0979185039
 10
4.0635149712
 20
5.0972399567
 10
4.0623570601
 20
5.0965643925
  0
LINE
  5
21B
100
AcDbEntity
  8
0
100
AcDbLine
 62
7
  6
CONTINUOUS
 10
4.0623716102
 20
5.0965727846
 11
4.0612624977
 21
5.0959432682
  0
LINE
  5
21C
100
AcDbEntity
  8
0
100
AcDbLine
 62
7
  6
CONTINUOUS
 10
4.0612624977
 20
5.0959432682
 11
4.0599490309
 21
5.095218453
  0
LINE
  5
21D
100
AcDbEntity
  8
0
100
AcDbLine
 62
7
  6
CONTINUOUS
 10
4.0601268465
 20
5.0953153124
 11
4.0587075774
 21
5.094552259
  0
LINE
  5
21E
100
AcDbEntity
  8
0
100
AcDbLine
 62
7
  6
CONTINUOUS
 10
4.0589668679
 20
5.0946899446
 11
4.057442707
 21
5.0938908425
  0
LINE
  5
21F
100
AcDbEntity
  8
0
100
AcDbLine
 62
7
  6
CONTINUOUS
 10
4.0577883886
 20
5.0940699471
 11
4.0561552506
 21
5.0932341978
  0
LINE
  5
220
100
AcDbEntity
  8
0
100
AcDbLine
 62
7
  6
CONTINUOUS
 10
4.0565915607
 20
5.0934549544
 11
4.0548524171
 21
5.092585445
  0
LINE
  5
221
100
AcDbEntity
  8
0
100
AcDbLine
 62
7
  6
CONTINUOUS
 10
4.0553765976
 20
5.0928446574
 11
4.0535353656
 21
5.0919444969
  0
LINE
  5
222
100
AcDbEntity
  8
0
100
AcDbLine
 62
7
  6
CONTINUOUS
 10
4.0541493484
 20
5.0922415036
 11
4.0522031494
 21
5.0913102851
  0
LINE
  5
223
100
AcDbEntity
  8
0
100
AcDbLine
 62
7
  6
CONTINUOUS
 10
4.0529110136
 20
5.0916455381
 11
4.0516605932
 21
5.0910558284
  0
LINE
  5
224
100
AcDbEntity
  8
0
100
AcDbLine
 62
7
  6
CONTINUOUS
 10
4.0522031494
 20
5.0913102851
 11
4.0504006017
 21
5.0904731194
  0
LINE
  5
225
100
AcDbEntity
  8
0
100
AcDbLine
 62
7
  6
CONTINUOUS
 10
4.0508598244
 20
5.0906842072
 11
4.0491313656
 21
5.0898971013
  0
LINE
  5
226
100
AcDbEntity
  8
0
100
AcDbLine
 62
7
  6
CONTINUOUS
 10
4.0495062117
 20
5.0900660946
 11
4.0478527187
 21
5.0893272532
  0
LINE
  5
227
100
AcDbEntity
  8
0
100
AcDbLine
 62
7
  6
CONTINUOUS
 10
4.0481417282
 20
5.0894551495
 11
4.0465664481
 21
5.0887639301
  0
LWPOLYLINE
  5
228
100
AcDbEntity
  8
0
100
AcDbPolyline
 62
7
  6
CONTINUOUS
 90
3
 70
0
 10
4.0467683543
 20
5.0888517285
 10
4.045386298
 20
5.0882553974
 10
4.0439955362
 20
5.0876657316
  0
LINE
  5
229
100
AcDbEntity
  8
0
100
AcDbLine
 62
7
  6
CONTINUOUS
 10
4.0439718278
 20
5.0876557554
 11
4.04266454
 21
5.0871106922
  0
LINE
  5
22A
100
AcDbEntity
  8
0
100
AcDbLine
 62
7
  6
CONTINUOUS
 10
4.04266454
 20
5.0871106922
 11
4.0411930433
 21
5.0865070255
  0
LINE
  5
22B
100
AcDbEntity
  8
0
100
AcDbLine
 62
7
  6
CONTINUOUS
 10
4.04135104
 20
5.0865713807
 11
4.0397815101
 21
5.0859372759
  0
LINE
  5
22C
100
AcDbEntity
  8
0
100
AcDbLine
 62
7
  6
CONTINUOUS
 10
4.0400314328
 20
5.0860375274
 11
4.0383645379
 21
5.0853739695
  0
LINE
  5
22D
100
AcDbEntity
  8
0
100
AcDbLine
 62
7
  6
CONTINUOUS
 10
4.0387070091
 20
5.0855093316
 11
4.0369423739
 21
5.0848168554
  0
LINE
  5
22E
100
AcDbEntity
  8
0
100
AcDbLine
 62
7
  6
CONTINUOUS
 10
4.0373780406
 20
5.0849866429
 11
4.0355149795
 21
5.0842656354
  0
LINE
  5
22F
100
AcDbEntity
  8
0
100
AcDbLine
 62
7
  6
CONTINUOUS
 10
4.0360444344
 20
5.084469182
 11
4.0333656342
 21
5.083449852
  0
LINE
  5
230
100
AcDbEntity
  8
0
100
AcDbLine
 62
7
  6
CONTINUOUS
 10
4.0340833592
 20
5.08372041
 11
4.0312078139
 21
5.0826469027
  0
LINE
  5
231
100
AcDbEntity
  8
0
100
AcDbLine
 62
7
  6
CONTINUOUS
 10
4.032020601
 20
5.0829475381
 11
4.0293224955
 21
5.0819576392
  0
LINE
  5
232
100
AcDbEntity
  8
0
100
AcDbLine
 62
7
  6
CONTINUOUS
 10
4.0297650652
 20
5.0821184654
 11
4.0268713921
 21
5.0810776603
  0
LINE
  5
233
100
AcDbEntity
  8
0
100
AcDbLine
 62
7
  6
CONTINUOUS
 10
4.027969605
 20
5.0814697486
 11
4.0252577625
 21
5.0805077462
  0
LINE
  5
234
100
AcDbEntity
  8
0
100
AcDbLine
 62
7
  6
CONTINUOUS
 10
4.0254211047
 20
5.0805650932
 11
4.0225146386
 21
5.0795548843
  0
LINE
  5
235
100
AcDbEntity
  8
0
100
AcDbLine
 62
7
  6
CONTINUOUS
 10
4.0225390429
 20
5.0795632729
 11
4.0196033287
 21
5.0785641711
  0
LINE
  5
236
100
AcDbEntity
  8
0
100
AcDbLine
 62
7
  6
CONTINUOUS
 10
4.0198162071
 20
5.0786359127
 11
4.0166891447
 21
5.0775922269
  0
LINE
  5
237
100
AcDbEntity
  8
0
100
AcDbLine
 62
7
  6
CONTINUOUS
 10
4.0170908822
 20
5.0777251006
 11
4.0137738758
 21
5.0766383295
  0
LINE
  5
238
100
AcDbEntity
  8
0
100
AcDbLine
 62
7
  6
CONTINUOUS
 10
4.0143645373
 20
5.0768301902
 11
4.010860331
 21
5.0757020452
  0
LINE
  5
239
100
AcDbEntity
  8
0
100
AcDbLine
 62
7
  6
CONTINUOUS
 10
4.0116389542
 20
5.0759506415
 11
4.0079502814
 21
5.0747828249
  0
LINE
  5
23A
100
AcDbEntity
  8
0
100
AcDbLine
 62
7
  6
CONTINUOUS
 10
4.0089167062
 20
5.0750863843
 11
4.0048416793
 21
5.0738174364
  0
LINE
  5
23B
100
AcDbEntity
  8
0
100
AcDbLine
 62
7
  6
CONTINUOUS
 10
4.0050457631
 20
5.0738803017
 11
4.000777679
 21
5.0725791697
  0
LINE
  5
23C
100
AcDbEntity
  8
0
100
AcDbLine
 62
7
  6
CONTINUOUS
 10
4.000777679
 20
5.0725791697
 11
3.9963669946
 21
5.0712636463
  0
LINE
  5
23D
100
AcDbEntity
  8
0
100
AcDbLine
 62
7
  6
CONTINUOUS
 10
3.9967261257
 20
5.0713697238
 11
3.9920494536
 21
5.0700022264
  0
LINE
  5
23E
100
AcDbEntity
  8
0
100
AcDbLine
 62
7
  6
CONTINUOUS
 10
3.9926874091
 20
5.0701870553
 11
3.9877487287
 21
5.0687695142
  0
LWPOLYLINE
  5
23F
100
AcDbEntity
  8
0
100
AcDbPolyline
 62
7
  6
CONTINUOUS
 90
11
 70
0
 10
4.0827676524
 20
5.1186217765
 10
4.0825144762
 20
5.1172124115
 10
4.0821311454
 20
5.1158593342
 10
4.0816348149
 20
5.1145464083
 10
4.0810531873
 20
5.1133123572
 10
4.0804429866
 20
5.1122048917
 10
4.0798294425
 20
5.1112190969
 10
4.0791727972
 20
5.110271336
 10
4.0784652817
 20
5.1093388213
 10
4.0777341899
 20
5.1084491331
 10
4.0769700662
 20
5.1075860431
  0
LWPOLYLINE
  5
240
100
AcDbEntity
  8
0
100
AcDbPolyline
 62
7
  6
CONTINUOUS
 90
11
 70
0
 10
4.0827686403
 20
5.1186236906
 10
4.0826208531
 20
5.1177119465
 10
4.0823064546
 20
5.116418787
 10
4.0818743576
 20
5.1151369031
 10
4.0813540719
 20
5.1139254997
 10
4.0808052378
 20
5.1128439318
 10
4.0802510356
 20
5.111882707
 10
4.0796566166
 20
5.1109612307
 10
4.0790163415
 20
5.1100586996
 10
4.0783567029
 20
5.1092016606
 10
4.0776666398
 20
5.1083698894
  0
LWPOLYLINE
  5
241
100
AcDbEntity
  8
0
100
AcDbPolyline
 62
7
  6
CONTINUOUS
 90
47
 70
0
 10
4.0289758547
 20
4.7394013314
 10
4.0289466589
 20
4.7392235227
 10
4.0285671679
 20
4.7375435321
 10
4.0280404431
 20
4.7359139075
 10
4.0274171371
 20
4.7343967131
 10
4.0267124874
 20
4.7329805938
 10
4.0259652781
 20
4.7316828873
 10
4.0252086977
 20
4.7305126793
 10
4.0244063653
 20
4.7293945476
 10
4.0235518983
 20
4.7283071251
 10
4.0226724374
 20
4.7272733695
 10
4.021761427
 20
4.7262791384
 10
4.0208191247
 20
4.7253193313
 10
4.0198545343
 20
4.7243949511
 10
4.0188692325
 20
4.7235020749
 10
4.0178648707
 20
4.7226391475
 10
4.0168426789
 20
4.7218035141
 10
4.0158024096
 20
4.7209907104
 10
4.014745413
 20
4.7201988386
 10
4.0136713017
 20
4.7194256426
 10
4.0125770427
 20
4.7186674397
 10
4.0114642102
 20
4.7179234571
 10
4.0103320424
 20
4.7171916074
 10
4.0091748146
 20
4.7164671705
 10
4.0079901429
 20
4.7157481149
 10
4.0067806561
 20
4.7150355027
 10
4.0055484224
 20
4.7143298508
 10
4.0042922398
 20
4.713629834
 10
4.0030136413
 20
4.7129357391
 10
4.0017187746
 20
4.7122502438
 10
4.0004092147
 20
4.7115734805
 10
3.9990836253
 20
4.7109041321
 10
3.9977438691
 20
4.71024254
 10
3.9963897305
 20
4.7095879996
 10
3.9950215677
 20
4.7089401156
 10
3.9936421993
 20
4.7082997327
 10
3.9922520234
 20
4.7076665756
 10
3.9908508993
 20
4.7070401258
 10
3.9894408911
 20
4.7064208336
 10
3.9880221107
 20
4.7058082577
 10
3.9865946363
 20
4.7052020278
 10
3.9851604993
 20
4.704602666
 10
3.9837199636
 20
4.7040099225
 10
3.9822730034
 20
4.7034234242
 10
3.9808212181
 20
4.7028434411
 10
3.9793647793
 20
4.7022696745
 10
3.9779037466
 20
4.7017018731
  0
LINE
  5
242
100
AcDbEntity
  8
0
100
AcDbLine
 62
7
  6
CONTINUOUS
 10
4.1190873139
 20
4.4662127792
 11
4.1190873139
 21
4.4712127792
  0
LINE
  5
243
100
AcDbEntity
  8
0
100
AcDbLine
 62
7
  6
CONTINUOUS
 10
3.9779037466
 20
4.7017018731
 11
3.9749723395
 21
4.7005848067
  0
LINE
  5
244
100
AcDbEntity
  8
0
100
AcDbLine
 62
7
  6
CONTINUOUS
 10
3.9749723395
 20
4.7005848067
 11
3.9720304337
 21
4.6994912893
  0
LINE
  5
245
100
AcDbEntity
  8
0
100
AcDbLine
 62
7
  6
CONTINUOUS
 10
3.9720304337
 20
4.6994912893
 11
3.9690826295
 21
4.698420844
  0
LINE
  5
246
100
AcDbEntity
  8
0
100
AcDbLine
 62
7
  6
CONTINUOUS
 10
3.9690826295
 20
4.698420844
 11
3.9661325923
 21
4.697373048
  0
LINE
  5
247
100
AcDbEntity
  8
0
100
AcDbLine
 62
7
  6
CONTINUOUS
 10
3.9661325923
 20
4.697373048
 11
3.963183175
 21
4.6963471457
  0
LINE
  5
248
100
AcDbEntity
  8
0
100
AcDbLine
 62
7
  6
CONTINUOUS
 10
3.963183175
 20
4.6963471457
 11
3.9602383762
 21
4.6953428048
  0
LINE
  5
249
100
AcDbEntity
  8
0
100
AcDbLine
 62
7
  6
CONTINUOUS
 10
3.9602383762
 20
4.6953428048
 11
3.9573012446
 21
4.69435968
  0
LINE
  5
24A
100
AcDbEntity
  8
0
100
AcDbLine
 62
7
  6
CONTINUOUS
 10
3.9573012446
 20
4.69435968
 11
3.954373078
 21
4.6933968352
  0
LINE
  5
24B
100
AcDbEntity
  8
0
100
AcDbLine
 62
7
  6
CONTINUOUS
 10
3.954373078
 20
4.6933968352
 11
3.9514537416
 21
4.6924528785
  0
LINE
  5
24C
100
AcDbEntity
  8
0
100
AcDbLine
 62
7
  6
CONTINUOUS
 10
3.9514537416
 20
4.6924528785
 11
3.9485433669
 21
4.6915268018
  0
LINE
  5
24D
100
AcDbEntity
  8
0
100
AcDbLine
 62
7
  6
CONTINUOUS
 10
3.9485433669
 20
4.6915268018
 11
3.9441949263
 21
4.6901691919
  0
LINE
  5
24E
100
AcDbEntity
  8
0
100
AcDbLine
 62
7
  6
CONTINUOUS
 10
3.9441949263
 20
4.6901691919
 11
3.9398670071
 21
4.6888465548
  0
LINE
  5
24F
100
AcDbEntity
  8
0
100
AcDbLine
 62
7
  6
CONTINUOUS
 10
3.9398670071
 20
4.6888465548
 11
3.9355610452
 21
4.6875568197
  0
LINE
  5
250
100
AcDbEntity
  8
0
100
AcDbLine
 62
7
  6
CONTINUOUS
 10
3.9355610452
 20
4.6875568197
 11
3.9312776572
 21
4.6862977511
  0
LWPOLYLINE
  5
251
100
AcDbEntity
  8
0
100
AcDbPolyline
 62
7
  6
CONTINUOUS
 90
3
 70
0
 10
3.9312776572
 20
4.6862977511
 10
3.9270192506
 20
4.6850679865
 10
3.925605761
 20
4.6846643912
  0
LWPOLYLINE
  5
252
100
AcDbEntity
  8
0
100
AcDbPolyline
 62
7
  6
CONTINUOUS
 90
8
 70
0
 10
4.0288245732
 20
4.7448701733
 10
4.0289804305
 20
4.7441173988
 10
4.0290989608
 20
4.7433246033
 10
4.029167153
 20
4.7424962545
 10
4.0291761804
 20
4.7416276964
 10
4.0291303488
 20
4.7407197463
 10
4.0290344038
 20
4.7397937809
 10
4.0289766217
 20
4.7394012125
  0
LWPOLYLINE
  5
253
100
AcDbEntity
  8
0
100
AcDbPolyline
 62
7
  6
CONTINUOUS
 90
15
 70
0
 10
4.0271960546
 20
4.7487661403
 10
4.0274949343
 20
4.7482499264
 10
4.027774365
 20
4.7477233425
 10
4.0280327828
 20
4.7471861306
 10
4.0282618942
 20
4.7466496061
 10
4.0284641073
 20
4.7461046655
 10
4.0286493183
 20
4.7455237273
 10
4.0288152531
 20
4.7449055483
 10
4.0289562811
 20
4.7442612643
 10
4.0290684573
 20
4.7435880354
 10
4.0291420312
 20
4.7428950454
 10
4.0291744088
 20
4.7421723196
 10
4.0291671185
 20
4.7413955746
 10
4.0291200723
 20
4.7405605019
 10
4.0290286028
 20
4.739754369
  0
LINE
  5
254
100
AcDbEntity
  8
0
100
AcDbLine
 62
7
  6
CONTINUOUS
 10
4.3190873139
 20
4.4712127792
 11
4.3190873139
 21
4.4662127792
  0
LINE
  5
255
100
AcDbEntity
  8
0
100
AcDbLine
 62
7
  6
CONTINUOUS
 10
4.3690873139
 20
4.4662127792
 11
4.3690873139
 21
4.5662127792
  0
LINE
  5
256
100
AcDbEntity
  8
0
100
AcDbLine
 62
7
  6
CONTINUOUS
 10
4.3815873139
 20
4.5534468232
 11
4.3815873139
 21
4.5257872461
  0
LINE
  5
257
100
AcDbEntity
  8
0
100
AcDbLine
 62
7
  6
CONTINUOUS
 10
4.3815873139
 20
4.5130212902
 11
4.3815873139
 21
4.4662127792
  0
LWPOLYLINE
  5
258
100
AcDbEntity
  8
0
100
AcDbPolyline
 62
7
  6
CONTINUOUS
 90
7
 70
0
 10
4.0245858731
 20
4.7521589619
 10
4.0250160016
 20
4.7516849059
 10
4.0254279649
 20
4.7512071277
 10
4.0258213244
 20
4.7507256684
 10
4.0261958543
 20
4.7502408022
 10
4.0265485568
 20
4.7497558993
 10
4.0268805921
 20
4.7492676729
  0
LWPOLYLINE
  5
259
100
AcDbEntity
  8
0
100
AcDbPolyline
 62
7
  6
CONTINUOUS
 90
11
 70
0
 10
4.0250873168
 20
4.7516037923
 10
4.0255645298
 20
4.7510435872
 10
4.0260150755
 20
4.7504786475
 10
4.0264404679
 20
4.7499070245
 10
4.0268371602
 20
4.7493328194
 10
4.0272052676
 20
4.7487526018
 10
4.0275486703
 20
4.748153432
 10
4.0278635474
 20
4.7475419426
 10
4.0281499097
 20
4.7469175512
 10
4.028410909
 20
4.7462605154
 10
4.0286361693
 20
4.7455777975
  0
LWPOLYLINE
  5
25A
100
AcDbEntity
  8
0
100
AcDbPolyline
 62
7
  6
CONTINUOUS
 90
11
 70
0
 10
4.0818253709
 20
5.1247409506
 10
4.0820459329
 20
5.1242219908
 10
4.0822493398
 20
5.1236732695
 10
4.0824306728
 20
5.1230995574
 10
4.0825840897
 20
5.1225063141
 10
4.0827068284
 20
5.1218800862
 10
4.0827951666
 20
5.1212159397
 10
4.0828460853
 20
5.1205288029
 10
4.0828526408
 20
5.119837019
 10
4.0828164858
 20
5.119142961
 10
4.0827649549
 20
5.1186241384
  0
LINE
  5
25B
100
AcDbEntity
  8
0
100
AcDbLine
 62
7
  6
CONTINUOUS
 10
4.4357539825
 20
4.5257872461
 11
4.4357539825
 21
4.5130212902
  0
LINE
  5
25C
100
AcDbEntity
  8
0
100
AcDbLine
 62
7
  6
CONTINUOUS
 10
4.4440873139
 20
4.5662127792
 11
4.4440873139
 21
4.5534468232
  0
LINE
  5
25D
100
AcDbEntity
  8
0
100
AcDbLine
 62
7
  6
CONTINUOUS
 10
4.4607539825
 20
4.4662127792
 11
4.4607539825
 21
4.5662127792
  0
LINE
  5
25E
100
AcDbEntity
  8
0
100
AcDbLine
 62
7
  6
CONTINUOUS
 10
4.4732539766
 20
4.5662127792
 11
4.4732539766
 21
4.4789787366
  0
LINE
  5
25F
100
AcDbEntity
  8
0
100
AcDbLine
 62
7
  6
CONTINUOUS
 10
4.0211184206
 20
4.7553933614
 11
4.0216610264
 21
4.7549383458
  0
LWPOLYLINE
  5
260
100
AcDbEntity
  8
0
100
AcDbPolyline
 62
7
  6
CONTINUOUS
 90
6
 70
0
 10
4.0216610264
 20
4.7549383458
 10
4.0223425001
 20
4.7543446583
 10
4.0229352429
 20
4.7538054183
 10
4.0235065883
 20
4.7532621075
 10
4.0240564496
 20
4.7527137628
 10
4.0245839046
 20
4.7521607416
  0
LWPOLYLINE
  5
261
100
AcDbEntity
  8
0
100
AcDbPolyline
 62
7
  6
CONTINUOUS
 90
5
 70
0
 10
4.0221882607
 20
4.754481415
 10
4.0226996713
 20
4.7540225287
 10
4.0231951293
 20
4.7535612402
 10
4.0236747426
 20
4.7530970522
 10
4.0241385196
 20
4.752629632
  0
LINE
  5
262
100
AcDbEntity
  8
0
100
AcDbLine
 62
7
  6
CONTINUOUS
 10
4.5357539766
 20
4.4789787366
 11
4.5357539766
 21
4.4662127792
  0
LINE
  5
263
100
AcDbEntity
  8
0
100
AcDbLine
 62
7
  6
CONTINUOUS
 10
4.0089624326
 20
4.7633433158
 11
4.0103065197
 21
4.7625984465
  0
LINE
  5
264
100
AcDbEntity
  8
0
100
AcDbLine
 62
7
  6
CONTINUOUS
 10
4.0099349484
 20
4.762806646
 11
4.0111124389
 21
4.7621405784
  0
LWPOLYLINE
  5
265
100
AcDbEntity
  8
0
100
AcDbPolyline
 62
7
  6
CONTINUOUS
 90
3
 70
0
 10
4.0108849029
 20
4.7622707558
 10
4.0118124487
 20
4.7617355203
 10
4.0127149752
 20
4.7612024679
  0
LINE
  5
266
100
AcDbEntity
  8
0
100
AcDbLine
 62
7
  6
CONTINUOUS
 10
4.012672249
 20
4.7612279991
 11
4.0135906799
 21
4.7606727269
  0
LWPOLYLINE
  5
267
100
AcDbEntity
  8
0
100
AcDbPolyline
 62
7
  6
CONTINUOUS
 90
3
 70
0
 10
4.0134229588
 20
4.7607751881
 10
4.0144409458
 20
4.7601455482
 10
4.0152679901
 20
4.7596195969
  0
LWPOLYLINE
  5
268
100
AcDbEntity
  8
0
100
AcDbPolyline
 62
7
  6
CONTINUOUS
 90
3
 70
0
 10
4.0141547598
 20
4.7603244545
 10
4.0148690336
 20
4.7598749996
 10
4.0155654932
 20
4.7594270174
  0
LINE
  5
269
100
AcDbEntity
  8
0
100
AcDbLine
 62
7
  6
CONTINUOUS
 10
4.0152679901
 20
4.7596195969
 11
4.0162442033
 21
4.7589804721
  0
LWPOLYLINE
  5
26A
100
AcDbEntity
  8
0
100
AcDbPolyline
 62
7
  6
CONTINUOUS
 90
3
 70
0
 10
4.0160715498
 20
4.7590950356
 10
4.0168515285
 20
4.7585718936
 10
4.0176104415
 20
4.7580483806
  0
LWPOLYLINE
  5
26B
100
AcDbEntity
  8
0
100
AcDbPolyline
 62
7
  6
CONTINUOUS
 90
6
 70
0
 10
4.0175543719
 20
4.7580875684
 10
4.018348544
 20
4.7575241261
 10
4.0190651807
 20
4.7569993944
 10
4.0197615878
 20
4.7564730269
 10
4.020437954
 20
4.7559445001
 10
4.0210935762
 20
4.7554138916
  0
LWPOLYLINE
  5
26C
100
AcDbEntity
  8
0
100
AcDbPolyline
 62
7
  6
CONTINUOUS
 90
5
 70
0
 10
4.0181855852
 20
4.7576412213
 10
4.0188018541
 20
4.7571941141
 10
4.0194032039
 20
4.7567460572
 10
4.0199893623
 20
4.7562970541
 10
4.0205610079
 20
4.7558463264
  0
LWPOLYLINE
  5
26D
100
AcDbEntity
  8
0
100
AcDbPolyline
 62
7
  6
CONTINUOUS
 90
7
 70
0
 10
4.0797076732
 20
5.1281326265
 10
4.0800637223
 20
5.1276700873
 10
4.0804027685
 20
5.1272026683
 10
4.0807259368
 20
5.1267262693
 10
4.0810295113
 20
5.1262431859
 10
4.0813133505
 20
5.1257536592
 10
4.081580767
 20
5.1252504227
  0
LINE
  5
26E
100
AcDbEntity
  8
0
100
AcDbLine
 62
7
  6
CONTINUOUS
 10
4.5357539766
 20
4.4662127792
 11
4.4607539825
 21
4.4662127792
  0
LINE
  5
26F
100
AcDbEntity
  8
0
100
AcDbLine
 62
7
  6
CONTINUOUS
 10
4.3815873139
 20
4.4662127792
 11
4.3690873139
 21
4.4662127792
  0
LINE
  5
270
100
AcDbEntity
  8
0
100
AcDbLine
 62
7
  6
CONTINUOUS
 10
4.3190873139
 20
4.4662127792
 11
4.1190873139
 21
4.4662127792
  0
LINE
  5
271
100
AcDbEntity
  8
0
100
AcDbLine
 62
7
  6
CONTINUOUS
 10
4.3190873139
 20
4.4712127792
 11
4.1190873139
 21
4.4712127792
  0
LINE
  5
272
100
AcDbEntity
  8
0
100
AcDbLine
 62
7
  6
CONTINUOUS
 10
4.5357539766
 20
4.4789787366
 11
4.4732539766
 21
4.4789787366
  0
LINE
  5
273
100
AcDbEntity
  8
0
100
AcDbLine
 62
7
  6
CONTINUOUS
 10
4.4357539825
 20
4.5130212902
 11
4.3815873139
 21
4.5130212902
  0
LINE
  5
274
100
AcDbEntity
  8
0
100
AcDbLine
 62
7
  6
CONTINUOUS
 10
4.4357539825
 20
4.5257872461
 11
4.3815873139
 21
4.5257872461
  0
LINE
  5
275
100
AcDbEntity
  8
0
100
AcDbLine
 62
7
  6
CONTINUOUS
 10
3.9767973501
 20
4.7772839201
 11
3.9793348408
 21
4.7763526549
  0
LINE
  5
276
100
AcDbEntity
  8
0
100
AcDbLine
 62
7
  6
CONTINUOUS
 10
3.9794321594
 20
4.7763165555
 11
3.9818314897
 21
4.7754169421
  0
LINE
  5
277
100
AcDbEntity
  8
0
100
AcDbLine
 62
7
  6
CONTINUOUS
 10
3.9815637017
 20
4.7755182642
 11
3.9836658234
 21
4.7747162828
  0
LINE
  5
278
100
AcDbEntity
  8
0
100
AcDbLine
 62
7
  6
CONTINUOUS
 10
3.9830651286
 20
4.7749469982
 11
3.9855027031
 21
4.7740027112
  0
LINE
  5
279
100
AcDbEntity
  8
0
100
AcDbLine
 62
7
  6
CONTINUOUS
 10
3.9847063708
 20
4.7743135826
 11
3.9867078147
 21
4.7735277007
  0
LINE
  5
27A
100
AcDbEntity
  8
0
100
AcDbLine
 62
7
  6
CONTINUOUS
 10
3.9867664329
 20
4.7735044422
 11
3.9890912517
 21
4.7725711575
  0
LINE
  5
27B
100
AcDbEntity
  8
0
100
AcDbLine
 62
7
  6
CONTINUOUS
 10
3.988800868
 20
4.7726889576
 11
3.9908105842
 21
4.7718661745
  0
LINE
  5
27C
100
AcDbEntity
  8
0
100
AcDbLine
 62
7
  6
CONTINUOUS
 10
3.9902705191
 20
4.7720890268
 11
3.9918068639
 21
4.7714515163
  0
LINE
  5
27D
100
AcDbEntity
  8
0
100
AcDbLine
 62
7
  6
CONTINUOUS
 10
3.9914417092
 20
4.7716040357
 11
3.9927972653
 21
4.7710346143
  0
LINE
  5
27E
100
AcDbEntity
  8
0
100
AcDbLine
 62
7
  6
CONTINUOUS
 10
3.992604634
 20
4.7711160875
 11
3.993760548
 21
4.7706244797
  0
LINE
  5
27F
100
AcDbEntity
  8
0
100
AcDbLine
 62
7
  6
CONTINUOUS
 10
3.9937825297
 20
4.7706150578
 11
3.9949096694
 21
4.7701289367
  0
LINE
  5
280
100
AcDbEntity
  8
0
100
AcDbLine
 62
7
  6
CONTINUOUS
 10
3.9947626603
 20
4.7701927328
 11
3.9960514702
 21
4.769629487
  0
LINE
  5
281
100
AcDbEntity
  8
0
100
AcDbLine
 62
7
  6
CONTINUOUS
 10
3.9957374597
 20
4.7697675777
 11
3.9971861312
 21
4.7691257974
  0
LINE
  5
282
100
AcDbEntity
  8
0
100
AcDbLine
 62
7
  6
CONTINUOUS
 10
3.9967073975
 20
4.7693392337
 11
3.9983144674
 21
4.7686172364
  0
LWPOLYLINE
  5
283
100
AcDbEntity
  8
0
100
AcDbPolyline
 62
7
  6
CONTINUOUS
 90
3
 70
0
 10
3.9976730172
 20
4.7689073004
 10
3.9994353757
 20
4.7681040373
 10
4.0005461713
 20
4.7675872009
  0
LINE
  5
284
100
AcDbEntity
  8
0
100
AcDbLine
 62
7
  6
CONTINUOUS
 10
3.998633601
 20
4.7684719413
 11
3.999587738
 21
4.7680336506
  0
LINE
  5
285
100
AcDbEntity
  8
0
100
AcDbLine
 62
7
  6
CONTINUOUS
 10
4.0005355309
 20
4.7675922046
 11
4.0016468921
 21
4.7670664445
  0
LINE
  5
286
100
AcDbEntity
  8
0
100
AcDbLine
 62
7
  6
CONTINUOUS
 10
4.0014766802
 20
4.7671475542
 11
4.0027371597
 21
4.7665416563
  0
LINE
  5
287
100
AcDbEntity
  8
0
100
AcDbLine
 62
7
  6
CONTINUOUS
 10
4.0024091592
 20
4.7667004952
 11
4.0038136414
 21
4.7660142033
  0
LINE
  5
288
100
AcDbEntity
  8
0
100
AcDbLine
 62
7
  6
CONTINUOUS
 10
4.0033329454
 20
4.7662509016
 11
4.0048762281
 21
4.7654839511
  0
LINE
  5
289
100
AcDbEntity
  8
0
100
AcDbLine
 62
7
  6
CONTINUOUS
 10
4.0042478349
 20
4.7657987285
 11
4.0051515128
 21
4.7653449559
  0
LINE
  5
28A
100
AcDbEntity
  8
0
100
AcDbLine
 62
7
  6
CONTINUOUS
 10
4.0048762281
 20
4.7654839511
 11
4.0060438639
 21
4.7648895009
  0
LINE
  5
28B
100
AcDbEntity
  8
0
100
AcDbLine
 62
7
  6
CONTINUOUS
 10
4.0059246404
 20
4.7649507932
 11
4.0069552722
 21
4.7644163355
  0
LINE
  5
28C
100
AcDbEntity
  8
0
100
AcDbLine
 62
7
  6
CONTINUOUS
 10
4.0069247499
 20
4.7644323043
 11
4.0079679564
 21
4.76388051
  0
LINE
  5
28D
100
AcDbEntity
  8
0
100
AcDbLine
 62
7
  6
CONTINUOUS
 10
4.0077918154
 20
4.7639744987
 11
4.0089624326
 21
4.7633433158
  0
LINE
  5
28E
100
AcDbEntity
  8
0
100
AcDbLine
 62
7
  6
CONTINUOUS
 10
4.008644914
 20
4.7635160768
 11
4.0094839232
 21
4.7630569911
  0
LWPOLYLINE
  5
28F
100
AcDbEntity
  8
0
100
AcDbPolyline
 62
7
  6
CONTINUOUS
 90
20
 70
0
 10
4.0793332599
 20
5.1285915574
 10
4.0796660209
 20
5.1281839926
 10
4.0799869474
 20
5.1277716115
 10
4.0802927825
 20
5.1273576632
 10
4.0805787261
 20
5.1269477543
 10
4.0808474761
 20
5.1265366202
 10
4.0811065829
 20
5.1261119191
 10
4.0813568762
 20
5.1256712073
 10
4.0815938433
 20
5.1252204903
 10
4.0818153168
 20
5.1247607856
 10
4.0820136135
 20
5.1243037511
 10
4.0821909441
 20
5.1238401565
 10
4.0823561699
 20
5.1233426951
 10
4.0825073684
 20
5.1228067129
 10
4.0826374168
 20
5.122247542
 10
4.0827421044
 20
5.1216735859
 10
4.0828140678
 20
5.1210911709
 10
4.0828502249
 20
5.1204900395
 10
4.0828518621
 20
5.1198591169
 10
4.0828407793
 20
5.1196093161
  0
LINE
  5
290
100
AcDbEntity
  8
0
100
AcDbLine
 62
7
  6
CONTINUOUS
 10
4.4440873139
 20
4.5534468232
 11
4.3815873139
 21
4.5534468232
  0
LINE
  5
291
100
AcDbEntity
  8
0
100
AcDbLine
 62
7
  6
CONTINUOUS
 10
4.4732539766
 20
4.5662127792
 11
4.4607539825
 21
4.5662127792
  0
LINE
  5
292
100
AcDbEntity
  8
0
100
AcDbLine
 62
7
  6
CONTINUOUS
 10
4.3690873139
 20
4.5662127792
 11
4.4440873139
 21
4.5662127792
  0
LINE
  5
293
100
AcDbEntity
  8
0
100
AcDbLine
 62
7
  6
CONTINUOUS
 10
4.0336611682
 20
4.7386454418
 11
4.0289756859
 21
4.7394013616
  0
LINE
  5
294
100
AcDbEntity
  8
0
100
AcDbLine
 62
7
  6
CONTINUOUS
 10
3.8731345907
 20
4.8067653512
 11
3.8820994478
 21
4.8045938971
  0
LINE
  5
295
100
AcDbEntity
  8
0
100
AcDbLine
 62
7
  6
CONTINUOUS
 10
3.8817777533
 20
4.8046725808
 11
3.8906675471
 21
4.8024758548
  0
LINE
  5
296
100
AcDbEntity
  8
0
100
AcDbLine
 62
7
  6
CONTINUOUS
 10
3.8896607054
 20
4.8027270412
 11
3.8978459425
 21
4.8006660116
  0
LINE
  5
297
100
AcDbEntity
  8
0
100
AcDbLine
 62
7
  6
CONTINUOUS
 10
3.8970714183
 20
4.8008629246
 11
3.90484529
 21
4.7988673567
  0
LINE
  5
298
100
AcDbEntity
  8
0
100
AcDbLine
 62
7
  6
CONTINUOUS
 10
3.9036245669
 20
4.7991836054
 11
3.910464929
 21
4.7973969065
  0
LINE
  5
299
100
AcDbEntity
  8
0
100
AcDbLine
 62
7
  6
CONTINUOUS
 10
3.9102128683
 20
4.7974633982
 11
3.9167625916
 21
4.7957187037
  0
LINE
  5
29A
100
AcDbEntity
  8
0
100
AcDbLine
 62
7
  6
CONTINUOUS
 10
3.916056378
 20
4.7959085739
 11
3.9216248709
 21
4.7943993114
  0
LINE
  5
29B
100
AcDbEntity
  8
0
100
AcDbLine
 62
7
  6
CONTINUOUS
 10
3.9216248709
 20
4.7943993114
 11
3.9270521201
 21
4.7929002349
  0
LINE
  5
29C
100
AcDbEntity
  8
0
100
AcDbLine
 62
7
  6
CONTINUOUS
 10
3.9264295039
 20
4.7930736954
 11
3.9310917209
 21
4.7917649947
  0
LINE
  5
29D
100
AcDbEntity
  8
0
100
AcDbLine
 62
7
  6
CONTINUOUS
 10
3.9310917209
 20
4.7917649947
 11
3.9363948069
 21
4.7902475083
  0
LINE
  5
29E
100
AcDbEntity
  8
0
100
AcDbLine
 62
7
  6
CONTINUOUS
 10
3.9358339058
 20
4.79040955
 11
3.9404241157
 21
4.7890722754
  0
LINE
  5
29F
100
AcDbEntity
  8
0
100
AcDbLine
 62
7
  6
CONTINUOUS
 10
3.94030762
 20
4.7891065428
 11
3.9449349883
 21
4.7877319702
  0
LINE
  5
2A0
100
AcDbEntity
  8
0
100
AcDbLine
 62
7
  6
CONTINUOUS
 10
3.9441630535
 20
4.7879632668
 11
3.9478973881
 21
4.7868365576
  0
LINE
  5
2A1
100
AcDbEntity
  8
0
100
AcDbLine
 62
7
  6
CONTINUOUS
 10
3.9479590676
 20
4.7868177826
 11
3.9522720147
 21
4.7854906351
  0
LINE
  5
2A2
100
AcDbEntity
  8
0
100
AcDbLine
 62
7
  6
CONTINUOUS
 10
3.9516953498
 20
4.7856697442
 11
3.9553719668
 21
4.7845185439
  0
LINE
  5
2A3
100
AcDbEntity
  8
0
100
AcDbLine
 62
7
  6
CONTINUOUS
 10
3.9551425739
 20
4.7845910255
 11
3.9589886134
 21
4.7833637564
  0
LINE
  5
2A4
100
AcDbEntity
  8
0
100
AcDbLine
 62
7
  6
CONTINUOUS
 10
3.957976687
 20
4.7836891973
 11
3.9613661375
 21
4.782591634
  0
LINE
  5
2A5
100
AcDbEntity
  8
0
100
AcDbLine
 62
7
  6
CONTINUOUS
 10
3.9607745887
 20
4.7827847533
 11
3.9637175812
 21
4.781817245
  0
LINE
  5
2A6
100
AcDbEntity
  8
0
100
AcDbLine
 62
7
  6
CONTINUOUS
 10
3.9635355773
 20
4.7818775715
 11
3.9662612243
 21
4.7809668319
  0
LINE
  5
2A7
100
AcDbEntity
  8
0
100
AcDbLine
 62
7
  6
CONTINUOUS
 10
3.9660433058
 20
4.7810402284
 11
3.9689513893
 21
4.7800521209
  0
LINE
  5
2A8
100
AcDbEntity
  8
0
100
AcDbLine
 62
7
  6
CONTINUOUS
 10
3.9683428167
 20
4.7802604698
 11
3.9716048007
 21
4.7791334673
  0
LINE
  5
2A9
100
AcDbEntity
  8
0
100
AcDbLine
 62
7
  6
CONTINUOUS
 10
3.9706162684
 20
4.7794776928
 11
3.9728625809
 21
4.7786919852
  0
LINE
  5
2AA
100
AcDbEntity
  8
0
100
AcDbLine
 62
7
  6
CONTINUOUS
 10
3.9728625809
 20
4.7786919852
 11
3.9755136451
 21
4.777747944
  0
LINE
  5
2AB
100
AcDbEntity
  8
0
100
AcDbLine
 62
7
  6
CONTINUOUS
 10
3.9750808472
 20
4.7779033433
 11
3.9772710042
 21
4.7771115341
  0
LWPOLYLINE
  5
2AC
100
AcDbEntity
  8
0
100
AcDbPolyline
 62
7
  6
CONTINUOUS
 90
8
 70
0
 10
4.076241456
 20
5.1317344321
 10
4.0766721335
 20
5.1313463951
 10
4.0770911013
 20
5.1309567386
 10
4.0774979576
 20
5.1305656409
 10
4.0778925193
 20
5.1301729555
 10
4.0782738547
 20
5.1297791483
 10
4.0786398729
 20
5.1293858475
 10
4.0789917149
 20
5.128991422
  0
LWPOLYLINE
  5
2AD
100
AcDbEntity
  8
0
100
AcDbPolyline
 62
7
  6
CONTINUOUS
 90
7
 70
0
 10
4.0767563576
 20
5.1312697702
 10
4.0772265174
 20
5.1308286162
 10
4.077681743
 20
5.1303845625
 10
4.0781213862
 20
5.129938042
 10
4.0785445922
 20
5.1294895067
 10
4.0789492602
 20
5.1290405587
 10
4.0793359254
 20
5.1285896455
  0
LINE
  5
2AE
100
AcDbEntity
  8
0
100
AcDbLine
 62
7
  6
CONTINUOUS
 10
4.0674178536
 20
5.1380352667
 11
4.0680122569
 21
5.1376747663
  0
LINE
  5
2AF
100
AcDbEntity
  8
0
100
AcDbLine
 62
7
  6
CONTINUOUS
 10
4.0680122569
 20
5.1376747663
 11
4.0687725219
 21
5.1372040687
  0
LWPOLYLINE
  5
2B0
100
AcDbEntity
  8
0
100
AcDbPolyline
 62
7
  6
CONTINUOUS
 90
3
 70
0
 10
4.0685969985
 20
5.137313721
 10
4.069421981
 20
5.1367927621
 10
4.0700592365
 20
5.1363803209
  0
LWPOLYLINE
  5
2B1
100
AcDbEntity
  8
0
100
AcDbPolyline
 62
7
  6
CONTINUOUS
 90
3
 70
0
 10
4.0691723214
 20
5.1369519045
 10
4.0697383963
 20
5.1365891196
 10
4.0702950863
 20
5.1362253554
  0
LINE
  5
2B2
100
AcDbEntity
  8
0
100
AcDbLine
 62
7
  6
CONTINUOUS
 10
4.0700592365
 20
5.1363803209
 11
4.070842365
 21
5.1358605227
  0
LWPOLYLINE
  5
2B3
100
AcDbEntity
  8
0
100
AcDbPolyline
 62
7
  6
CONTINUOUS
 90
3
 70
0
 10
4.0706848412
 20
5.1359662363
 10
4.0712989242
 20
5.1355502511
 10
4.0719011169
 20
5.1351324373
  0
LINE
  5
2B4
100
AcDbEntity
  8
0
100
AcDbLine
 62
7
  6
CONTINUOUS
 10
4.0719096585
 20
5.1351264818
 11
4.072429455
 21
5.1347571287
  0
LINE
  5
2B5
100
AcDbEntity
  8
0
100
AcDbLine
 62
7
  6
CONTINUOUS
 10
4.072429455
 20
5.1347571287
 11
4.0730690451
 21
5.1342910537
  0
LWPOLYLINE
  5
2B6
100
AcDbEntity
  8
0
100
AcDbPolyline
 62
7
  6
CONTINUOUS
 90
7
 70
0
 10
4.0729401839
 20
5.1343859259
 10
4.0736344383
 20
5.1338672312
 10
4.0741875783
 20
5.1334408024
 10
4.0747287612
 20
5.1330112145
 10
4.0752572616
 20
5.1325787819
 10
4.0757717228
 20
5.1321443323
 10
4.076271386
 20
5.1317081792
  0
LWPOLYLINE
  5
2B7
100
AcDbEntity
  8
0
100
AcDbPolyline
 62
7
  6
CONTINUOUS
 90
4
 70
0
 10
4.0734421336
 20
5.1340125018
 10
4.0739347879
 20
5.1336370462
 10
4.0744171825
 20
5.133260095
 10
4.0748886362
 20
5.1328819799
  0
LINE
  5
2B8
100
AcDbEntity
  8
0
100
AcDbLine
 62
7
  6
CONTINUOUS
 10
3.925605761
 20
4.6846643912
 11
3.9199844022
 21
4.6830805467
  0
LINE
  5
2B9
100
AcDbEntity
  8
0
100
AcDbLine
 62
7
  6
CONTINUOUS
 10
3.9199844022
 20
4.6830805467
 11
3.9144274099
 21
4.6815461787
  0
LINE
  5
2BA
100
AcDbEntity
  8
0
100
AcDbLine
 62
7
  6
CONTINUOUS
 10
3.9144274099
 20
4.6815461787
 11
3.9089492356
 21
4.6800616464
  0
LINE
  5
2BB
100
AcDbEntity
  8
0
100
AcDbLine
 62
7
  6
CONTINUOUS
 10
3.9089492356
 20
4.6800616464
 11
3.9022385418
 21
4.6782780788
  0
LINE
  5
2BC
100
AcDbEntity
  8
0
100
AcDbLine
 62
7
  6
CONTINUOUS
 10
3.9022385418
 20
4.6782780788
 11
3.8957133723
 21
4.6765776984
  0
LINE
  5
2BD
100
AcDbEntity
  8
0
100
AcDbLine
 62
7
  6
CONTINUOUS
 10
3.8957133723
 20
4.6765776984
 11
3.8881791251
 21
4.6746524775
  0
LINE
  5
2BE
100
AcDbEntity
  8
0
100
AcDbLine
 62
7
  6
CONTINUOUS
 10
3.8881791251
 20
4.6746524775
 11
3.8798729864
 21
4.6725731689
  0
LINE
  5
2BF
100
AcDbEntity
  8
0
100
AcDbLine
 62
7
  6
CONTINUOUS
 10
3.8798729864
 20
4.6725731689
 11
3.8711745598
 21
4.6704397688
  0
LINE
  5
2C0
100
AcDbEntity
  8
0
100
AcDbLine
 62
7
  6
CONTINUOUS
 10
3.8711745598
 20
4.6704397688
 11
3.8538234356
 21
4.666303275
  0
LINE
  5
2C1
100
AcDbEntity
  8
0
100
AcDbLine
 62
7
  6
CONTINUOUS
 10
3.8540473695
 20
4.6663557648
 11
3.8511894358
 21
4.665687895
  0
LINE
  5
2C2
100
AcDbEntity
  8
0
100
AcDbLine
 62
7
  6
CONTINUOUS
 10
4.0494071836
 20
5.1469944442
 11
4.0510775562
 21
5.1462735749
  0
LINE
  5
2C3
100
AcDbEntity
  8
0
100
AcDbLine
 62
7
  6
CONTINUOUS
 10
4.0509315916
 20
5.146337251
 11
4.0524372117
 21
5.1456746053
  0
LINE
  5
2C4
100
AcDbEntity
  8
0
100
AcDbLine
 62
7
  6
CONTINUOUS
 10
4.0519334038
 20
5.1458978597
 11
4.0531827329
 21
5.1453411801
  0
LINE
  5
2C5
100
AcDbEntity
  8
0
100
AcDbLine
 62
7
  6
CONTINUOUS
 10
4.0527828908
 20
5.1455204237
 11
4.0539232073
 21
5.1450063551
  0
LINE
  5
2C6
100
AcDbEntity
  8
0
100
AcDbLine
 62
7
  6
CONTINUOUS
 10
4.0536258941
 20
5.1451412249
 11
4.054658698
 21
5.1446700426
  0
LWPOLYLINE
  5
2C7
100
AcDbEntity
  8
0
100
AcDbPolyline
 62
7
  6
CONTINUOUS
 90
3
 70
0
 10
4.0544623995
 20
5.1447601758
 10
4.0552920123
 20
5.1443773678
 10
4.0561147942
 20
5.1439926887
  0
LINE
  5
2C8
100
AcDbEntity
  8
0
100
AcDbLine
 62
7
  6
CONTINUOUS
 10
4.0561137191
 20
5.1439931963
 11
4.0568326603
 21
5.1436528237
  0
LINE
  5
2C9
100
AcDbEntity
  8
0
100
AcDbLine
 62
7
  6
CONTINUOUS
 10
4.0568326603
 20
5.1436528237
 11
4.0577384551
 21
5.1432180153
  0
LINE
  5
2CA
100
AcDbEntity
  8
0
100
AcDbLine
 62
7
  6
CONTINUOUS
 10
4.0575458329
 20
5.1433110732
 11
4.0585383363
 21
5.1428282706
  0
LINE
  5
2CB
100
AcDbEntity
  8
0
100
AcDbLine
 62
7
  6
CONTINUOUS
 10
4.0582527602
 20
5.1429680922
 11
4.0593302422
 21
5.1424367752
  0
LINE
  5
2CC
100
AcDbEntity
  8
0
100
AcDbLine
 62
7
  6
CONTINUOUS
 10
4.0589533001
 20
5.142623875
 11
4.0601137845
 21
5.1420436145
  0
LWPOLYLINE
  5
2CD
100
AcDbEntity
  8
0
100
AcDbPolyline
 62
7
  6
CONTINUOUS
 90
3
 70
0
 10
4.0596474928
 20
5.1422783295
 10
4.060889016
 20
5.1416486607
 10
4.0616557229
 20
5.1412519236
  0
LINE
  5
2CE
100
AcDbEntity
  8
0
100
AcDbLine
 62
7
  6
CONTINUOUS
 10
4.0603351369
 20
5.1419314859
 11
4.0610163007
 21
5.1415832414
  0
LINE
  5
2CF
100
AcDbEntity
  8
0
100
AcDbLine
 62
7
  6
CONTINUOUS
 10
4.0616908035
 20
5.1412336221
 11
4.0623580766
 21
5.1408828617
  0
LINE
  5
2D0
100
AcDbEntity
  8
0
100
AcDbLine
 62
7
  6
CONTINUOUS
 10
4.0623580766
 20
5.1408828617
 11
4.0631611056
 21
5.1404539432
  0
LINE
  5
2D1
100
AcDbEntity
  8
0
100
AcDbLine
 62
7
  6
CONTINUOUS
 10
4.063018043
 20
5.1405309208
 11
4.0638996233
 21
5.1400525243
  0
LINE
  5
2D2
100
AcDbEntity
  8
0
100
AcDbLine
 62
7
  6
CONTINUOUS
 10
4.0636706728
 20
5.1401777199
 11
4.0646280561
 21
5.1396496639
  0
LINE
  5
2D3
100
AcDbEntity
  8
0
100
AcDbLine
 62
7
  6
CONTINUOUS
 10
4.0643154781
 20
5.1398234334
 11
4.0653464395
 21
5.1392452252
  0
LINE
  5
2D4
100
AcDbEntity
  8
0
100
AcDbLine
 62
7
  6
CONTINUOUS
 10
4.0649523861
 20
5.1394680175
 11
4.0655813502
 21
5.1391114148
  0
LINE
  5
2D5
100
AcDbEntity
  8
0
100
AcDbLine
 62
7
  6
CONTINUOUS
 10
4.0653464395
 20
5.1392452252
 11
4.0662019262
 21
5.138753799
  0
LWPOLYLINE
  5
2D6
100
AcDbEntity
  8
0
100
AcDbPolyline
 62
7
  6
CONTINUOUS
 90
3
 70
0
 10
4.0660545521
 20
5.1388392163
 10
4.0667513959
 20
5.1384321066
 10
4.067436731
 20
5.1380239267
  0
LINE
  5
2D7
100
AcDbEntity
  8
0
100
AcDbLine
 62
7
  6
CONTINUOUS
 10
3.9821173467
 20
5.1690723487
 11
3.9876795802
 21
5.1675426216
  0
LINE
  5
2D8
100
AcDbEntity
  8
0
100
AcDbLine
 62
7
  6
CONTINUOUS
 10
3.9871488209
 20
5.1676900026
 11
3.9920745747
 21
5.1663099289
  0
LINE
  5
2D9
100
AcDbEntity
  8
0
100
AcDbLine
 62
7
  6
CONTINUOUS
 10
3.9919922966
 20
5.1663332255
 11
3.9964181267
 21
5.1650690686
  0
LINE
  5
2DA
100
AcDbEntity
  8
0
100
AcDbLine
 62
7
  6
CONTINUOUS
 10
3.9958221421
 20
5.1652407226
 11
3.9996113367
 21
5.1641414964
  0
LINE
  5
2DB
100
AcDbEntity
  8
0
100
AcDbLine
 62
7
  6
CONTINUOUS
 10
3.9996412131
 20
5.164132761
 11
4.0038919367
 21
5.1628760415
  0
LINE
  5
2DC
100
AcDbEntity
  8
0
100
AcDbLine
 62
7
  6
CONTINUOUS
 10
4.003358927
 20
5.1630350757
 11
4.0070437002
 21
5.1619270881
  0
LINE
  5
2DD
100
AcDbEntity
  8
0
100
AcDbLine
 62
7
  6
CONTINUOUS
 10
4.0070437002
 20
5.1619270881
 11
4.0107237714
 21
5.1607991202
  0
LINE
  5
2DE
100
AcDbEntity
  8
0
100
AcDbLine
 62
7
  6
CONTINUOUS
 10
4.0101625356
 20
5.160972585
 11
4.0134381683
 21
5.1599523965
  0
LINE
  5
2DF
100
AcDbEntity
  8
0
100
AcDbLine
 62
7
  6
CONTINUOUS
 10
4.0132481924
 20
5.1600120507
 11
4.0162998538
 21
5.1590452352
  0
LINE
  5
2E0
100
AcDbEntity
  8
0
100
AcDbLine
 62
7
  6
CONTINUOUS
 10
4.0161263854
 20
5.1591006424
 11
4.0193166474
 21
5.1580717125
  0
LINE
  5
2E1
100
AcDbEntity
  8
0
100
AcDbLine
 62
7
  6
CONTINUOUS
 10
4.0187878202
 20
5.1582436975
 11
4.0213087367
 21
5.1574185483
  0
LINE
  5
2E2
100
AcDbEntity
  8
0
100
AcDbLine
 62
7
  6
CONTINUOUS
 10
4.0213087367
 20
5.1574185483
 11
4.024267891
 21
5.1564322074
  0
LINE
  5
2E3
100
AcDbEntity
  8
0
100
AcDbLine
 62
7
  6
CONTINUOUS
 10
4.0240289099
 20
5.1565126024
 11
4.0266095831
 21
5.1556370789
  0
LINE
  5
2E4
100
AcDbEntity
  8
0
100
AcDbLine
 62
7
  6
CONTINUOUS
 10
4.0262214297
 20
5.1557698273
 11
4.028315207
 21
5.1550493492
  0
LINE
  5
2E5
100
AcDbEntity
  8
0
100
AcDbLine
 62
7
  6
CONTINUOUS
 10
4.0281596413
 20
5.1551032445
 11
4.0308513594
 21
5.1541611168
  0
LINE
  5
2E6
100
AcDbEntity
  8
0
100
AcDbLine
 62
7
  6
CONTINUOUS
 10
4.030083154
 20
5.1544319855
 11
4.0325277517
 21
5.1535640434
  0
LINE
  5
2E7
100
AcDbEntity
  8
0
100
AcDbLine
 62
7
  6
CONTINUOUS
 10
4.0319916611
 20
5.1537558705
 11
4.0341931168
 21
5.1529626194
  0
LINE
  5
2E8
100
AcDbEntity
  8
0
100
AcDbLine
 62
7
  6
CONTINUOUS
 10
4.0338850666
 20
5.1530745414
 11
4.0357639381
 21
5.1523874042
  0
LINE
  5
2E9
100
AcDbEntity
  8
0
100
AcDbLine
 62
7
  6
CONTINUOUS
 10
4.0357639381
 20
5.1523874042
 11
4.0376285573
 21
5.1516939828
  0
LINE
  5
2EA
100
AcDbEntity
  8
0
100
AcDbLine
 62
7
  6
CONTINUOUS
 10
4.0374894696
 20
5.1517461709
 11
4.0394785555
 21
5.1509939897
  0
LINE
  5
2EB
100
AcDbEntity
  8
0
100
AcDbLine
 62
7
  6
CONTINUOUS
 10
4.03912067
 20
5.1511303993
 11
4.040740481
 21
5.1505091852
  0
LINE
  5
2EC
100
AcDbEntity
  8
0
100
AcDbLine
 62
7
  6
CONTINUOUS
 10
4.0403977541
 20
5.1506414774
 11
4.0423483194
 21
5.1498824465
  0
LINE
  5
2ED
100
AcDbEntity
  8
0
100
AcDbLine
 62
7
  6
CONTINUOUS
 10
4.0422241401
 20
5.1499312454
 11
4.0439428255
 21
5.1492503718
  0
LINE
  5
2EE
100
AcDbEntity
  8
0
100
AcDbLine
 62
7
  6
CONTINUOUS
 10
4.0439428255
 20
5.1492503718
 11
4.0458255001
 21
5.148489528
  0
LINE
  5
2EF
100
AcDbEntity
  8
0
100
AcDbLine
 62
7
  6
CONTINUOUS
 10
4.0455230596
 20
5.1486128906
 11
4.0470883866
 21
5.147969833
  0
LINE
  5
2F0
100
AcDbEntity
  8
0
100
AcDbLine
 62
7
  6
CONTINUOUS
 10
4.0467139866
 20
5.1481247178
 11
4.0484755955
 21
5.1473897328
  0
LINE
  5
2F1
100
AcDbEntity
  8
0
100
AcDbLine
 62
7
  6
CONTINUOUS
 10
4.047865362
 20
5.1476461275
 11
4.0493485849
 21
5.1470194589
  0
LINE
  5
2F2
100
AcDbEntity
  8
0
100
AcDbLine
 62
7
  6
CONTINUOUS
 10
4.0881681834
 20
5.1179681559
 11
4.0827686403
 21
5.1186236906
  0
LINE
  5
2F3
100
AcDbEntity
  8
0
100
AcDbLine
 62
7
  6
CONTINUOUS
 10
3.9103732865
 20
5.1866922768
 11
3.9207036017
 21
5.1843364588
  0
LINE
  5
2F4
100
AcDbEntity
  8
0
100
AcDbLine
 62
7
  6
CONTINUOUS
 10
3.9203525214
 20
5.1844173065
 11
3.9300635586
 21
5.1821594354
  0
LINE
  5
2F5
100
AcDbEntity
  8
0
100
AcDbLine
 62
7
  6
CONTINUOUS
 10
3.9297342873
 20
5.1822367523
 11
3.9396721625
 21
5.1798779772
  0
LINE
  5
2F6
100
AcDbEntity
  8
0
100
AcDbLine
 62
7
  6
CONTINUOUS
 10
3.9388089464
 20
5.1800850032
 11
3.9476876977
 21
5.1779348217
  0
LINE
  5
2F7
100
AcDbEntity
  8
0
100
AcDbLine
 62
7
  6
CONTINUOUS
 10
3.9468612624
 20
5.1781369607
 11
3.9546328078
 21
5.1762187893
  0
LINE
  5
2F8
100
AcDbEntity
  8
0
100
AcDbLine
 62
7
  6
CONTINUOUS
 10
3.953995008
 20
5.1763777077
 11
3.9615847201
 21
5.1744681604
  0
LINE
  5
2F9
100
AcDbEntity
  8
0
100
AcDbLine
 62
7
  6
CONTINUOUS
 10
3.9611408027
 20
5.1745809996
 11
3.9673514175
 21
5.1729887129
  0
LINE
  5
2FA
100
AcDbEntity
  8
0
100
AcDbLine
 62
7
  6
CONTINUOUS
 10
3.9672385191
 20
5.1730179259
 11
3.9732902679
 21
5.1714369886
  0
LINE
  5
2FB
100
AcDbEntity
  8
0
100
AcDbLine
 62
7
  6
CONTINUOUS
 10
3.9730767756
 20
5.1714932858
 11
3.9787467287
 21
5.1699839819
  0
LINE
  5
2FC
100
AcDbEntity
  8
0
100
AcDbLine
 62
7
  6
CONTINUOUS
 10
3.9782863561
 20
5.1701076333
 11
3.9822465884
 21
5.1690371804
  0
LINE
  5
2FD
100
AcDbEntity
  8
0
100
AcDbLine
 62
7
  6
CONTINUOUS
 10
3.9274590896
 20
5.0532731627
 11
3.9180859872
 21
5.0510782499
  0
LINE
  5
2FE
100
AcDbEntity
  8
0
100
AcDbLine
 62
7
  6
CONTINUOUS
 10
3.9180859872
 20
5.0510782499
 11
3.907149881
 21
5.0485696753
  0
LINE
  5
2FF
100
AcDbEntity
  8
0
100
AcDbLine
 62
7
  6
CONTINUOUS
 10
3.9073050672
 20
5.0486049168
 11
3.8945175981
 21
5.0457348118
  0
LINE
  5
300
100
AcDbEntity
  8
0
100
AcDbLine
 62
7
  6
CONTINUOUS
 10
3.9886631638
 20
5.0690297077
 11
3.9833221621
 21
5.0675238179
  0
LINE
  5
301
100
AcDbEntity
  8
0
100
AcDbLine
 62
7
  6
CONTINUOUS
 10
3.9834663446
 20
5.0675640368
 11
3.9777885918
 21
5.0659968223
  0
LINE
  5
302
100
AcDbEntity
  8
0
100
AcDbLine
 62
7
  6
CONTINUOUS
 10
3.9780129853
 20
5.0660581183
 11
3.9721534987
 21
5.0644736801
  0
LINE
  5
303
100
AcDbEntity
  8
0
100
AcDbLine
 62
7
  6
CONTINUOUS
 10
3.9727405137
 20
5.0646309378
 11
3.9662121447
 21
5.0628995446
  0
LINE
  5
304
100
AcDbEntity
  8
0
100
AcDbLine
 62
7
  6
CONTINUOUS
 10
3.966569232
 20
5.0629932821
 11
3.9596784244
 21
5.061203067
  0
LINE
  5
305
100
AcDbEntity
  8
0
100
AcDbLine
 62
7
  6
CONTINUOUS
 10
3.9596784244
 20
5.061203067
 11
3.9521838357
 21
5.0592976587
  0
LINE
  5
306
100
AcDbEntity
  8
0
100
AcDbLine
 62
7
  6
CONTINUOUS
 10
3.9529107644
 20
5.0594806669
 11
3.9447925894
 21
5.0574572002
  0
LINE
  5
307
100
AcDbEntity
  8
0
100
AcDbLine
 62
7
  6
CONTINUOUS
 10
3.9449924699
 20
5.057506507
 11
3.9364763531
 21
5.0554281124
  0
LINE
  5
308
100
AcDbEntity
  8
0
100
AcDbLine
 62
7
  6
CONTINUOUS
 10
3.9364763531
 20
5.0554281124
 11
3.9274590896
 21
5.0532731627
  0
LINE
  5
309
100
AcDbEntity
  8
0
100
AcDbLine
 62
7
  6
CONTINUOUS
 10
3.9175895546
 20
5.5640518832
 11
5.3205850732
 21
5.5640518832
  0
LINE
  5
30A
100
AcDbEntity
  8
0
100
AcDbLine
 62
7
  6
CONTINUOUS
 10
3.9510471941
 20
5.6016025836
 11
5.2871274337
 21
5.6016025836
  0
ARC
  5
30B
100
AcDbEntity
  8
02___PRT_ALL_AXES
100
AcDbCircle
 62
7
  6
CONTINUOUS
 10
16.5076988471
 20
6.1011602617
 40
11.2
100
AcDbArc
 50
182.7487367037
 51
195.1916703751
  0
ARC
  5
30C
100
AcDbEntity
  8
02___PRT_ALL_AXES
100
AcDbCircle
 62
7
  6
CONTINUOUS
 10
-7.2695242193
 20
6.1011602617
 40
11.2
100
AcDbArc
 50
355.4244126371
 51
357.2512632963
  0
ARC
  5
30D
100
AcDbEntity
  8
02___PRT_ALL_AXES
100
AcDbCircle
 62
7
  6
CONTINUOUS
 10
-7.2695242193
 20
6.1011602617
 40
11.2
100
AcDbArc
 50
353.474862382
 51
354.5023975379
  0
ARC
  5
30E
100
AcDbEntity
  8
02___PRT_ALL_AXES
100
AcDbCircle
 62
7
  6
CONTINUOUS
 10
-7.2695242193
 20
6.1011602617
 40
11.2
100
AcDbArc
 50
344.8083296249
 51
352.5498391443
  0
ARC
  5
30F
100
AcDbEntity
  8
02___PRT_ALL_AXES
100
AcDbCircle
 62
7
  6
CONTINUOUS
 10
4.6190873139
 20
1.5428794458
 40
4.1133333333
100
AcDbArc
 50
80.6532805826
 51
99.3467194174
  0
ARC
  5
310
100
AcDbEntity
  8
0
100
AcDbCircle
 62
7
  6
CONTINUOUS
 10
3.9575435324
 20
5.562133639
 40
0.04
100
AcDbArc
 50
99.3467194174
 51
177.2512632963
  0
ARC
  5
311
100
AcDbEntity
  8
0
100
AcDbCircle
 62
7
  6
CONTINUOUS
 10
5.2806310954
 20
5.562133639
 40
0.04
100
AcDbArc
 50
2.7487367037
 51
80.6532805826
  0
ARC
  5
312
100
AcDbEntity
  8
0
100
AcDbCircle
 62
7
  6
CONTINUOUS
 10
3.9959559634
 20
4.7449777348
 40
0.038236872
100
AcDbArc
 50
340.0836533139
 51
347.0375860645
  0
ARC
  5
313
100
AcDbEntity
  8
0
100
AcDbCircle
 62
7
  6
CONTINUOUS
 10
3.998892034
 20
4.7442970763
 40
0.0352229406
100
AcDbArc
 50
347.0452610405
 51
350.7674532054
  0
ARC
  5
314
100
AcDbEntity
  8
0
100
AcDbCircle
 62
7
  6
CONTINUOUS
 10
3.8557411513
 20
4.6462127319
 40
0.0200000023
100
AcDbArc
 50
103.1549761694
 51
172.5492178944
  0
ARC
  5
315
100
AcDbEntity
  8
0
100
AcDbCircle
 62
7
  6
CONTINUOUS
 10
3.8988637418
 20
5.0262127446
 40
0.0200000019
100
AcDbArc
 50
102.5509188826
 51
174.5022658264
  0
ARC
  5
316
100
AcDbEntity
  8
0
100
AcDbCircle
 62
7
  6
CONTINUOUS
 10
3.8778032615
 20
4.8262128077
 40
0.0200000013
100
AcDbArc
 50
173.4752904716
 51
256.5006974781
  0
ARC
  5
317
100
AcDbEntity
  8
0
100
AcDbCircle
 62
7
  6
CONTINUOUS
 10
3.9147267178
 20
5.2062127796
 40
0.02
100
AcDbArc
 50
175.4250229633
 51
257.2698646139
  0
SPLINE
  5
318
100
AcDbEntity
  8
0
100
AcDbSpline
 62
7
  6
CONTINUOUS
 70
0
 71
3
 72
10
 73
6
 74
0
 42
0.0000001
 43
0.0000001
 44
0.0000000001
 40
0.0
 40
0.0
 40
0.0
 40
0.0
 40
0.2526404862
 40
0.6297055417
 40
1.0
 40
1.0
 40
1.0
 40
1.0
 10
4.0881655383
 20
5.1179684788
 30
0.0
 10
4.0880747561
 20
5.1172334884
 30
0.0
 10
4.0877827937
 20
5.1154092094
 30
0.0
 10
4.0870790156
 20
5.1125587964
 30
0.0
 10
4.086352466
 20
5.1104881734
 30
0.0
 10
4.0859471275
 20
5.1094812359
 30
0.0
  0
SPLINE
  5
319
100
AcDbEntity
  8
0
100
AcDbSpline
 62
7
  6
CONTINUOUS
 70
0
 71
3
 72
25
 73
21
 74
0
 42
0.0000001
 43
0.0000001
 44
0.0000000001
 40
0.0
 40
0.0
 40
0.0
 40
0.0
 40
0.0480941883
 40
0.0930373113
 40
0.1144953812
 40
0.1353762538
 40
0.1557584825
 40
0.1757044268
 40
0.2144903338
 40
0.2520656064
 40
0.2886422785
 40
0.3243596078
 40
0.3935524456
 40
0.4600970188
 40
0.5242116417
 40
0.586009686
 40
0.7028600804
 40
0.8108334327
 40
0.9099116159
 40
1.0
 40
1.0
 40
1.0
 40
1.0
 10
4.0859471275
 20
5.1094812359
 30
0.0
 10
4.0849646513
 20
5.1070405793
 30
0.0
 10
4.0825476373
 20
5.1025156717
 30
0.0
 10
4.0786657094
 20
5.0975707513
 30
0.0
 10
4.0753448205
 20
5.094136627
 30
0.0
 10
4.072819139
 20
5.0918115012
 30
0.0
 10
4.0702409982
 20
5.0896729075
 30
0.0
 10
4.066790658
 20
5.0870583755
 30
0.0
 10
4.0624113143
 20
5.0841213453
 30
0.0
 10
4.0570850636
 20
5.0809857195
 30
0.0
 10
4.051770884
 20
5.0781742781
 30
0.0
 10
4.0448025621
 20
5.0748024676
 30
0.0
 10
4.0361892696
 20
5.0710794795
 30
0.0
 10
4.0259904468
 20
5.0671363363
 30
0.0
 10
4.0160655973
 20
5.0636197358
 30
0.0
 10
4.0034546054
 20
5.0594546158
 30
0.0
 10
3.9884474601
 20
5.0549043842
 30
0.0
 10
3.971381522
 20
5.0501351856
 30
0.0
 10
3.9556599539
 20
5.0460033399
 30
0.0
 10
3.9456220389
 20
5.0434870672
 30
0.0
 10
3.9408362917
 20
5.0423104564
 30
0.0
  0
SPLINE
  5
31A
100
AcDbEntity
  8
0
100
AcDbSpline
 62
7
  6
CONTINUOUS
 70
0
 71
3
 72
25
 73
21
 74
0
 42
0.0000001
 43
0.0000001
 44
0.0000000001
 40
0.0
 40
0.0
 40
0.0
 40
0.0
 40
0.231985784
 40
0.4341768184
 40
0.6061186676
 40
0.6806158007
 40
0.747401215
 40
0.8064326955
 40
0.8576738034
 40
0.9010899916
 40
0.9366547189
 40
0.9514853384
 40
0.9643441655
 40
0.9752289199
 40
0.9841383634
 40
0.9910713441
 40
0.99602671
 40
0.9977624274
 40
0.9990033089
 40
1.0
 40
1.0
 40
1.0
 40
1.0
 10
3.9408362917
 20
5.0423104564
 30
0.0
 10
3.9360689067
 20
5.04113836
 30
0.0
 10
3.9271364787
 20
5.0389850171
 30
0.0
 10
3.9146454662
 20
5.0360686694
 30
0.0
 10
3.9053884258
 20
5.0339603797
 30
0.0
 10
3.8989206738
 20
5.0325091996
 30
0.0
 10
3.8947827503
 20
5.0315885256
 30
0.0
 10
3.8911240293
 20
5.030780161
 30
0.0
 10
3.8879472786
 20
5.0300827166
 30
0.0
 10
3.8852549844
 20
5.0294945141
 30
0.0
 10
3.8833150876
 20
5.0290725028
 30
0.0
 10
3.8820069106
 20
5.0287887158
 30
0.0
 10
3.8812091007
 20
5.028615868
 30
0.0
 10
3.8805337208
 20
5.0284697105
 30
0.0
 10
3.8799808991
 20
5.0283501256
 30
0.0
 10
3.8795506616
 20
5.0282573263
 30
0.0
 10
3.8792688971
 20
5.0281962337
 30
0.0
 10
3.8791047251
 20
5.0281612102
 30
0.0
 10
3.8790226804
 20
5.0281428505
 30
0.0
 10
3.8789760988
 20
5.0281341126
 30
0.0
 10
3.8789556671
 20
5.0281288752
 30
0.0
  0
SPLINE
  5
31B
100
AcDbEntity
  8
0
100
AcDbSpline
 62
7
  6
CONTINUOUS
 70
0
 71
3
 72
51
 73
47
 74
0
 42
0.0000001
 43
0.0000001
 44
0.0000000001
 40
0.0
 40
0.0
 40
0.0
 40
0.0
 40
0.0000620857
 40
0.0002482952
 40
0.0005586281
 40
0.0009930846
 40
0.0015516644
 40
0.0022343674
 40
0.0039720974
 40
0.0062058999
 40
0.008935256
 40
0.012159646
 40
0.0158785509
 40
0.0200914516
 40
0.024797795
 40
0.0356873487
 40
0.0485396195
 40
0.0633467141
 40
0.0800989519
 40
0.0987856033
 40
0.1193949968
 40
0.1419139935
 40
0.1926240356
 40
0.2507919172
 40
0.3162805631
 40
0.3889447956
 40
0.4279229525
 40
0.4686428889
 40
0.5110912605
 40
0.5552600023
 40
0.6011508044
 40
0.6487840211
 40
0.6982181335
 40
0.7236521395
 40
0.7496038132
 40
0.7761273126
 40
0.803312965
 40
0.8313169806
 40
0.8604178377
 40
0.8911133517
 40
0.9073190419
 40
0.9242585865
 40
0.942044375
 40
0.9607097594
 40
0.9801397653
 40
1.0
 40
1.0
 40
1.0
 40
1.0
 10
3.8947905413
 20
5.207808137
 30
0.0
 10
3.8947951785
 20
5.2078076403
 30
0.0
 10
3.8948131982
 20
5.2078024235
 30
0.0
 10
3.894854379
 20
5.2077946154
 30
0.0
 10
3.8949225805
 20
5.2077789621
 30
0.0
 10
3.8950182622
 20
5.2077582875
 30
0.0
 10
3.895141199
 20
5.2077312081
 30
0.0
 10
3.8953597895
 20
5.2076833276
 30
0.0
 10
3.8957012829
 20
5.2076084005
 30
0.0
 10
3.8961929388
 20
5.2075005166
 30
0.0
 10
3.8967936382
 20
5.2073685299
 30
0.0
 10
3.8975032529
 20
5.2072124105
 30
0.0
 10
3.8983216484
 20
5.2070320884
 30
0.0
 10
3.8992486891
 20
5.2068275059
 30
0.0
 10
3.900701607
 20
5.2065063559
 30
0.0
 10
3.9027878921
 20
5.2060437591
 30
0.0
 10
3.9056142437
 20
5.2054138275
 30
0.0
 10
3.9088695589
 20
5.2046841551
 30
0.0
 10
3.9125512942
 20
5.2038531423
 30
0.0
 10
3.9166565907
 20
5.2029191133
 30
0.0
 10
3.9211822457
 20
5.2018800871
 30
0.0
 10
3.9280487859
 20
5.2002870291
 30
0.0
 10
3.9376545542
 20
5.1980173474
 30
0.0
 10
3.9503807861
 20
5.1949183528
 30
0.0
 10
3.9646773737
 20
5.1913000113
 30
0.0
 10
3.9775363716
 20
5.1878794807
 30
0.0
 10
3.988559892
 20
5.1848012968
 30
0.0
 10
3.9973719577
 20
5.182244381
 30
0.0
 10
4.0065251807
 20
5.1794662503
 30
0.0
 10
4.0160052012
 20
5.1764308101
 30
0.0
 10
4.0257939271
 20
5.1730872939
 30
0.0
 10
4.0358666021
 20
5.169360603
 30
0.0
 10
4.0443852246
 20
5.165872729
 30
0.0
 10
4.0512840877
 20
5.1627462841
 30
0.0
 10
4.0565385169
 20
5.1601666648
 30
0.0
 10
4.0618049044
 20
5.1573213985
 30
0.0
 10
4.0670537556
 20
5.1541329114
 30
0.0
 10
4.0722364242
 20
5.1504840016
 30
0.0
 10
4.0772631294
 20
5.1461961023
 30
0.0
 10
4.0811040003
 20
5.1419371658
 30
0.0
 10
4.0838136647
 20
5.1379718548
 30
0.0
 10
4.0856305665
 20
5.1345955419
 30
0.0
 10
4.0870943047
 20
5.1308499238
 30
0.0
 10
4.0880892836
 20
5.126757665
 30
0.0
 10
4.0885028428
 20
5.1224086796
 30
0.0
 10
4.0883474112
 20
5.1194492026
 30
0.0
 10
4.0881655383
 20
5.1179684788
 30
0.0
  0
SPLINE
  5
31C
100
AcDbEntity
  8
0
100
AcDbSpline
 62
7
  6
CONTINUOUS
 70
0
 71
3
 72
63
 73
59
 74
0
 42
0.0000001
 43
0.0000001
 44
0.0000000001
 40
0.0
 40
0.0
 40
0.0
 40
0.0
 40
0.0000038161
 40
0.0000152705
 40
0.0000343634
 40
0.0000610949
 40
0.0001374745
 40
0.0002444105
 40
0.0003819042
 40
0.0005499569
 40
0.0007485698
 40
0.0009777439
 40
0.0015277616
 40
0.0021999704
 40
0.0029943282
 40
0.0039107929
 40
0.0049493224
 40
0.0061098745
 40
0.0087968785
 40
0.0119714684
 40
0.0156333036
 40
0.0197818838
 40
0.0244164995
 40
0.0295364276
 40
0.0351409456
 40
0.0478007918
 40
0.0623888554
 40
0.0788967974
 40
0.0973156134
 40
0.117634913
 40
0.1398437193
 40
0.1639298574
 40
0.1898805217
 40
0.2176820046
 40
0.2473199831
 40
0.3120454777
 40
0.38393603
 40
0.4225322878
 40
0.4628792037
 40
0.504968632
 40
0.5487990759
 40
0.5943812127
 40
0.6417489854
 40
0.6909842305
 40
0.7163572136
 40
0.7422856246
 40
0.7688398256
 40
0.796137399
 40
0.8243826337
 40
0.8539415573
 40
0.8694116294
 40
0.885487968
 40
0.9023083539
 40
0.9200315079
 40
0.9387521887
 40
0.9485072759
 40
0.9584962463
 40
1.0
 40
1.0
 40
1.0
 40
1.0
 10
3.8579327936
 20
4.8284854367
 30
0.0
 10
3.8579326637
 20
4.8284852028
 30
0.0
 10
3.8579346565
 20
4.8284853765
 30
0.0
 10
3.8579360846
 20
4.8284844238
 30
0.0
 10
3.8579405154
 20
4.828483739
 30
0.0
 10
3.8579485432
 20
4.8284816518
 30
0.0
 10
3.8579631212
 20
4.8284784092
 30
0.0
 10
3.8579849137
 20
4.8284732503
 30
0.0
 10
3.8580131243
 20
4.8284667027
 30
0.0
 10
3.8580475351
 20
4.8284586705
 30
0.0
 10
3.8580882282
 20
4.8284491899
 30
0.0
 10
3.858154997
 20
4.828433629
 30
0.0
 10
3.8582541102
 20
4.828410535
 30
0.0
 10
3.8583918145
 20
4.8283784402
 30
0.0
 10
3.8585545398
 20
4.8283405004
 30
0.0
 10
3.8587422744
 20
4.8282967087
 30
0.0
 10
3.8589550082
 20
4.8282470592
 30
0.0
 10
3.8592886268
 20
4.8281691514
 30
0.0
 10
3.8597680705
 20
4.8280570829
 30
0.0
 10
3.8604182474
 20
4.8279049067
 30
0.0
 10
3.8611681566
 20
4.8277291565
 30
0.0
 10
3.8620176682
 20
4.827529754
 30
0.0
 10
3.8629666117
 20
4.8273065675
 30
0.0
 10
3.8640148051
 20
4.8270594835
 30
0.0
 10
3.8656104795
 20
4.8266824135
 30
0.0
 10
3.8678517586
 20
4.8261506721
 30
0.0
 10
3.8708358928
 20
4.825438226
 30
0.0
 10
3.8742114277
 20
4.8246263363
 30
0.0
 10
3.8779759401
 20
4.8237132924
 30
0.0
 10
3.8821266258
 20
4.8226966378
 30
0.0
 10
3.8866604373
 20
4.82157392
 30
0.0
 10
3.8915738992
 20
4.8203417396
 30
0.0
 10
3.8968632426
 20
4.8189964281
 30
0.0
 10
3.9025242603
 20
4.8175333379
 30
0.0
 10
3.9108079806
 20
4.8153532741
 30
0.0
 10
3.92205794
 20
4.8122983022
 30
0.0
 10
3.9338696354
 20
4.8089181087
 30
0.0
 10
3.9439965314
 20
4.8058686045
 30
0.0
 10
3.9520945374
 20
4.8033300242
 30
0.0
 10
3.9605058097
 20
4.8005662235
 30
0.0
 10
3.969215994
 20
4.7975398285
 30
0.0
 10
3.9782065934
 20
4.7941982061
 30
0.0
 10
3.9874519156
 20
4.7904638999
 30
0.0
 10
3.9952575998
 20
4.786960229
 30
0.0
 10
4.00156635
 20
4.7838128216
 30
0.0
 10
4.0063661332
 20
4.7812095912
 30
0.0
 10
4.0111657515
 20
4.7783322187
 30
0.0
 10
4.0159333026
 20
4.7750992249
 30
0.0
 10
4.0206148472
 20
4.7713887706
 30
0.0
 10
4.0243066748
 20
4.7677955734
 30
0.0
 10
4.0270523128
 20
4.7645015172
 30
0.0
 10
4.0290060301
 20
4.761724056
 30
0.0
 10
4.0307643811
 20
4.7586338322
 30
0.0
 10
4.0322538157
 20
4.7552004138
 30
0.0
 10
4.0331836552
 20
4.7520881694
 30
0.0
 10
4.0337100357
 20
4.7494411465
 30
0.0
 10
4.0342761001
 20
4.7451831445
 30
0.0
 10
4.0341269903
 20
4.7415180023
 30
0.0
 10
4.0336586714
 20
4.7386458406
 30
0.0
  0
SPLINE
  5
31D
100
AcDbEntity
  8
0
100
AcDbSpline
 62
7
  6
CONTINUOUS
 70
0
 71
3
 72
23
 73
19
 74
0
 42
0.0000001
 43
0.0000001
 44
0.0000000001
 40
0.0
 40
0.0
 40
0.0
 40
0.0
 40
0.0501363958
 40
0.0969284899
 40
0.1406888958
 40
0.1820344186
 40
0.2215113841
 40
0.259522843
 40
0.2963457321
 40
0.3321672287
 40
0.4012693615
 40
0.4674569718
 40
0.5310439866
 40
0.5922016756
 40
0.7075733552
 40
0.8139516192
 40
0.911432684
 40
1.0
 40
1.0
 40
1.0
 40
1.0
 10
4.0319059254
 20
4.7319524283
 30
0.0
 10
4.0310091397
 20
4.7294681321
 30
0.0
 10
4.0287914274
 20
4.7248287092
 30
0.0
 10
4.0245077388
 20
4.7187495174
 30
0.0
 10
4.0197691903
 20
4.7136445172
 30
0.0
 10
4.0148154688
 20
4.709325415
 30
0.0
 10
4.0097728358
 20
4.7056067351
 30
0.0
 10
4.0047078714
 20
4.7023437964
 30
0.0
 10
3.9996562912
 20
4.6994309129
 30
0.0
 10
3.9930455974
 20
4.6959553315
 30
0.0
 10
3.984876958
 20
4.6921326807
 30
0.0
 10
3.9752050948
 20
4.6881001653
 30
0.0
 10
3.965804554
 20
4.6845187877
 30
0.0
 10
3.9538805257
 20
4.6802943471
 30
0.0
 10
3.9397012587
 20
4.6756961563
 30
0.0
 10
3.9235834338
 20
4.6708934775
 30
0.0
 10
3.9087465048
 20
4.6667460806
 30
0.0
 10
3.8992747254
 20
4.6642259736
 30
0.0
 10
3.8947598915
 20
4.6630488737
 30
0.0
  0
SPLINE
  5
31E
100
AcDbEntity
  8
0
100
AcDbSpline
 62
7
  6
CONTINUOUS
 70
0
 71
3
 72
16
 73
12
 74
0
 42
0.0000001
 43
0.0000001
 44
0.0000000001
 40
0.0
 40
0.0
 40
0.0
 40
0.0
 40
0.4346906906
 40
0.6065722816
 40
0.7477088694
 40
0.8578189089
 40
0.9366733294
 40
0.9643236767
 40
0.9841024327
 40
0.995996512
 40
1.0
 40
1.0
 40
1.0
 40
1.0
 10
3.8947598915
 20
4.6630488737
 30
0.0
 10
3.8862700352
 20
4.6608354127
 30
0.0
 10
3.8743941043
 20
4.6578575222
 30
0.0
 10
3.8597207107
 20
4.6543297143
 30
0.0
 10
3.8514079734
 20
4.6523712984
 30
0.0
 10
3.8449177271
 20
4.6508653935
 30
0.0
 10
3.8406564526
 20
4.6498872877
 30
0.0
 10
3.8381714166
 20
4.6493204441
 30
0.0
 10
3.8370039812
 20
4.6490544205
 30
0.0
 10
3.83630163
 20
4.6488956265
 30
0.0
 10
3.8359888965
 20
4.6488238084
 30
0.0
 10
3.8359100277
 20
4.648806225
 30
0.0
  0
ENDSEC
  0
SECTION
  2
OBJECTS
  0
DICTIONARY
  5
C
100
AcDbDictionary
280
0
281
1
  3
ACAD_GROUP
350
D
  3
ACAD_MLINESTYLE
350
17
  3
ACAD_LAYOUT
350
1A
  3
ACAD_PLOTSETTINGS
350
19
  3
ACAD_PLOTSTYLENAME
350
E
  0
DICTIONARY
  5
D
102
{ACAD_REACTORS
330
C
102
}
100
AcDbDictionary
280
0
281
1
  0
ACDBDICTIONARYWDFLT
  5
E
102
{ACAD_REACTORS
330
C
102
}
100
AcDbDictionary
281
1
  3
Normal
350
F
100
AcDbDictionaryWithDefault
340
F
  0
DICTIONARY
  5
17
102
{ACAD_REACTORS
330
C
102
}
100
AcDbDictionary
280
0
281
1
  3
Standard
350
18
  0
DICTIONARY
  5
19
102
{ACAD_REACTORS
330
C
102
}
100
AcDbDictionary
281
1
  0
DICTIONARY
  5
1A
102
{ACAD_REACTORS
330
C
102
}
100
AcDbDictionary
281
1
  3
Model
350
31F
  3
Layout1
350
320
  0
ACDBPLACEHOLDER
  5
F
102
{ACAD_REACTORS
330
E
102
}
  0
MLINESTYLE
  5
18
102
{ACAD_REACTORS
330
17
102
}
100
AcDbMlineStyle
  2
STANDARD
 70
0
  3

 62
256
 51
90.0
 52
90.0
 71
2
 49
0.5
 62
256
  6
BYLAYER
 49
-0.5
 62
256
  6
BYLAYER
  0
LAYOUT
  5
31F
102
{ACAD_REACTORS
330
1A
102
}
100
AcDbPlotSettings
  1

  2
none_device
  4
ANSI_A_(11.00_x_8.50_Inches)
  6

 40
0.0
 41
0.0
 42
0.0
 43
0.0
 44
279.4
 45
215.9
 46
0.0
 47
0.0
 48
0.0
 49
0.0
140
0.0
141
0.0
142
1.0
143
1.0
 70
1024
 72
0
 73
0
 74
0
  7

 75
0
147
1.0
148
0.0
149
0.0
100
AcDbLayout
  1
Model
 70
0
 71
0
 10
0.0
 20
0.0
 11
11.0
 21
8.5
 12
0.0
 22
0.0
 32
0.0
 14
0.0
 24
0.0
 34
0.0
 15
0.0
 25
0.0
 35
0.0
146
0.0
 13
0.0
 23
0.0
 33
0.0
 16
1.0
 26
0.0
 36
0.0
 17
0.0
 27
1.0
 37
0.0
 76
0
330
20C
345
0
346
0
  0
LAYOUT
  5
320
102
{ACAD_REACTORS
330
1A
102
}
100
AcDbPlotSettings
  1

  2
none_device
  4
ANSI_A_(11.00_x_8.50_Inches)
  6

 40
0.0
 41
0.0
 42
0.0
 43
0.0
 44
279.4
 45
215.9
 46
0.0
 47
0.0
 48
0.0
 49
0.0
140
0.0
141
0.0
142
1.0
143
1.0
 70
0
 72
0
 73
0
 74
0
  7

 75
0
147
1.0
148
0.0
149
0.0
100
AcDbLayout
  1
Layout1
 70
0
 71
1
 10
0.0
 20
0.0
 11
11.0
 21
8.5
 12
0.0
 22
0.0
 32
0.0
 14
0.0
 24
0.0
 34
0.0
 15
0.0
 25
0.0
 35
0.0
146
0.0
 13
0.0
 23
0.0
 33
0.0
 16
1.0
 26
0.0
 36
0.0
 17
0.0
 27
1.0
 37
0.0
 76
0
330
20D
345
0
346
0
  0
ENDSEC
  0
EOF
