999
DXF file: E:\BT Custom\CADOUTPUT\_RIGHT.dxf
999
Pro/ENGINEER 2018400 by Parametric Technology Corporation
  0
SECTION
  2
HEADER
  9
$ACADVER
  1
AC1018
  9
$DWGCODEPAGE
  3
ANSI_1252
  9
$EXTMAX
 10
22.0
 20
17.0
 30
0.0
  9
$EXTMIN
 10
0.0
 20
0.0
 30
0.0
  9
$LIMMIN
 10
0.0
 20
0.0
  9
$LIMMAX
 10
22.0
 20
17.0
  9
$VIEWCTR
 10
11.0
 20
8.5
  9
$VIEWSIZE
 40
17.0
  9
$CLAYER
  8
0
  9
$LTSCALE
 40
1.21
  9
$CELTYPE
  6
BYLAYER
  9
$DIMSCALE
 40
1.0
  9
$DIMASZ
 40
0.1
  9
$DIMEXO
 40
0.0625
  9
$DIMDLI
 40
0.836
  9
$DIMEXE
 40
0.125
  9
$DIMCEN
 40
0.198
  9
$DIMLFAC
 40
1.0
  9
$DIMBLK
  1
_FILLED
  9
$DIMALT
 70
1
  9
$DIMALTD
 70
2
  9
$DIMALTTD
 70
2
  9
$DIMALTF
 40
25.4
  9
$DIMTXT
 40
0.08
  9
$DIMTOL
 70
1
  9
$DIMLIM
 70
0
  9
$DIMTFAC
 40
1.0
  9
$DIMTP
 40
0.001
  9
$DIMTM
 40
0.001
  9
$DIMGAP
 40
0.09
  9
$DIMDSEP
 70
46
  9
$AUNITS
 70
0
  9
$PDMODE
 70
3
  9
$PDSIZE
 40
0.06
  9
$HANDSEED
  5
2CD
  9
$TILEMODE
 70
1
  9
$MEASUREMENT
 70
0
  9
$INSUNITS
 70
1
  0
ENDSEC
  0
SECTION
  2
CLASSES
  0
CLASS
  1
ACDBDICTIONARYWDFLT
  2
AcDbDictionaryWithDefault
  3
AutoCAD 2000
 90
0
 91
1
280
0
281
0
  0
CLASS
  1
ACDBPLACEHOLDER
  2
AcDbPlaceHolder
  3
AutoCAD 2000
 90
0
 91
1
280
0
281
0
  0
CLASS
  1
LAYOUT
  2
AcDbLayout
  3
AutoCAD 2000
 90
0
 91
0
280
0
281
0
  0
ENDSEC
  0
SECTION
  2
TABLES
  0
TABLE
  2
VPORT
  5
8
100
AcDbSymbolTable
 70
2
  0
VPORT
  5
1F4
100
AcDbSymbolTableRecord
100
AcDbViewportTableRecord
  2
*ACTIVE
 70
0
 10
0.0
 20
0.0
 11
1.0
 21
1.0
 12
11.0
 22
8.5
 13
0.0
 23
0.0
 14
1.0
 24
1.0
 15
0.0
 25
0.0
 16
0.0
 26
0.0
 36
1.0
 17
0.0
 27
0.0
 37
0.0
 40
17.0
 41
1.2941176471
 42
50.0
 43
0.0
 44
0.0
 50
0.0
 51
0.0
 71
0
 72
100
 73
1
 74
1
 75
0
 76
0
 77
0
 78
0
  0
ENDTAB
  0
TABLE
  2
LTYPE
  5
5
100
AcDbSymbolTable
 70
6
  0
LTYPE
  5
14
100
AcDbSymbolTableRecord
100
AcDbLinetypeTableRecord
  2
BYBLOCK
 70
0
  3

 72
65
 73
0
 40
0.0
  0
LTYPE
  5
15
100
AcDbSymbolTableRecord
100
AcDbLinetypeTableRecord
  2
BYLAYER
 70
0
  3

 72
65
 73
0
 40
0.0
  0
LTYPE
  5
16
100
AcDbSymbolTableRecord
100
AcDbLinetypeTableRecord
  2
CONTINUOUS
 70
64
  3
Solid line
 72
65
 73
0
 40
0.0
  0
LTYPE
  5
1F5
100
AcDbSymbolTableRecord
100
AcDbLinetypeTableRecord
  2
CENTER
 70
64
  3
____ _ ____ _ ____ _ ____ _ ____ _ ____ _ ____
 72
65
 73
4
 40
0.6
 49
0.375
 74
0
 49
-0.075
 74
0
 49
0.075
 74
0
 49
-0.075
 74
0
  0
LTYPE
  5
1F6
100
AcDbSymbolTableRecord
100
AcDbLinetypeTableRecord
  2
HIDDEN
 70
64
  3
- - - - - - - - - - - - - - - - - - - -
 72
65
 73
2
 40
0.2
 49
0.1
 74
0
 49
-0.1
 74
0
  0
LTYPE
  5
1F7
100
AcDbSymbolTableRecord
100
AcDbLinetypeTableRecord
  2
PHANTOM
 70
64
  3
_____ _ _ _____ _ _ _____ _ _ _____
 72
65
 73
6
 40
0.8
 49
0.45
 74
0
 49
-0.05
 74
0
 49
0.1
 74
0
 49
-0.05
 74
0
 49
0.1
 74
0
 49
-0.05
 74
0
  0
LTYPE
  5
1F8
100
AcDbSymbolTableRecord
100
AcDbLinetypeTableRecord
  2
DOT
 70
64
  3
. . . . . . . . . . . . . . . . . . . .
 72
65
 73
2
 40
0.2
 49
0.1
 74
0
 49
-0.1
 74
0
  0
LTYPE
  5
1F9
100
AcDbSymbolTableRecord
100
AcDbLinetypeTableRecord
  2
DASHED
 70
64
  3
- - - - - - - - - - - - - - - - - - - -
 72
65
 73
2
 40
0.2
 49
0.1
 74
0
 49
-0.1
 74
0
  0
ENDTAB
  0
TABLE
  2
LAYER
  5
2
100
AcDbSymbolTable
 70
36
  0
LAYER
  5
10
100
AcDbSymbolTableRecord
100
AcDbLayerTableRecord
  2
0
 70
0
 62
7
  6
CONTINUOUS
370
-3
390
F
  0
LAYER
  5
1FA
100
AcDbSymbolTableRecord
100
AcDbLayerTableRecord
  2
DEFAULT_1
 70
0
 62
7
  6
CENTER
370
-3
390
F
  0
LAYER
  5
1FB
100
AcDbSymbolTableRecord
100
AcDbLayerTableRecord
  2
DEFAULT_2
 70
0
 62
8
  6
HIDDEN
370
-3
390
F
  0
LAYER
  5
1FC
100
AcDbSymbolTableRecord
100
AcDbLayerTableRecord
  2
DEFAULT_3
 70
0
 62
7
  6
PHANTOM
370
-3
390
F
  0
LAYER
  5
1FD
100
AcDbSymbolTableRecord
100
AcDbLayerTableRecord
  2
ALL_FEATURES
 70
0
 62
7
  6
CONTINUOUS
370
-3
390
F
  0
LAYER
  5
1FE
100
AcDbSymbolTableRecord
100
AcDbLayerTableRecord
  2
AXES_FEATURES
 70
0
 62
7
  6
CONTINUOUS
370
-3
390
F
  0
LAYER
  5
1FF
100
AcDbSymbolTableRecord
100
AcDbLayerTableRecord
  2
DEFAULT_COORDINATE_SYSTEM
 70
0
 62
7
  6
CONTINUOUS
370
-3
390
F
  0
LAYER
  5
200
100
AcDbSymbolTableRecord
100
AcDbLayerTableRecord
  2
DEFAULT_DATUM_AXES
 70
0
 62
7
  6
CONTINUOUS
370
-3
390
F
  0
LAYER
  5
201
100
AcDbSymbolTableRecord
100
AcDbLayerTableRecord
  2
DEFAULT_DATUM_PLANES
 70
0
 62
7
  6
CONTINUOUS
370
-3
390
F
  0
LAYER
  5
202
100
AcDbSymbolTableRecord
100
AcDbLayerTableRecord
  2
DIMENSIONS
 70
0
 62
7
  6
CONTINUOUS
370
-3
390
F
  0
ENDTAB
  0
TABLE
  2
STYLE
  5
3
100
AcDbSymbolTable
 70
1
  0
STYLE
  5
11
100
AcDbSymbolTableRecord
100
AcDbTextStyleTableRecord
  2
STANDARD
 70
0
 40
0.0
 41
0.8
 50
0.0
 71
0
 42
0.2
  3
txt
  4

  0
STYLE
  5
203
100
AcDbSymbolTableRecord
100
AcDbTextStyleTableRecord
  2
TEXTSTYLE_1
 70
0
 40
0.0
 41
0.8
 50
0.0
 71
0
 42
0.2
  3
gdt
  4

  0
ENDTAB
  0
TABLE
  2
VIEW
  5
6
100
AcDbSymbolTable
 70
0
  0
ENDTAB
  0
TABLE
  2
UCS
  5
7
100
AcDbSymbolTable
 70
0
  0
ENDTAB
  0
TABLE
  2
APPID
  5
9
100
AcDbSymbolTable
 70
1
  0
APPID
  5
204
100
AcDbSymbolTableRecord
100
AcDbRegAppTableRecord
  2
ACAD
 70
0
  0
ENDTAB
  0
TABLE
  2
BLOCK_RECORD
  5
1
100
AcDbSymbolTable
 70
0
  0
BLOCK_RECORD
  5
205
100
AcDbSymbolTableRecord
100
AcDbBlockTableRecord
  2
*Model_Space
  0
BLOCK_RECORD
  5
206
100
AcDbSymbolTableRecord
100
AcDbBlockTableRecord
  2
*Paper_Space
  0
BLOCK_RECORD
  5
207
100
AcDbSymbolTableRecord
100
AcDbBlockTableRecord
  2
_FILLED
  0
ENDTAB
  0
TABLE
  2
DIMSTYLE
  5
A
100
AcDbSymbolTable
 70
1
100
AcDbDimStyleTable
 71
0
  0
DIMSTYLE
105
208
100
AcDbSymbolTableRecord
100
AcDbDimStyleTableRecord
  2
STANDARD
 70
0
  3

  4

 40
1.0
 41
0.1
 42
0.0625
 43
0.38
 44
0.125
 45
0.0
 46
0.0
 47
0.001
 48
0.001
140
0.08
141
0.09
142
0.0
143
25.4
144
1.0
145
0.0
146
1.0
147
0.09
 71
1.0
 72
0.0
 73
1
 74
1
 75
0
 76
0
 77
0
 78
4
 79
1
170
1
171
2
172
0
173
0
174
0
175
0
176
0
177
0
178
0
270
2
179
3
271
3
272
3
273
2
274
2
275
0
280
0
281
0
282
0
283
1
284
4
285
0
286
0
287
3
288
0
340
11
278
46
341
207
342
207
343
207
344
207
  0
ENDTAB
  0
ENDSEC
  0
SECTION
  2
BLOCKS
  0
BLOCK
  5
20
100
AcDbEntity
  8
0
100
AcDbBlockBegin
  2
*Model_Space
 70
0
 10
0.0
 20
0.0
 30
0.0
  3
*Model_Space
  1

  0
ENDBLK
  5
21
100
AcDbEntity
  8
0
100
AcDbBlockEnd
  0
BLOCK
  5
1C
100
AcDbEntity
  8
0
100
AcDbBlockBegin
  2
*Paper_Space
 70
0
 10
0.0
 20
0.0
 30
0.0
  3
*Paper_Space
  1

  0
ENDBLK
  5
1D
100
AcDbEntity
  8
0
100
AcDbBlockEnd
  0
BLOCK
  5
209
100
AcDbEntity
  8
0
100
AcDbBlockBegin
  2
_FILLED
 70
64
 10
0.0
 20
0.0
  3
_FILLED
  1

  0
SOLID
  5
20A
100
AcDbEntity
  8
0
  6
BYBLOCK
 62
0
100
AcDbTrace
 10
0.0
 20
0.0
 11
-1.0
 21
0.2
 12
-1.0
 22
-0.2
 13
-1.0
 23
-0.2
  0
ENDBLK
  5
20B
100
AcDbEntity
  8
0
  6
BYBLOCK
 62
0
100
AcDbBlockEnd
  0
ENDSEC
  0
SECTION
  2
ENTITIES
  0
LINE
  5
20C
100
AcDbEntity
  8
0
100
AcDbLine
 62
7
  6
CONTINUOUS
 10
13.7329359796
 20
0.1832307776
 11
16.2529343711
 21
0.1832307776
  0
LINE
  5
20D
100
AcDbEntity
  8
0
100
AcDbLine
 62
9
  6
CONTINUOUS
 10
13.7329351754
 20
0.2332307776
 11
16.2529351754
 21
0.2332307776
  0
LINE
  5
20E
100
AcDbEntity
  8
0
100
AcDbLine
 62
7
  6
CONTINUOUS
 10
13.7729351754
 20
0.3132307776
 11
16.2129351754
 21
0.3132307776
  0
LINE
  5
20F
100
AcDbEntity
  8
0
100
AcDbLine
 62
7
  6
CONTINUOUS
 10
13.9179351754
 20
0.6232307776
 11
16.0679351754
 21
0.6232307776
  0
LINE
  5
210
100
AcDbEntity
  8
0
100
AcDbLine
 62
7
  6
CONTINUOUS
 10
13.9879351754
 20
0.7932307776
 11
15.9979351754
 21
0.7932307776
  0
LINE
  5
211
100
AcDbEntity
  8
0
100
AcDbLine
 62
7
  6
CONTINUOUS
 10
5.5259454137
 20
12.0141651279
 11
5.531722137
 21
12.0433397124
  0
LINE
  5
212
100
AcDbEntity
  8
0
100
AcDbLine
 62
7
  6
CONTINUOUS
 10
5.5563464752
 20
12.0361856808
 11
5.5505697519
 21
12.0070110963
  0
LINE
  5
213
100
AcDbEntity
  8
0
100
AcDbLine
 62
7
  6
CONTINUOUS
 10
5.6272494313
 20
12.0155864679
 11
5.621472708
 21
11.9864118833
  0
LINE
  5
214
100
AcDbEntity
  8
0
100
AcDbLine
 62
7
  6
CONTINUOUS
 10
6.2054158437
 20
14.6851102753
 11
6.3155677746
 21
15.0642557081
  0
LINE
  5
215
100
AcDbEntity
  8
0
100
AcDbLine
 62
7
  6
CONTINUOUS
 10
5.7323371946
 20
11.9850556503
 11
5.7215821192
 21
11.9573274108
  0
LINE
  5
216
100
AcDbEntity
  8
0
100
AcDbLine
 62
7
  6
CONTINUOUS
 10
5.8409668256
 20
11.9534958251
 11
5.8302117502
 21
11.9257675855
  0
LINE
  5
217
100
AcDbEntity
  8
0
100
AcDbLine
 62
7
  6
CONTINUOUS
 10
5.9742207948
 20
11.9147819683
 11
5.9634657195
 21
11.8870537287
  0
LINE
  5
218
100
AcDbEntity
  8
0
100
AcDbLine
 62
7
  6
CONTINUOUS
 10
5.7358790623
 20
11.9840266426
 11
5.730102339
 21
11.9548520581
  0
LINE
  5
219
100
AcDbEntity
  8
0
100
AcDbLine
 62
7
  6
CONTINUOUS
 10
5.8691330315
 20
11.9453127858
 11
5.8633563082
 21
11.9161382013
  0
LINE
  5
21A
100
AcDbEntity
  8
0
100
AcDbLine
 62
7
  6
CONTINUOUS
 10
6.0109389437
 20
11.9041143599
 11
6.0051622204
 21
11.8749397753
  0
LINE
  5
21B
100
AcDbEntity
  8
0
100
AcDbLine
 62
7
  6
CONTINUOUS
 10
6.1441929129
 20
11.865400503
 11
6.1384161896
 21
11.8362259185
  0
LINE
  5
21C
100
AcDbEntity
  8
0
100
AcDbLine
 62
7
  6
CONTINUOUS
 10
6.2528225439
 20
11.8338406778
 11
6.2470458206
 21
11.8046660933
  0
LINE
  5
21D
100
AcDbEntity
  8
0
100
AcDbLine
 62
7
  6
CONTINUOUS
 10
6.1160267069
 20
11.8735835423
 11
6.1052716316
 21
11.8458553028
  0
LINE
  5
21E
100
AcDbEntity
  8
0
100
AcDbLine
 62
7
  6
CONTINUOUS
 10
6.2492806762
 20
11.8348696855
 11
6.2385256008
 21
11.8071414459
  0
LINE
  5
21F
100
AcDbEntity
  8
0
100
AcDbLine
 62
7
  6
CONTINUOUS
 10
6.3579103072
 20
11.8033098603
 11
6.3471552318
 21
11.7755816207
  0
LINE
  5
220
100
AcDbEntity
  8
0
100
AcDbLine
 62
7
  6
CONTINUOUS
 10
6.4288132632
 20
11.7827106473
 11
6.4180581879
 21
11.7549824077
  0
LINE
  5
221
100
AcDbEntity
  8
0
100
AcDbLine
 62
7
  6
CONTINUOUS
 10
6.4426825261
 20
11.7478283761
 11
6.4534376015
 21
11.7755566157
  0
LINE
  5
222
100
AcDbEntity
  8
0
100
AcDbLine
 62
7
  6
CONTINUOUS
 10
7.3616796624
 20
12.7958243853
 11
7.3567447122
 21
12.7920001469
  0
LINE
  5
223
100
AcDbEntity
  8
0
100
AcDbLine
 62
7
  6
CONTINUOUS
 10
14.7519396407
 20
4.1932434678
 11
15.2339307032
 21
4.1932434719
  0
LINE
  5
224
100
AcDbEntity
  8
0
100
AcDbLine
 62
7
  6
CONTINUOUS
 10
7.4103025762
 20
14.7462058472
 11
7.3001506454
 21
14.3670604144
  0
LINE
  5
225
100
AcDbEntity
  8
0
100
AcDbLine
 62
7
  6
CONTINUOUS
 10
14.7479351754
 20
4.2932307776
 11
15.2379351754
 21
4.2932307776
  0
LINE
  5
226
100
AcDbEntity
  8
0
100
AcDbLine
 62
9
  6
CONTINUOUS
 10
7.2896205561
 20
12.7279995784
 11
7.4115289828
 21
13.6893820438
  0
LINE
  5
227
100
AcDbEntity
  8
0
100
AcDbLine
 62
7
  6
CONTINUOUS
 10
7.3484159804
 20
12.7263189059
 11
7.4688840085
 21
13.6763422387
  0
LINE
  5
228
100
AcDbEntity
  8
0
100
AcDbLine
 62
9
  6
CONTINUOUS
 10
7.3754269796
 20
12.904237151
 11
7.3616796624
 21
12.7958243853
  0
LINE
  5
229
100
AcDbEntity
  8
0
100
AcDbLine
 62
7
  6
CONTINUOUS
 10
7.3661459063
 20
12.8035463907
 11
7.3778244744
 21
12.8956447869
  0
LINE
  5
22A
100
AcDbEntity
  8
0
100
AcDbLine
 62
7
  6
CONTINUOUS
 10
15.8004351754
 20
5.6932307776
 11
15.3382838584
 21
5.6932307776
  0
LINE
  5
22B
100
AcDbEntity
  8
0
100
AcDbLine
 62
7
  6
CONTINUOUS
 10
14.6475864924
 20
5.6932307776
 11
14.1854351754
 21
5.6932307776
  0
LINE
  5
22C
100
AcDbEntity
  8
0
100
AcDbLine
 62
9
  6
CONTINUOUS
 10
14.2303028397
 20
5.8967637936
 11
14.6575788779
 21
5.8967637936
  0
LINE
  5
22D
100
AcDbEntity
  8
0
100
AcDbLine
 62
9
  6
CONTINUOUS
 10
15.3282914729
 20
5.8967637936
 11
15.7555675111
 21
5.8967637936
  0
LINE
  5
22E
100
AcDbEntity
  8
0
100
AcDbLine
 62
9
  6
CONTINUOUS
 10
14.2687246538
 20
5.9243172
 11
14.6597574408
 21
5.9243172
  0
LINE
  5
22F
100
AcDbEntity
  8
0
100
AcDbLine
 62
9
  6
CONTINUOUS
 10
15.32611291
 20
5.9243172
 11
15.717145697
 21
5.9243172
  0
LINE
  5
230
100
AcDbEntity
  8
0
100
AcDbLine
 62
9
  6
CONTINUOUS
 10
14.4102684434
 20
6.2567252281
 11
14.6916331898
 21
6.2567252281
  0
LINE
  5
231
100
AcDbEntity
  8
0
100
AcDbLine
 62
9
  6
CONTINUOUS
 10
15.2942371611
 20
6.2567252281
 11
15.5756019074
 21
6.2567252281
  0
LINE
  5
232
100
AcDbEntity
  8
0
100
AcDbLine
 62
7
  6
CONTINUOUS
 10
14.6988575633
 20
6.3202307776
 11
15.2870127875
 21
6.3202307776
  0
LINE
  5
233
100
AcDbEntity
  8
0
100
AcDbLine
 62
9
  6
CONTINUOUS
 10
14.3759081083
 20
6.3475334124
 11
14.6786513298
 21
6.3475334124
  0
LINE
  5
234
100
AcDbEntity
  8
0
100
AcDbLine
 62
9
  6
CONTINUOUS
 10
15.307219021
 20
6.3475334124
 11
15.6099622425
 21
6.3475334124
  0
LINE
  5
235
100
AcDbEntity
  8
0
100
AcDbLine
 62
7
  6
CONTINUOUS
 10
14.6942847867
 20
6.4002307776
 11
15.2915855641
 21
6.4002307776
  0
LINE
  5
236
100
AcDbEntity
  8
0
100
AcDbLine
 62
7
  6
CONTINUOUS
 10
14.4229351754
 20
6.4827704806
 11
14.6743367159
 21
6.4827704806
  0
LINE
  5
237
100
AcDbEntity
  8
0
100
AcDbLine
 62
7
  6
CONTINUOUS
 10
15.3115336349
 20
6.4827704806
 11
15.5629351754
 21
6.4827704806
  0
LINE
  5
238
100
AcDbEntity
  8
0
100
AcDbLine
 62
7
  6
CONTINUOUS
 10
14.7029698948
 20
6.4972307776
 11
15.2829004561
 21
6.4972307776
  0
LINE
  5
239
100
AcDbEntity
  8
0
100
AcDbLine
 62
7
  6
CONTINUOUS
 10
14.7149351754
 20
6.5272307776
 11
15.2709351754
 21
6.5272307776
  0
LINE
  5
23A
100
AcDbEntity
  8
0
100
AcDbLine
 62
7
  6
CONTINUOUS
 10
14.7789351754
 20
6.6342307776
 11
15.2069351754
 21
6.6342307776
  0
LINE
  5
23B
100
AcDbEntity
  8
0
100
AcDbLine
 62
9
  6
CONTINUOUS
 10
14.7624900281
 20
6.6798014056
 11
15.2233803227
 21
6.6798014056
  0
LINE
  5
23C
100
AcDbEntity
  8
0
100
AcDbLine
 62
9
  6
CONTINUOUS
 10
14.4229351754
 20
8.5012307776
 11
15.5629351754
 21
8.5012307776
  0
LINE
  5
23D
100
AcDbEntity
  8
0
100
AcDbLine
 62
7
  6
CONTINUOUS
 10
7.3716027413
 20
12.9091721012
 11
7.3754269796
 21
12.904237151
  0
LINE
  5
23E
100
AcDbEntity
  8
0
100
AcDbLine
 62
7
  6
CONTINUOUS
 10
5.9491550727
 20
11.8799839312
 11
5.871651
 21
11.9025009458
  0
LINE
  5
23F
100
AcDbEntity
  8
0
100
AcDbLine
 62
7
  6
CONTINUOUS
 10
5.8158708858
 20
11.918706567
 11
5.7384272484
 21
11.9412060236
  0
LINE
  5
240
100
AcDbEntity
  8
0
100
AcDbLine
 62
7
  6
CONTINUOUS
 10
5.5342363277
 20
12.00052897
 11
5.7072750066
 21
11.9502565865
  0
LINE
  5
241
100
AcDbEntity
  8
0
100
AcDbLine
 62
7
  6
CONTINUOUS
 10
6.0134533461
 20
11.8613035559
 11
6.0909645509
 21
11.8387844692
  0
LINE
  5
242
100
AcDbEntity
  8
0
100
AcDbLine
 62
7
  6
CONTINUOUS
 10
6.1467071036
 20
11.8225897606
 11
6.2242187319
 21
11.8000705509
  0
LINE
  5
243
100
AcDbEntity
  8
0
100
AcDbLine
 62
7
  6
CONTINUOUS
 10
6.2553369785
 20
11.7910298645
 11
6.4283756572
 21
11.7407574811
  0
LINE
  5
244
100
AcDbEntity
  8
0
100
AcDbLine
 62
9
  6
CONTINUOUS
 10
5.5259454137
 20
12.0141651279
 11
5.7215821192
 21
11.9573274108
  0
LINE
  5
245
100
AcDbEntity
  8
0
100
AcDbLine
 62
9
  6
CONTINUOUS
 10
5.730102339
 20
11.9548520581
 11
5.8302117502
 21
11.9257675855
  0
LINE
  5
246
100
AcDbEntity
  8
0
100
AcDbLine
 62
9
  6
CONTINUOUS
 10
5.8633563082
 20
11.9161382013
 11
5.9634657195
 21
11.8870537287
  0
LINE
  5
247
100
AcDbEntity
  8
0
100
AcDbLine
 62
9
  6
CONTINUOUS
 10
6.0051622204
 20
11.8749397753
 11
6.1052716316
 21
11.8458553028
  0
LINE
  5
248
100
AcDbEntity
  8
0
100
AcDbLine
 62
9
  6
CONTINUOUS
 10
6.1384161896
 20
11.8362259185
 11
6.2385256008
 21
11.8071414459
  0
LINE
  5
249
100
AcDbEntity
  8
0
100
AcDbLine
 62
9
  6
CONTINUOUS
 10
6.2470458206
 20
11.8046660933
 11
6.4426825261
 21
11.7478283761
  0
LINE
  5
24A
100
AcDbEntity
  8
0
100
AcDbLine
 62
7
  6
CONTINUOUS
 10
5.2973272408
 20
12.1114377248
 11
6.6878324977
 21
11.7074586033
  0
LINE
  5
24B
100
AcDbEntity
  8
0
100
AcDbLine
 62
9
  6
CONTINUOUS
 10
5.1970918727
 20
12.3831018424
 11
6.9180289315
 21
11.8831234081
  0
LINE
  5
24C
100
AcDbEntity
  8
0
100
AcDbLine
 62
9
  6
CONTINUOUS
 10
5.2298966145
 20
12.4960165041
 11
6.9508336732
 21
11.9960380698
  0
LINE
  5
24D
100
AcDbEntity
  8
0
100
AcDbLine
 62
9
  6
CONTINUOUS
 10
5.3392217096
 20
12.5971418138
 11
6.912713093
 21
12.1400003081
  0
LINE
  5
24E
100
AcDbEntity
  8
0
100
AcDbLine
 62
9
  6
CONTINUOUS
 10
5.3957242676
 20
12.6472614133
 11
6.8918618299
 21
12.2125932701
  0
LINE
  5
24F
100
AcDbEntity
  8
0
100
AcDbLine
 62
7
  6
CONTINUOUS
 10
13.7329351754
 20
0.1832307776
 11
13.7329351754
 21
0.2332307776
  0
LINE
  5
250
100
AcDbEntity
  8
0
100
AcDbLine
 62
7
  6
CONTINUOUS
 10
7.0989283751
 20
12.6575005137
 11
7.2392432606
 21
12.6409506612
  0
LINE
  5
251
100
AcDbEntity
  8
0
100
AcDbLine
 62
7
  6
CONTINUOUS
 10
14.4229351754
 20
6.4827704806
 11
14.4229351754
 21
8.5012307776
  0
LINE
  5
252
100
AcDbEntity
  8
0
100
AcDbLine
 62
9
  6
CONTINUOUS
 10
7.4532723743
 20
13.5532272766
 11
7.4610838379
 21
13.5522367414
  0
LINE
  5
253
100
AcDbEntity
  8
0
100
AcDbLine
 62
9
  6
CONTINUOUS
 10
6.0102052205
 20
14.3895194745
 11
7.3065869546
 21
14.0128857642
  0
LINE
  5
254
100
AcDbEntity
  8
0
100
AcDbLine
 62
9
  6
CONTINUOUS
 10
6.0141213394
 20
14.4043862042
 11
7.3112464581
 21
14.0275365206
  0
LINE
  5
255
100
AcDbEntity
  8
0
100
AcDbLine
 62
9
  6
CONTINUOUS
 10
6.0769082855
 20
14.5078888937
 11
7.3136932006
 21
14.1485696599
  0
LINE
  5
256
100
AcDbEntity
  8
0
100
AcDbLine
 62
9
  6
CONTINUOUS
 10
6.088674856
 20
14.5343242092
 11
7.3179231069
 21
14.1771945787
  0
LINE
  5
257
100
AcDbEntity
  8
0
100
AcDbLine
 62
7
  6
CONTINUOUS
 10
7.3001506454
 20
14.3670604144
 11
6.2054158437
 21
14.6851102753
  0
LINE
  5
258
100
AcDbEntity
  8
0
100
AcDbLine
 62
7
  6
CONTINUOUS
 10
7.400389245
 20
13.7827375849
 11
7.3055919548
 21
13.8121309186
  0
LINE
  5
259
100
AcDbEntity
  8
0
100
AcDbLine
 62
7
  6
CONTINUOUS
 10
15.5629351754
 20
8.5012307776
 11
15.5629351754
 21
6.4827704806
  0
LINE
  5
25A
100
AcDbEntity
  8
0
100
AcDbLine
 62
9
  6
CONTINUOUS
 10
7.4103025762
 20
14.7462058472
 11
6.3155677746
 21
15.0642557081
  0
LINE
  5
25B
100
AcDbEntity
  8
0
100
AcDbLine
 62
7
  6
CONTINUOUS
 10
16.2529351754
 20
0.1832307776
 11
16.2529351754
 21
0.2332307776
  0
ARC
  5
25C
100
AcDbEntity
  8
0
100
AcDbCircle
 62
7
  6
CONTINUOUS
 10
-1.6742600876
 20
-15.1406111556
 40
30.2606371593
100
AcDbArc
 50
72.5815762388
 51
72.7607002595
  0
ARC
  5
25D
100
AcDbEntity
  8
0
100
AcDbCircle
 62
7
  6
CONTINUOUS
 10
4.317823386
 20
13.7534781099
 40
3.0
100
AcDbArc
 50
329.0941886892
 51
338.5456833802
  0
ARC
  5
25E
100
AcDbEntity
  8
0
100
AcDbCircle
 62
7
  6
CONTINUOUS
 10
4.317823386
 20
13.7534781099
 40
3.0
100
AcDbArc
 50
1.0508004963
 51
4.9605159681
  0
ARC
  5
25F
100
AcDbEntity
  8
0
100
AcDbCircle
 62
7
  6
CONTINUOUS
 10
5.0299210203
 20
12.4928921248
 40
0.2
100
AcDbArc
 50
326.7048948479
 51
0.8951051521
  0
ARC
  5
260
100
AcDbEntity
  8
0
100
AcDbCircle
 62
7
  6
CONTINUOUS
 10
5.3475456399
 20
12.2842905883
 40
0.18
100
AcDbArc
 50
146.7048948479
 51
253.8
  0
ARC
  5
261
100
AcDbEntity
  8
0
100
AcDbCircle
 62
7
  6
CONTINUOUS
 10
6.1904179008
 20
14.5761375185
 40
0.11
100
AcDbArc
 50
82.163601789
 51
202.3411775083
  0
ARC
  5
262
100
AcDbEntity
  8
0
100
AcDbCircle
 62
7
  6
CONTINUOUS
 10
5.3298844115
 20
12.4975786938
 40
0.1
100
AcDbArc
 50
84.6423178197
 51
180.8951051521
  0
ARC
  5
263
100
AcDbEntity
  8
0
100
AcDbCircle
 62
7
  6
CONTINUOUS
 10
6.1092226772
 20
14.417490995
 40
0.096
100
AcDbArc
 50
109.6703643042
 51
187.8458430583
  0
ARC
  5
264
100
AcDbEntity
  8
0
100
AcDbCircle
 62
7
  6
CONTINUOUS
 10
5.3440484737
 20
12.6486093467
 40
0.0516933709
100
AcDbArc
 50
264.6423178197
 51
358.5058113108
  0
ARC
  5
265
100
AcDbEntity
  8
0
100
AcDbCircle
 62
7
  6
CONTINUOUS
 10
5.9943085607
 20
14.4016560394
 40
0.02
100
AcDbArc
 50
322.6394840319
 51
7.8458430583
  0
ARC
  5
266
100
AcDbEntity
  8
0
100
AcDbCircle
 62
7
  6
CONTINUOUS
 10
6.0701761206
 20
14.5267217893
 40
0.02
100
AcDbArc
 50
289.6703643042
 51
22.3411775083
  0
ARC
  5
267
100
AcDbEntity
  8
0
100
AcDbCircle
 62
7
  6
CONTINUOUS
 10
6.0942599332
 20
11.8501264591
 40
0.0118110236
100
AcDbArc
 50
253.8
 51
338.8
  0
ARC
  5
268
100
AcDbEntity
  8
0
100
AcDbCircle
 62
7
  6
CONTINUOUS
 10
6.0167483049
 20
11.8726456688
 40
0.0118110236
100
AcDbArc
 50
168.8
 51
253.8
  0
ARC
  5
269
100
AcDbEntity
  8
0
100
AcDbCircle
 62
7
  6
CONTINUOUS
 10
6.2275139024
 20
11.8114126023
 40
0.0118110236
100
AcDbArc
 50
253.8
 51
338.8
  0
ARC
  5
26A
100
AcDbEntity
  8
0
100
AcDbCircle
 62
7
  6
CONTINUOUS
 10
6.1500022741
 20
11.833931812
 40
0.0118110236
100
AcDbArc
 50
168.8
 51
253.8
  0
ARC
  5
26B
100
AcDbEntity
  8
0
100
AcDbCircle
 62
7
  6
CONTINUOUS
 10
6.3361435334
 20
11.779852777
 40
0.0118110236
100
AcDbArc
 50
253.8
 51
338.8
  0
ARC
  5
26C
100
AcDbEntity
  8
0
100
AcDbCircle
 62
7
  6
CONTINUOUS
 10
6.2586319051
 20
11.8023719868
 40
0.0118110236
100
AcDbArc
 50
168.8
 51
253.8
  0
ARC
  5
26D
100
AcDbEntity
  8
0
100
AcDbCircle
 62
7
  6
CONTINUOUS
 10
6.4070464895
 20
11.7592535641
 40
0.0118110236
100
AcDbArc
 50
253.8
 51
338.8
  0
ARC
  5
26E
100
AcDbEntity
  8
0
100
AcDbCircle
 62
7
  6
CONTINUOUS
 10
5.5621558364
 20
12.0047169898
 40
0.0118110236
100
AcDbArc
 50
168.8
 51
253.8
  0
ARC
  5
26F
100
AcDbEntity
  8
0
100
AcDbCircle
 62
7
  6
CONTINUOUS
 10
5.6330587925
 20
11.9841177768
 40
0.0118110236
100
AcDbArc
 50
168.8
 51
253.8
  0
ARC
  5
270
100
AcDbEntity
  8
0
100
AcDbCircle
 62
7
  6
CONTINUOUS
 10
5.7105704208
 20
11.9615985671
 40
0.0118110236
100
AcDbArc
 50
253.8
 51
338.8
  0
ARC
  5
271
100
AcDbEntity
  8
0
100
AcDbCircle
 62
7
  6
CONTINUOUS
 10
5.7416884235
 20
11.9525579516
 40
0.0118110236
100
AcDbArc
 50
168.8
 51
253.8
  0
ARC
  5
272
100
AcDbEntity
  8
0
100
AcDbCircle
 62
7
  6
CONTINUOUS
 10
5.8192000518
 20
11.9300387419
 40
0.0118110236
100
AcDbArc
 50
253.8
 51
338.8
  0
ARC
  5
273
100
AcDbEntity
  8
0
100
AcDbCircle
 62
7
  6
CONTINUOUS
 10
5.8749423927
 20
11.9138440948
 40
0.0118110236
100
AcDbArc
 50
168.8
 51
253.8
  0
ARC
  5
274
100
AcDbEntity
  8
0
100
AcDbCircle
 62
7
  6
CONTINUOUS
 10
5.952454021
 20
11.891324885
 40
0.0118110236
100
AcDbArc
 50
253.8
 51
338.8
  0
ARC
  5
275
100
AcDbEntity
  8
0
100
AcDbCircle
 62
7
  6
CONTINUOUS
 10
5.5375314982
 20
12.0118710214
 40
0.0118110236
100
AcDbArc
 50
168.8000000044
 51
253.8
  0
ARC
  5
276
100
AcDbEntity
  8
0
100
AcDbCircle
 62
7
  6
CONTINUOUS
 10
6.4316708277
 20
11.7520995325
 40
0.0118110236
100
AcDbArc
 50
253.8
 51
338.7999999956
  0
ARC
  5
277
100
AcDbEntity
  8
0
100
AcDbCircle
 62
7
  6
CONTINUOUS
 10
8.7619351754
 20
5.4641214643
 40
6.581
100
AcDbArc
 50
349.7513783058
 51
7.4746791553
  0
ARC
  5
278
100
AcDbEntity
  8
0
100
AcDbCircle
 62
7
  6
CONTINUOUS
 10
8.3947041922
 20
12.569034744
 40
3.0
100
AcDbArc
 50
142.6394840319
 51
178.5058113108
  0
ARC
  5
279
100
AcDbEntity
  8
0
100
AcDbCircle
 62
7
  6
CONTINUOUS
 10
7.1180045256
 20
11.8862477874
 40
0.2
100
AcDbArc
 50
146.7048948479
 51
180.8951051521
  0
ARC
  5
27A
100
AcDbEntity
  8
0
100
AcDbCircle
 62
7
  6
CONTINUOUS
 10
6.7380508968
 20
11.8803114667
 40
0.18
100
AcDbArc
 50
253.8
 51
0.8951051521
  0
ARC
  5
27B
100
AcDbEntity
  8
0
100
AcDbCircle
 62
7
  6
CONTINUOUS
 10
7.2544233045
 20
14.267015373
 40
0.11
100
AcDbArc
 50
305.2588224917
 51
65.436398211
  0
ARC
  5
27C
100
AcDbEntity
  8
0
100
AcDbCircle
 62
7
  6
CONTINUOUS
 10
6.867248247
 20
12.050933211
 40
0.1
100
AcDbArc
 50
326.7048948479
 51
62.9576821803
  0
ARC
  5
27D
100
AcDbEntity
  8
0
100
AcDbCircle
 62
7
  6
CONTINUOUS
 10
7.3712411577
 20
13.6887274345
 40
0.0984251969
100
AcDbArc
 50
352.7731595949
 51
72.7738166472
  0
ARC
  5
27E
100
AcDbEntity
  8
0
100
AcDbCircle
 62
7
  6
CONTINUOUS
 10
7.2507723923
 20
12.7386982877
 40
0.0984251969
100
AcDbArc
 50
263.2731595888
 51
352.7731595949
  0
ARC
  5
27F
100
AcDbEntity
  8
0
100
AcDbCircle
 62
7
  6
CONTINUOUS
 10
7.237971641
 20
14.0895591066
 40
0.096
100
AcDbArc
 50
319.7541569417
 51
37.9296356958
  0
ARC
  5
280
100
AcDbEntity
  8
0
100
AcDbCircle
 62
7
  6
CONTINUOUS
 10
6.9362154045
 20
12.1860420929
 40
0.0516933709
100
AcDbArc
 50
149.0941886892
 51
242.9576821803
  0
ARC
  5
281
100
AcDbEntity
  8
0
100
AcDbCircle
 62
7
  6
CONTINUOUS
 10
7.4054598786
 20
13.4891357168
 40
0.0472440945
100
AcDbArc
 50
319.215849833
 51
26.3304693568
  0
ARC
  5
282
100
AcDbEntity
  8
0
100
AcDbCircle
 62
7
  6
CONTINUOUS
 10
7.4142150562
 20
13.558179953
 40
0.0472440945
100
AcDbArc
 50
319.215849833
 51
26.3304693569
  0
ARC
  5
283
100
AcDbEntity
  8
0
100
AcDbCircle
 62
7
  6
CONTINUOUS
 10
7.4229702338
 20
13.6272241892
 40
0.0472440945
100
AcDbArc
 50
319.215849833
 51
26.3304693569
  0
ARC
  5
284
100
AcDbEntity
  8
0
100
AcDbCircle
 62
7
  6
CONTINUOUS
 10
7.4265967471
 20
13.6558232482
 40
0.0472440945
100
AcDbArc
 50
334.9815567029
 51
26.3326021211
  0
ARC
  5
285
100
AcDbEntity
  8
0
100
AcDbCircle
 62
7
  6
CONTINUOUS
 10
7.4018333653
 20
13.4605366577
 40
0.0472440945
100
AcDbArc
 50
319.215849833
 51
10.5647624871
  0
ARC
  5
286
100
AcDbEntity
  8
0
100
AcDbCircle
 62
7
  6
CONTINUOUS
 10
7.3265120451
 20
14.0146151485
 40
0.02
100
AcDbArc
 50
139.7541569417
 51
184.9605159681
  0
ARC
  5
287
100
AcDbEntity
  8
0
100
AcDbCircle
 62
7
  6
CONTINUOUS
 10
7.3294685255
 20
14.1608635252
 40
0.02
100
AcDbArc
 50
125.2588224917
 51
217.9296356958
  0
ARC
  5
288
100
AcDbEntity
  8
0
100
AcDbCircle
 62
7
  6
CONTINUOUS
 10
7.3660910345
 20
12.897002484
 40
0.0118110236
100
AcDbArc
 50
352.7730396967
 51
37.7730368898
  0
ARC
  5
289
100
AcDbEntity
  8
0
100
AcDbCircle
 62
7
  6
CONTINUOUS
 10
7.3544449554
 20
12.8051602994
 40
0.0118110236
100
AcDbArc
 50
307.7732823001
 51
352.7732794932
  0
ARC
  5
28A
100
AcDbEntity
  8
0
100
AcDbCircle
 62
7
  6
CONTINUOUS
 10
15.9172330617
 20
0.363829789
 40
0.3
100
AcDbArc
 50
350.2898862779
 51
59.8450405982
  0
ARC
  5
28B
100
AcDbEntity
  8
0
100
AcDbCircle
 62
7
  6
CONTINUOUS
 10
14.0686372891
 20
0.363829789
 40
0.3
100
AcDbArc
 50
120.1549594018
 51
189.7101137221
  0
ARC
  5
28C
100
AcDbEntity
  8
0
100
AcDbCircle
 62
7
  6
CONTINUOUS
 10
15.9233305875
 20
0.6630994768
 40
0.15
100
AcDbArc
 50
344.5860211029
 51
60.174249001
  0
ARC
  5
28D
100
AcDbEntity
  8
0
100
AcDbCircle
 62
7
  6
CONTINUOUS
 10
14.0625397633
 20
0.6630994768
 40
0.15
100
AcDbArc
 50
119.825750999
 51
195.4139788971
  0
ARC
  5
28E
100
AcDbEntity
  8
0
100
AcDbCircle
 62
7
  6
CONTINUOUS
 10
16.1529351754
 20
0.2332307776
 40
0.1
100
AcDbArc
 50
0.0
 51
53.1301023542
  0
ARC
  5
28F
100
AcDbEntity
  8
0
100
AcDbCircle
 62
7
  6
CONTINUOUS
 10
13.8329351754
 20
0.2332307776
 40
0.1
100
AcDbArc
 50
126.8698976458
 51
180.0
  0
ARC
  5
290
100
AcDbEntity
  8
0
100
AcDbCircle
 62
7
  6
CONTINUOUS
 10
14.7530668456
 20
4.2433624478
 40
0.0501316702
100
AcDbArc
 50
95.875307145
 51
268.7115731173
  0
ARC
  5
291
100
AcDbEntity
  8
0
100
AcDbCircle
 62
7
  6
CONTINUOUS
 10
13.8810626148
 20
6.2857285218
 40
0.53
100
AcDbArc
 50
317.0070664923
 51
356.8630248353
  0
ARC
  5
292
100
AcDbEntity
  8
0
100
AcDbCircle
 62
7
  6
CONTINUOUS
 10
14.283766123
 20
5.7782662099
 40
0.13
100
AcDbArc
 50
114.2837608093
 51
220.8528595868
  0
ARC
  5
293
100
AcDbEntity
  8
0
100
AcDbCircle
 62
7
  6
CONTINUOUS
 10
14.6589383028
 20
6.6333644211
 40
0.12
100
AcDbArc
 50
297.8164509415
 51
0.4136583971
  0
ARC
  5
294
100
AcDbEntity
  8
0
100
AcDbCircle
 62
7
  6
CONTINUOUS
 10
14.2904482558
 20
6.2632920116
 40
0.12
100
AcDbArc
 50
356.8630248353
 51
44.58862446
  0
ARC
  5
295
100
AcDbEntity
  8
0
100
AcDbCircle
 62
7
  6
CONTINUOUS
 10
14.1809521167
 20
6.0061461785
 40
0.12
100
AcDbArc
 50
294.2837608093
 51
317.0070664923
  0
ARC
  5
296
100
AcDbEntity
  8
0
100
AcDbCircle
 62
7
  6
CONTINUOUS
 10
14.4327481511
 20
6.403563053
 40
0.0798129757
100
AcDbArc
 50
97.0623647795
 51
224.58862446
  0
ARC
  5
297
100
AcDbEntity
  8
0
100
AcDbCircle
 62
7
  6
CONTINUOUS
 10
14.7295692927
 20
6.6421686381
 40
0.05
100
AcDbArc
 50
350.8652324056
 51
48.8209189089
  0
ARC
  5
298
100
AcDbEntity
  8
0
100
AcDbCircle
 62
7
  6
CONTINUOUS
 10
14.7099351754
 20
6.4477183058
 40
0.05
100
AcDbArc
 50
98.0076670739
 51
251.7594132337
  0
ARC
  5
299
100
AcDbEntity
  8
0
100
AcDbCircle
 62
7
  6
CONTINUOUS
 10
14.7264351754
 20
6.3619377952
 40
0.05
100
AcDbArc
 50
130.0164690554
 51
236.5264314824
  0
ARC
  5
29A
100
AcDbEntity
  8
0
100
AcDbCircle
 62
7
  6
CONTINUOUS
 10
14.7324361659
 20
6.5028645032
 40
0.03
100
AcDbArc
 50
125.687663807
 51
190.8238887963
  0
ARC
  5
29B
100
AcDbEntity
  8
0
100
AcDbCircle
 62
7
  6
CONTINUOUS
 10
14.9929351754
 20
3.7932307776
 40
0.9806680518
100
AcDbArc
 50
108.3099486385
 51
71.6900513615
  0
ARC
  5
29C
100
AcDbEntity
  8
0
100
AcDbCircle
 62
7
  6
CONTINUOUS
 10
14.9929351754
 20
3.7932307776
 40
0.92
100
AcDbArc
 50
358.7901068572
 51
70.9509619802
  0
ARC
  5
29D
100
AcDbEntity
  8
0
100
AcDbCircle
 62
7
  6
CONTINUOUS
 10
14.9929351754
 20
3.7932307776
 40
0.92
100
AcDbArc
 50
109.0490380198
 51
181.2098933942
  0
ARC
  5
29E
100
AcDbEntity
  8
0
100
AcDbCircle
 62
7
  6
CONTINUOUS
 10
14.9929351754
 20
3.7932307776
 40
0.92
100
AcDbArc
 50
181.3295932177
 51
358.670406629
  0
ARC
  5
29F
100
AcDbEntity
  8
0
100
AcDbCircle
 62
7
  6
CONTINUOUS
 10
14.9929351754
 20
3.7932307776
 40
0.6261928123
100
AcDbArc
 50
114.1998462927
 51
65.8001537073
  0
ARC
  5
2A0
100
AcDbEntity
  8
0
100
AcDbCircle
 62
9
  6
CONTINUOUS
 10
14.9929351754
 20
3.7932307776
 40
0.5309975371
100
AcDbArc
 50
123.0859547849
 51
56.9140452151
  0
ARC
  5
2A1
100
AcDbEntity
  8
0
100
AcDbCircle
 62
7
  6
CONTINUOUS
 10
14.9929351754
 20
3.7932307776
 40
0.467
100
AcDbArc
 50
121.0676944211
 51
58.9323055789
  0
CIRCLE
  5
2A2
100
AcDbEntity
  8
0
100
AcDbCircle
 62
7
  6
CONTINUOUS
 10
14.9929351754
 20
3.7932307776
 40
0.2913142633
  0
CIRCLE
  5
2A3
100
AcDbEntity
  8
0
100
AcDbCircle
 62
7
  6
CONTINUOUS
 10
14.9929351754
 20
3.7932307776
 40
0.28
  0
CIRCLE
  5
2A4
100
AcDbEntity
  8
0
100
AcDbCircle
 62
9
  6
CONTINUOUS
 10
14.9929351754
 20
3.7932307776
 40
0.2202500943
  0
CIRCLE
  5
2A5
100
AcDbEntity
  8
0
100
AcDbCircle
 62
9
  6
CONTINUOUS
 10
14.9929351754
 20
3.7932307776
 40
0.2036583095
  0
ARC
  5
2A6
100
AcDbEntity
  8
0
100
AcDbCircle
 62
7
  6
CONTINUOUS
 10
15.2328035052
 20
4.2433624478
 40
0.0501316702
100
AcDbArc
 50
271.2884268827
 51
84.124692855
  0
ARC
  5
2A7
100
AcDbEntity
  8
0
100
AcDbCircle
 62
7
  6
CONTINUOUS
 10
16.104807736
 20
6.2857285218
 40
0.53
100
AcDbArc
 50
183.1369751647
 51
222.9929335077
  0
ARC
  5
2A8
100
AcDbEntity
  8
0
100
AcDbCircle
 62
7
  6
CONTINUOUS
 10
14.9929351754
 20
6.9432307776
 40
0.35
100
AcDbArc
 50
311.1790810911
 51
228.8209189089
  0
ARC
  5
2A9
100
AcDbEntity
  8
0
100
AcDbCircle
 62
7
  6
CONTINUOUS
 10
15.7021042278
 20
5.7782662099
 40
0.13
100
AcDbArc
 50
319.1471404132
 51
65.7162391907
  0
ARC
  5
2AA
100
AcDbEntity
  8
0
100
AcDbCircle
 62
7
  6
CONTINUOUS
 10
15.326932048
 20
6.6333644211
 40
0.12
100
AcDbArc
 50
179.5863416029
 51
242.1835490585
  0
ARC
  5
2AB
100
AcDbEntity
  8
0
100
AcDbCircle
 62
7
  6
CONTINUOUS
 10
15.695422095
 20
6.2632920116
 40
0.12
100
AcDbArc
 50
135.41137554
 51
183.1369751647
  0
ARC
  5
2AC
100
AcDbEntity
  8
0
100
AcDbCircle
 62
7
  6
CONTINUOUS
 10
15.8049182341
 20
6.0061461785
 40
0.12
100
AcDbArc
 50
222.9929335077
 51
245.7162391907
  0
ARC
  5
2AD
100
AcDbEntity
  8
0
100
AcDbCircle
 62
7
  6
CONTINUOUS
 10
15.5531221997
 20
6.403563053
 40
0.0798129757
100
AcDbArc
 50
315.41137554
 51
82.9376352205
  0
ARC
  5
2AE
100
AcDbEntity
  8
0
100
AcDbCircle
 62
7
  6
CONTINUOUS
 10
15.2563010581
 20
6.6421686381
 40
0.05
100
AcDbArc
 50
131.1790810911
 51
189.1347675944
  0
ARC
  5
2AF
100
AcDbEntity
  8
0
100
AcDbCircle
 62
7
  6
CONTINUOUS
 10
15.2759351754
 20
6.4477183058
 40
0.05
100
AcDbArc
 50
288.2405867663
 51
81.9923329261
  0
ARC
  5
2B0
100
AcDbEntity
  8
0
100
AcDbCircle
 62
7
  6
CONTINUOUS
 10
15.2594351754
 20
6.3619377952
 40
0.05
100
AcDbArc
 50
303.4735685176
 51
49.9835309446
  0
ARC
  5
2B1
100
AcDbEntity
  8
0
100
AcDbCircle
 62
7
  6
CONTINUOUS
 10
15.2534341849
 20
6.5028645032
 40
0.03
100
AcDbArc
 50
349.1761112037
 51
54.312336193
  0
ARC
  5
2B2
100
AcDbEntity
  8
0
100
AcDbCircle
 62
7
  6
CONTINUOUS
 10
21.2239351754
 20
5.4641214643
 40
6.581
100
AcDbArc
 50
172.5253208447
 51
190.2486216942
  0
SPLINE
  5
2B3
100
AcDbEntity
  8
0
100
AcDbSpline
 62
7
  6
CONTINUOUS
 70
0
 71
3
 72
10
 73
6
 74
0
 42
0.0000001
 43
0.0000001
 44
0.0000000001
 40
0.0
 40
0.0
 40
0.0
 40
0.0
 40
0.2402689252
 40
0.4888461614
 40
1.0
 40
1.0
 40
1.0
 40
1.0
 10
15.9123516675
 20
3.7738127695
 30
0.0
 10
15.9124895932
 20
3.7770679838
 30
0.0
 10
15.9127093132
 20
3.7836937045
 30
0.0
 10
15.9129305376
 20
3.7972526575
 30
0.0
 10
15.9128497412
 20
3.80755685
 30
0.0
 10
15.9126895976
 20
3.8144864338
 30
0.0
  0
SPLINE
  5
2B4
100
AcDbEntity
  8
0
100
AcDbSpline
 62
7
  6
CONTINUOUS
 70
0
 71
3
 72
35
 73
31
 74
0
 42
0.0000001
 43
0.0000001
 44
0.0000000001
 40
0.0
 40
0.0
 40
0.0
 40
0.0
 40
0.0652183472
 40
0.1303329281
 40
0.1952470276
 40
0.2598684061
 40
0.2920520848
 40
0.3241335071
 40
0.3561048054
 40
0.3879590409
 40
0.41969044
 40
0.4512942977
 40
0.4827670451
 40
0.5141063675
 40
0.5453110887
 40
0.5763813018
 40
0.6073183173
 40
0.6381245997
 40
0.6688038903
 40
0.6993610333
 40
0.7298019768
 40
0.7601338052
 40
0.7903645472
 40
0.8205031447
 40
0.8505595214
 40
0.8805443815
 40
0.9104684372
 40
0.9403439413
 40
0.9701855058
 40
1.0
 40
1.0
 40
1.0
 40
1.0
 10
14.9929351754
 20
2.9545430887
 30
0.0
 10
15.0224817134
 20
2.9545430887
 30
0.0
 10
15.0815617405
 20
2.9571843164
 30
0.0
 10
15.1693339124
 20
2.9690328284
 30
0.0
 10
15.2554312693
 20
2.9886409843
 30
0.0
 10
15.325213555
 20
3.0113182596
 30
0.0
 10
15.379400106
 20
3.0331184858
 30
0.0
 10
15.4190777273
 20
3.0512277529
 30
0.0
 10
15.4577492195
 20
3.0710698883
 30
0.0
 10
15.4953270209
 20
3.092595997
 30
0.0
 10
15.5317258272
 20
3.115752106
 30
0.0
 10
15.5668635996
 20
3.1404815671
 30
0.0
 10
15.6006617042
 20
3.1667241837
 30
0.0
 10
15.6330454777
 20
3.1944161968
 30
0.0
 10
15.6639433064
 20
3.2234917073
 30
0.0
 10
15.6932878841
 20
3.2538814435
 30
0.0
 10
15.7210156617
 20
3.2855137845
 30
0.0
 10
15.7470665409
 20
3.318315162
 30
0.0
 10
15.771385201
 20
3.3522091947
 30
0.0
 10
15.7939196587
 20
3.3871181041
 30
0.0
 10
15.8146221759
 20
3.422962129
 30
0.0
 10
15.8334495559
 20
3.4596596704
 30
0.0
 10
15.8503618385
 20
3.4971281207
 30
0.0
 10
15.8653241524
 20
3.5352831208
 30
0.0
 10
15.8783053561
 20
3.5740394634
 30
0.0
 10
15.8892780127
 20
3.6133108227
 30
0.0
 10
15.8982202757
 20
3.653009673
 30
0.0
 10
15.9051132433
 20
3.6930496695
 30
0.0
 10
15.9099419255
 20
3.7333396267
 30
0.0
 10
15.9117798724
 20
3.7603177111
 30
0.0
 10
15.9123516675
 20
3.7738127695
 30
0.0
  0
SPLINE
  5
2B5
100
AcDbEntity
  8
0
100
AcDbSpline
 62
7
  6
CONTINUOUS
 70
0
 71
3
 72
10
 73
6
 74
0
 42
0.0000001
 43
0.0000001
 44
0.0000000001
 40
0.0
 40
0.0
 40
0.0
 40
0.0
 40
0.5111538386
 40
0.7597310749
 40
1.0
 40
1.0
 40
1.0
 40
1.0
 10
14.0731807533
 20
3.8144864338
 30
0.0
 10
14.0730206096
 20
3.80755685
 30
0.0
 10
14.0729398132
 20
3.7972526575
 30
0.0
 10
14.0731610376
 20
3.7836937045
 30
0.0
 10
14.0733807576
 20
3.7770679838
 30
0.0
 10
14.0735186833
 20
3.7738127695
 30
0.0
  0
SPLINE
  5
2B6
100
AcDbEntity
  8
0
100
AcDbSpline
 62
7
  6
CONTINUOUS
 70
0
 71
3
 72
35
 73
31
 74
0
 42
0.0000001
 43
0.0000001
 44
0.0000000001
 40
0.0
 40
0.0
 40
0.0
 40
0.0
 40
0.0298144942
 40
0.0596560587
 40
0.0895315628
 40
0.1194556185
 40
0.1494404786
 40
0.1794968553
 40
0.2096354528
 40
0.2398661948
 40
0.2701980232
 40
0.3006389667
 40
0.3311961097
 40
0.3618754003
 40
0.3926816827
 40
0.4236186982
 40
0.4546889113
 40
0.4858936325
 40
0.5172329549
 40
0.5487057022
 40
0.58030956
 40
0.6120409591
 40
0.6438951946
 40
0.6758664929
 40
0.7079479152
 40
0.7401315939
 40
0.8047529724
 40
0.8696670719
 40
0.9347816528
 40
1.0
 40
1.0
 40
1.0
 40
1.0
 10
14.0735186833
 20
3.7738127695
 30
0.0
 10
14.0740904784
 20
3.7603177111
 30
0.0
 10
14.0759284253
 20
3.7333396267
 30
0.0
 10
14.0807571076
 20
3.6930496695
 30
0.0
 10
14.0876500751
 20
3.653009673
 30
0.0
 10
14.0965923382
 20
3.6133108227
 30
0.0
 10
14.1075649947
 20
3.5740394634
 30
0.0
 10
14.1205461985
 20
3.5352831208
 30
0.0
 10
14.1355085124
 20
3.4971281207
 30
0.0
 10
14.1524207949
 20
3.4596596704
 30
0.0
 10
14.1712481749
 20
3.422962129
 30
0.0
 10
14.1919506921
 20
3.3871181041
 30
0.0
 10
14.2144851498
 20
3.3522091947
 30
0.0
 10
14.2388038099
 20
3.318315162
 30
0.0
 10
14.2648546891
 20
3.2855137845
 30
0.0
 10
14.2925824668
 20
3.2538814435
 30
0.0
 10
14.3219270444
 20
3.2234917073
 30
0.0
 10
14.3528248732
 20
3.1944161968
 30
0.0
 10
14.3852086466
 20
3.1667241837
 30
0.0
 10
14.4190067512
 20
3.1404815671
 30
0.0
 10
14.4541445236
 20
3.115752106
 30
0.0
 10
14.49054333
 20
3.092595997
 30
0.0
 10
14.5281211313
 20
3.0710698883
 30
0.0
 10
14.5667926235
 20
3.0512277529
 30
0.0
 10
14.6064702448
 20
3.0331184858
 30
0.0
 10
14.6606567958
 20
3.0113182596
 30
0.0
 10
14.7304390815
 20
2.9886409843
 30
0.0
 10
14.8165364384
 20
2.9690328284
 30
0.0
 10
14.9043086103
 20
2.9571843164
 30
0.0
 10
14.9633886374
 20
2.9545430887
 30
0.0
 10
14.9929351754
 20
2.9545430887
 30
0.0
  0
SPLINE
  5
2B7
100
AcDbEntity
  8
0
100
AcDbSpline
 62
7
  6
CONTINUOUS
 70
0
 71
3
 72
139
 73
135
 74
0
 42
0.0000001
 43
0.0000001
 44
0.0000000001
 40
0.0
 40
0.0
 40
0.0
 40
0.0
 40
0.015624745
 40
0.0312495398
 40
0.046874282
 40
0.0624990242
 40
0.0781237593
 40
0.0937484844
 40
0.1093732066
 40
0.1171855778
 40
0.1249979453
 40
0.1328103044
 40
0.1406226621
 40
0.1484350298
 40
0.1562473996
 40
0.164059765
 40
0.1718721597
 40
0.1796845981
 40
0.1874970298
 40
0.1953094939
 40
0.203122063
 40
0.2187470303
 40
0.234372072
 40
0.2421846753
 40
0.2499973514
 40
0.2578100101
 40
0.26562267
 40
0.281247577
 40
0.2968724187
 40
0.3124971911
 40
0.3281219014
 40
0.3359345828
 40
0.3437472633
 40
0.3515599436
 40
0.3593726238
 40
0.3749972313
 40
0.3906217954
 40
0.3984344815
 40
0.4062471535
 40
0.4140598328
 40
0.4218725114
 40
0.4296851836
 40
0.4374978522
 40
0.4453105186
 40
0.453123196
 40
0.4570295941
 40
0.4609360022
 40
0.4687486564
 40
0.4765613139
 40
0.4804677247
 40
0.4843741338
 40
0.4921867858
 40
0.499999439
 40
0.5156233488
 40
0.5312472294
 40
0.5390598762
 40
0.5468725244
 40
0.5546851644
 40
0.5624978051
 40
0.5703104519
 40
0.5742168651
 40
0.5781232799
 40
0.5859359135
 40
0.5937485499
 40
0.5976549655
 40
0.6015613803
 40
0.6093740162
 40
0.6171866492
 40
0.6249992852
 40
0.6406230323
 40
0.6484356735
 40
0.6562483213
 40
0.6640609685
 40
0.6718736202
 40
0.679686272
 40
0.6874989215
 40
0.6953115659
 40
0.7031242043
 40
0.710936841
 40
0.7187494754
 40
0.7265620983
 40
0.7343747167
 40
0.7499980466
 40
0.7578106424
 40
0.7656232313
 40
0.7734358156
 40
0.7812483898
 40
0.7851548173
 40
0.7890612464
 40
0.7968738136
 40
0.8046863753
 40
0.8124989348
 40
0.8203114945
 40
0.8281240466
 40
0.8359365985
 40
0.8437491399
 40
0.8515616748
 40
0.8593742014
 40
0.8671867141
 40
0.8749992158
 40
0.8828117012
 40
0.8906241692
 40
0.8984366254
 40
0.9023430702
 40
0.9062495017
 40
0.9101559452
 40
0.9140623825
 40
0.9218748403
 40
0.9296873567
 40
0.9374998991
 40
0.9414063011
 40
0.9453126301
 40
0.949218932
 40
0.9531251966
 40
0.9570314398
 40
0.9609376597
 40
0.9648438687
 40
0.9687500633
 40
0.9707031627
 40
0.9726562579
 40
0.9746093516
 40
0.976562445
 40
0.9785155341
 40
0.9804686233
 40
0.9814451714
 40
0.982421723
 40
0.9843748211
 40
0.9863279196
 40
0.9882810428
 40
0.9902341606
 40
0.9921872932
 40
0.9941404535
 40
0.996093717
 40
1.0
 40
1.0
 40
1.0
 40
1.0
 10
15.5629351754
 20
8.5012307776
 30
0.0
 10
15.5629351754
 20
8.5909768252
 30
0.0
 10
15.5619925894
 20
8.7704705174
 30
0.0
 10
15.5578539143
 20
9.0396812938
 30
0.0
 10
15.5510992661
 20
9.3088390715
 30
0.0
 10
15.5418438762
 20
9.5779216632
 30
0.0
 10
15.5302124043
 20
9.8469115908
 30
0.0
 10
15.5163335224
 20
10.115794371
 30
0.0
 10
15.5030125682
 20
10.3397657409
 30
0.0
 10
15.4913810845
 20
10.5188806933
 30
0.0
 10
15.4821864629
 20
10.6531855698
 30
0.0
 10
15.4725352053
 20
10.7874582829
 30
0.0
 10
15.4624540971
 20
10.9216993796
 30
0.0
 10
15.451982519
 20
11.0559105915
 30
0.0
 10
15.441153723
 20
11.190093523
 30
0.0
 10
15.4298869202
 20
11.3242406416
 30
0.0
 10
15.4181069028
 20
11.4583441527
 30
0.0
 10
15.4057282097
 20
11.5923942758
 30
0.0
 10
15.3926325649
 20
11.7263768435
 30
0.0
 10
15.3787061818
 20
11.8602767166
 30
0.0
 10
15.3588775597
 20
12.0386743999
 30
0.0
 10
15.3314547693
 20
12.2613729455
 30
0.0
 10
15.2997871974
 20
12.4835143552
 30
0.0
 10
15.2714754722
 20
12.6607680466
 30
0.0
 10
15.2486451884
 20
12.7934453796
 30
0.0
 10
15.2241202954
 20
12.9258209677
 30
0.0
 10
15.1890307712
 20
13.101858608
 30
0.0
 10
15.1404519825
 20
13.3209417216
 30
0.0
 10
15.0739339438
 20
13.5818841806
 30
0.0
 10
14.9986394559
 20
13.8404354802
 30
0.0
 10
14.9282252994
 20
14.0535247526
 30
0.0
 10
14.8671508101
 20
14.2223196623
 30
0.0
 10
14.8189532125
 20
14.3480295571
 30
0.0
 10
14.7683539272
 20
14.4727923631
 30
0.0
 10
14.697687653
 20
14.6378015354
 30
0.0
 10
14.6033553073
 20
14.8414396212
 30
0.0
 10
14.5010029851
 20
15.041172004
 30
0.0
 10
14.4142643008
 20
15.1983299306
 30
0.0
 10
14.3467546789
 20
15.3148158755
 30
0.0
 10
14.2767717038
 20
15.4298327251
 30
0.0
 10
14.2042955496
 20
15.5432957665
 30
0.0
 10
14.129303113
 20
15.6551121886
 30
0.0
 10
14.0517632588
 20
15.765178222
 30
0.0
 10
13.9716576039
 20
15.8733913444
 30
0.0
 10
13.9027517022
 20
15.9619389991
 30
0.0
 10
13.8463196784
 20
16.0317309313
 30
0.0
 10
13.7890094987
 20
16.1008034195
 30
0.0
 10
13.7157221015
 20
16.1857614946
 30
0.0
 10
13.6402375511
 20
16.2687743214
 30
0.0
 10
13.5785496819
 20
16.3339673862
 30
0.0
 10
13.5160001913
 20
16.3983339773
 30
0.0
 10
13.4362133336
 20
16.477222306
 30
0.0
 10
13.3052547073
 20
16.5999937814
 30
0.0
 10
13.1354984179
 20
16.7468602598
 30
0.0
 10
12.9581190776
 20
16.8844269775
 30
0.0
 10
12.8119164694
 20
16.9885818797
 30
0.0
 10
12.7001645771
 20
17.0636804677
 30
0.0
 10
12.5863871692
 20
17.1356725466
 30
0.0
 10
12.470653037
 20
17.2044748156
 30
0.0
 10
12.3726388408
 20
17.2590894605
 30
0.0
 10
12.29332385
 20
17.301097934
 30
0.0
 10
12.2134157725
 20
17.3419669194
 30
0.0
 10
12.1124411207
 20
17.3908926149
 30
0.0
 10
12.0100915514
 20
17.4368734407
 30
0.0
 10
11.9274363827
 20
17.4718552063
 30
0.0
 10
11.8442782701
 20
17.5056239221
 30
0.0
 10
11.7394213148
 20
17.5455576124
 30
0.0
 10
11.6122627748
 20
17.5898227745
 30
0.0
 10
11.4411159182
 20
17.6439691643
 30
0.0
 10
11.2677344506
 20
17.6908292701
 30
0.0
 10
11.0926446883
 20
17.7304027516
 30
0.0
 10
10.9605492191
 20
17.756464186
 30
0.0
 10
10.8277959233
 20
17.778924296
 30
0.0
 10
10.6944872223
 20
17.7978115275
 30
0.0
 10
10.560721025
 20
17.8131251886
 30
0.0
 10
10.426591583
 20
17.8248422658
 30
0.0
 10
10.2921915922
 20
17.8328912021
 30
0.0
 10
10.1576194868
 20
17.8372053728
 30
0.0
 10
10.0229784883
 20
17.8377163867
 30
0.0
 10
9.8883784481
 20
17.8343531271
 30
0.0
 10
9.7539323913
 20
17.827041824
 30
0.0
 10
9.5750628345
 20
17.8119360386
 30
0.0
 10
9.3969523572
 20
17.7886511916
 30
0.0
 10
9.2202688535
 20
17.7569188816
 30
0.0
 10
9.0885843984
 20
17.7288217109
 30
0.0
 10
8.9579072014
 20
17.6963675293
 30
0.0
 10
8.8499834514
 20
17.6656498012
 30
0.0
 10
8.7643198371
 20
17.6388636567
 30
0.0
 10
8.67913197
 20
17.6106011004
 30
0.0
 10
8.5735842983
 20
17.5725100991
 30
0.0
 10
8.4485993836
 20
17.5224185334
 30
0.0
 10
8.3254468756
 20
17.4679746617
 30
0.0
 10
8.2042874395
 20
17.409228932
 30
0.0
 10
8.0852842378
 20
17.3462288162
 30
0.0
 10
7.9686029123
 20
17.2790252878
 30
0.0
 10
7.8544137307
 20
17.2076680522
 30
0.0
 10
7.7429093266
 20
17.1321827976
 30
0.0
 10
7.6342855985
 20
17.0526065477
 30
0.0
 10
7.5287506267
 20
16.968975547
 30
0.0
 10
7.426517693
 20
16.8813373511
 30
0.0
 10
7.3278099751
 20
16.7897445894
 30
0.0
 10
7.232865117
 20
16.6942566734
 30
0.0
 10
7.1570751394
 20
16.6114962363
 30
0.0
 10
7.0985703276
 20
16.5434290448
 30
0.0
 10
7.0557886997
 20
16.4914519475
 30
0.0
 10
7.0141409417
 20
16.4385620255
 30
0.0
 10
6.9601423341
 20
16.3668669892
 30
0.0
 10
6.8955460036
 20
16.2751019959
 30
0.0
 10
6.8224607519
 20
16.1620104008
 30
0.0
 10
6.7650119971
 20
16.065622327
 30
0.0
 10
6.7209677313
 20
15.9874206012
 30
0.0
 10
6.6888458469
 20
15.9282641058
 30
0.0
 10
6.6575881556
 20
15.868647978
 30
0.0
 10
6.6271445185
 20
15.8086128685
 30
0.0
 10
6.5974626018
 20
15.7481983783
 30
0.0
 10
6.5684886918
 20
15.6874417874
 30
0.0
 10
6.5401650735
 20
15.6263799414
 30
0.0
 10
6.5170535848
 20
15.5752701666
 30
0.0
 10
6.4988323243
 20
15.5342629495
 30
0.0
 10
6.4852939873
 20
15.5034511544
 30
0.0
 10
6.4718731609
 20
15.4725880563
 30
0.0
 10
6.4585585384
 20
15.4416790462
 30
0.0
 10
6.4453379242
 20
15.4107297468
 30
0.0
 10
6.4344013742
 20
15.3849043582
 30
0.0
 10
6.4257032258
 20
15.3642224724
 30
0.0
 10
6.4170388431
 20
15.3435263682
 30
0.0
 10
6.4062911557
 20
15.3176215834
 30
0.0
 10
6.3936034855
 20
15.286449388
 30
0.0
 10
6.3811971485
 20
15.2551638375
 30
0.0
 10
6.3691229084
 20
15.2237481943
 30
0.0
 10
6.3574346734
 20
15.1921865117
 30
0.0
 10
6.3461793116
 20
15.1604665219
 30
0.0
 10
6.3318164756
 20
15.1179511051
 30
0.0
 10
6.3218275168
 20
15.0858018822
 30
0.0
 10
6.3155677746
 20
15.0642557081
 30
0.0
  0
SPLINE
  5
2B8
100
AcDbEntity
  8
0
100
AcDbSpline
 62
7
  6
CONTINUOUS
 70
0
 71
3
 72
143
 73
139
 74
0
 42
0.0000001
 43
0.0000001
 44
0.0000000001
 40
0.0
 40
0.0
 40
0.0
 40
0.0
 40
0.0312491482
 40
0.0468738537
 40
0.0624985294
 40
0.0781232034
 40
0.0937478733
 40
0.1093725267
 40
0.1249971751
 40
0.1406218111
 40
0.1484341287
 40
0.1562464423
 40
0.1640587582
 40
0.171871073
 40
0.1796833805
 40
0.1874956861
 40
0.1914018432
 40
0.1953080043
 40
0.2031203221
 40
0.2109326364
 40
0.2187449757
 40
0.2265573198
 40
0.2343696828
 40
0.2421820761
 40
0.2499944642
 40
0.2656192251
 40
0.2812441039
 40
0.2968690662
 40
0.3124940842
 40
0.3203067192
 40
0.3281194057
 40
0.3359320629
 40
0.3437447347
 40
0.3593695468
 40
0.3749943095
 40
0.3906190249
 40
0.4062437029
 40
0.4140563839
 40
0.4218690627
 40
0.4296817554
 40
0.4374944296
 40
0.4531189771
 40
0.4687434416
 40
0.484367791
 40
0.4921804733
 40
0.4999931412
 40
0.5078058098
 40
0.5156184754
 40
0.5234311211
 40
0.531243775
 40
0.5390564253
 40
0.5468690806
 40
0.5546817385
 40
0.5624943828
 40
0.5703070332
 40
0.5781196853
 40
0.5937433514
 40
0.6015559965
 40
0.6093686307
 40
0.6171812631
 40
0.6249938993
 40
0.6289003242
 40
0.6328067546
 40
0.6367131885
 40
0.6406196174
 40
0.6484322359
 40
0.656244864
 40
0.6640574963
 40
0.6718701283
 40
0.6796827655
 40
0.6874954081
 40
0.6953080503
 40
0.7031206953
 40
0.7109333513
 40
0.7187460013
 40
0.7226524225
 40
0.7265588541
 40
0.7343714862
 40
0.7421841245
 40
0.7499967572
 40
0.7578093719
 40
0.7656219844
 40
0.7734345876
 40
0.7812471729
 40
0.7890597398
 40
0.7968722978
 40
0.8007787525
 40
0.8046851992
 40
0.8085916341
 40
0.8124980868
 40
0.816404532
 40
0.8203109778
 40
0.8281234798
 40
0.8359359806
 40
0.843748477
 40
0.8515609704
 40
0.8593734398
 40
0.8671858968
 40
0.8749983313
 40
0.8828107403
 40
0.8906231088
 40
0.8945295611
 40
0.8984360223
 40
0.9023424777
 40
0.9062489198
 40
0.9101553702
 40
0.914061857
 40
0.916015141
 40
0.9179684028
 40
0.919921648
 40
0.9218749017
 40
0.9238281803
 40
0.9257814716
 40
0.9296879116
 40
0.9335943828
 40
0.9375008207
 40
0.9453133002
 40
0.9531256394
 40
0.9570318631
 40
0.9609380725
 40
0.9648442556
 40
0.9687504273
 40
0.9726565902
 40
0.9765627451
 40
0.9804688963
 40
0.982421973
 40
0.984375047
 40
0.9863281232
 40
0.9873046648
 40
0.9882812068
 40
0.9902342852
 40
0.9921873898
 40
0.99414048
 40
0.9951170388
 40
0.9960936041
 40
0.9970702089
 40
0.9980468835
 40
1.0
 40
1.0
 40
1.0
 40
1.0
 10
14.4229351754
 20
8.5012307776
 30
0.0
 10
14.4229351754
 20
8.6467746247
 30
0.0
 10
14.4209888959
 20
8.8650966228
 30
0.0
 10
14.4147560906
 20
9.1561206188
 30
0.0
 10
14.4083328599
 20
9.3743459305
 30
0.0
 10
14.400231944
 20
9.5925147287
 30
0.0
 10
14.3905264867
 20
9.8106178386
 30
0.0
 10
14.3792945967
 20
10.028647335
 30
0.0
 10
14.3666281023
 20
10.2465978075
 30
0.0
 10
14.3549448983
 20
10.4281540718
 30
0.0
 10
14.3449567191
 20
10.573355502
 30
0.0
 10
14.3371594265
 20
10.6822350915
 30
0.0
 10
14.3290747936
 20
10.7910936797
 30
0.0
 10
14.320723425
 20
10.8999320902
 30
0.0
 10
14.3121141668
 20
11.0087503577
 30
0.0
 10
14.3047095891
 20
11.0994137526
 30
0.0
 10
14.2986409084
 20
11.1719324435
 30
0.0
 10
14.2924730566
 20
11.2444428222
 30
0.0
 10
14.2845551486
 20
11.3350630067
 30
0.0
 10
14.2746491922
 20
11.4437712971
 30
0.0
 10
14.2642671579
 20
11.5524353813
 30
0.0
 10
14.2533423175
 20
11.6610465802
 30
0.0
 10
14.2418090691
 20
11.7695952121
 30
0.0
 10
14.2295992627
 20
11.8780702789
 30
0.0
 10
14.2123178097
 20
12.022587279
 30
0.0
 10
14.1886548577
 20
12.2029833126
 30
0.0
 10
14.1563581291
 20
12.4189149997
 30
0.0
 10
14.1195526753
 20
12.6341290614
 30
0.0
 10
14.0846140014
 20
12.8126999687
 30
0.0
 10
14.0538154321
 20
12.9549575835
 30
0.0
 10
14.0292213768
 20
13.0613180173
 30
0.0
 10
14.0030697998
 20
13.1673069594
 30
0.0
 10
13.966041387
 20
13.308071303
 30
0.0
 10
13.9155589966
 20
13.4828977664
 30
0.0
 10
13.8478705452
 20
13.6905041552
 30
0.0
 10
13.7728111661
 20
13.8955636458
 30
0.0
 10
13.7039758074
 20
14.0640217892
 30
0.0
 10
13.6451267574
 20
14.1971499743
 30
0.0
 10
13.5990952245
 20
14.2961411153
 30
0.0
 10
13.5511721917
 20
14.3942308007
 30
0.0
 10
13.4847351325
 20
14.5237388812
 30
0.0
 10
13.3968626945
 20
14.6831042626
 30
0.0
 10
13.283542014
 20
14.8697777202
 30
0.0
 10
13.1823469522
 20
15.0210498775
 30
0.0
 10
13.0972220685
 20
15.1391213763
 30
0.0
 10
13.0312541286
 20
15.2261118314
 30
0.0
 10
12.9631320979
 20
15.3114262705
 30
0.0
 10
12.8928120931
 20
15.3949395641
 30
0.0
 10
12.8202699074
 20
15.4765310715
 30
0.0
 10
12.7454954523
 20
15.5560823745
 30
0.0
 10
12.6685367824
 20
15.633522721
 30
0.0
 10
12.5894515848
 20
15.7087899465
 30
0.0
 10
12.5083104029
 20
15.7818361743
 30
0.0
 10
12.4251603759
 20
15.852587103
 30
0.0
 10
12.3400511304
 20
15.9209709859
 30
0.0
 10
12.2240510249
 20
16.0088964967
 30
0.0
 10
12.1043295869
 20
16.0918283729
 30
0.0
 10
11.9811709535
 20
16.1694124412
 30
0.0
 10
11.8871168746
 20
16.2248569244
 30
0.0
 10
11.7914476419
 20
16.2774625572
 30
0.0
 10
11.710427124
 20
16.3188625178
 30
0.0
 10
11.6448694261
 20
16.3504681337
 30
0.0
 10
11.5953362389
 20
16.373403089
 30
0.0
 10
11.5454498966
 20
16.395559469
 30
0.0
 10
11.4784806944
 20
16.4240525422
 30
0.0
 10
11.3939390506
 20
16.457684386
 30
0.0
 10
11.2912844513
 20
16.4948625797
 30
0.0
 10
11.1875356853
 20
16.5288686544
 30
0.0
 10
11.0828044608
 20
16.5597145215
 30
0.0
 10
10.9771977605
 20
16.5874137528
 30
0.0
 10
10.8708196024
 20
16.611982706
 30
0.0
 10
10.7637711229
 20
16.6334411805
 30
0.0
 10
10.6561520926
 20
16.6518238758
 30
0.0
 10
10.5480574589
 20
16.6671585088
 30
0.0
 10
10.4576546727
 20
16.6774138399
 30
0.0
 10
10.3851823218
 20
16.6840810385
 30
0.0
 10
10.3126225753
 20
16.6897165444
 30
0.0
 10
10.2217810532
 20
16.6947979038
 30
0.0
 10
10.1126399455
 20
16.6976638319
 30
0.0
 10
10.0034609848
 20
16.6972223904
 30
0.0
 10
9.8943477299
 20
16.693389837
 30
0.0
 10
9.7854115125
 20
16.6860748791
 30
0.0
 10
9.6767741687
 20
16.6751771209
 30
0.0
 10
9.5685683837
 20
16.6605954629
 30
0.0
 10
9.4609392529
 20
16.6422333811
 30
0.0
 10
9.371854177
 20
16.6237070984
 30
0.0
 10
9.3010368352
 20
16.6069212663
 30
0.0
 10
9.2481680764
 20
16.5933348686
 30
0.0
 10
9.1955704411
 20
16.5787341075
 30
0.0
 10
9.1432692662
 20
16.5631043515
 30
0.0
 10
9.0912880851
 20
16.5464400684
 30
0.0
 10
9.0224433731
 20
16.5228328691
 30
0.0
 10
8.9372998255
 20
16.4907281876
 30
0.0
 10
8.8367686473
 20
16.4481152128
 30
0.0
 10
8.7380329678
 20
16.4014907643
 30
0.0
 10
8.6412669373
 20
16.350903926
 30
0.0
 10
8.5466778502
 20
16.2963521482
 30
0.0
 10
8.4544812033
 20
16.2378458778
 30
0.0
 10
8.3649006524
 20
16.1754046793
 30
0.0
 10
8.2781823861
 20
16.1090450303
 30
0.0
 10
8.2085265308
 20
16.0504810013
 30
0.0
 10
8.1545288634
 20
16.0016820394
 30
0.0
 10
8.1149284966
 20
15.9641084968
 30
0.0
 10
8.0762712766
 20
15.9255654276
 30
0.0
 10
8.0386037395
 20
15.8860541116
 30
0.0
 10
8.0019710224
 20
15.8455813703
 30
0.0
 10
7.972339558
 20
15.8110628238
 30
0.0
 10
7.9492001718
 20
15.7829767487
 30
0.0
 10
7.932136119
 20
15.7616758217
 30
0.0
 10
7.91537182
 20
15.740138392
 30
0.0
 10
7.8989105872
 20
15.7183683892
 30
0.0
 10
7.8827459573
 20
15.6963770154
 30
0.0
 10
7.8615824357
 20
15.666773761
 30
0.0
 10
7.8358441382
 20
15.6292635154
 30
0.0
 10
7.8060446193
 20
15.5835269298
 30
0.0
 10
7.7676673197
 20
15.5216867808
 30
0.0
 10
7.7220701491
 20
15.4429449522
 30
0.0
 10
7.679210784
 20
15.3626910358
 30
0.0
 10
7.6463140385
 20
15.2977761886
 30
0.0
 10
7.6222761569
 20
15.2487731376
 30
0.0
 10
7.5988139048
 20
15.1994926095
 30
0.0
 10
7.5758715466
 20
15.1499683512
 30
0.0
 10
7.5533933223
 20
15.1002320845
 30
0.0
 10
7.5313240307
 20
15.0503132996
 30
0.0
 10
7.5132336399
 20
15.0085828106
 30
0.0
 10
7.4989130601
 20
14.9751333467
 30
0.0
 10
7.488240019
 20
14.9500174881
 30
0.0
 10
7.4794046734
 20
14.9290626775
 30
0.0
 10
7.4723719415
 20
14.9122838731
 30
0.0
 10
7.4653692394
 20
14.8954925058
 30
0.0
 10
7.4567000645
 20
14.8744680729
 30
0.0
 10
7.4465107014
 20
14.8491514711
 30
0.0
 10
7.438277945
 20
14.8279514633
 30
0.0
 10
7.431898981
 20
14.810912874
 30
0.0
 10
7.4272378135
 20
14.7980881344
 30
0.0
 10
7.4227185475
 20
14.7852119651
 30
0.0
 10
7.4169082259
 20
14.7679703434
 30
0.0
 10
7.4128404744
 20
14.7549413498
 30
0.0
 10
7.4103025762
 20
14.7462058472
 30
0.0
  0
SPLINE
  5
2B9
100
AcDbEntity
  8
0
100
AcDbSpline
 62
7
  6
CONTINUOUS
 70
0
 71
3
 72
59
 73
55
 74
0
 42
0.0000001
 43
0.0000001
 44
0.0000000001
 40
0.0
 40
0.0
 40
0.0
 40
0.0
 40
0.0157699635
 40
0.0314954748
 40
0.0471849705
 40
0.0628460772
 40
0.0941068059
 40
0.1253259316
 40
0.1565365243
 40
0.1877602015
 40
0.2190078989
 40
0.2502806961
 40
0.28157066
 40
0.3128616751
 40
0.3285011449
 40
0.3441314982
 40
0.3597507052
 40
0.3753625099
 40
0.406576491
 40
0.4377875114
 40
0.4689947249
 40
0.4845949697
 40
0.500192067
 40
0.5157858817
 40
0.5313770428
 40
0.5391721375
 40
0.5469672979
 40
0.5547629378
 40
0.562559394
 40
0.570356762
 40
0.5781551049
 40
0.5937548226
 40
0.6093589774
 40
0.6249677573
 40
0.6405812154
 40
0.6561992737
 40
0.6718217266
 40
0.6874482449
 40
0.695262934
 40
0.7030784427
 40
0.7187105922
 40
0.7343419452
 40
0.7499700347
 40
0.7655929238
 40
0.7812092383
 40
0.8124184237
 40
0.8436001701
 40
0.8747672374
 40
0.9059446826
 40
0.9371708703
 40
0.9528193539
 40
0.9685009503
 40
0.984224551
 40
1.0
 40
1.0
 40
1.0
 40
1.0
 10
13.9929351754
 20
0.7932307776
 30
0.0
 10
14.0028560901
 20
0.8174309161
 30
0.0
 10
14.0219568024
 20
0.8660588198
 30
0.0
 10
14.0484387076
 20
0.9397098465
 30
0.0
 10
14.0727485239
 20
1.0139169894
 30
0.0
 10
14.1023001846
 20
1.1134768427
 30
0.0
 10
14.1340471803
 20
1.2391972561
 30
0.0
 10
14.1641293501
 20
1.3917124607
 30
0.0
 10
14.1865152019
 20
1.5454798253
 30
0.0
 10
14.2015406804
 20
1.7001809507
 30
0.0
 10
14.2095424031
 20
1.8555018298
 30
0.0
 10
14.2108558772
 20
2.0111282762
 30
0.0
 10
14.2058162423
 20
2.1667449562
 30
0.0
 10
14.1965989747
 20
2.2961804248
 30
0.0
 10
14.1863783331
 20
2.39943853
 30
0.0
 10
14.1773315181
 20
2.4766811876
 30
0.0
 10
14.1669462727
 20
2.5537080527
 30
0.0
 10
14.1515712998
 20
2.6561297378
 30
0.0
 10
14.129942922
 20
2.7837458087
 30
0.0
 10
14.101621844
 20
2.9364339946
 30
0.0
 10
14.0772803239
 20
3.0635188496
 30
0.0
 10
14.0581015818
 20
3.1652255671
 30
0.0
 10
14.0440514975
 20
3.2415474388
 30
0.0
 10
14.0305194438
 20
3.3179479207
 30
0.0
 10
14.019828347
 20
3.3817082484
 30
0.0
 10
14.0117202863
 20
3.4327838972
 30
0.0
 10
14.0058842771
 20
3.4711285289
 30
0.0
 10
14.0003181236
 20
3.5095155942
 30
0.0
 10
13.9950377583
 20
3.5479467159
 30
0.0
 10
13.9900386667
 20
3.5864199637
 30
0.0
 10
13.9837464263
 20
3.6377744509
 30
0.0
 10
13.9765767695
 20
3.7020641831
 30
0.0
 10
13.969072765
 20
3.7793428213
 30
0.0
 10
13.9626534391
 20
3.8567419896
 30
0.0
 10
13.9573045872
 20
3.9342455085
 30
0.0
 10
13.9530119579
 20
4.0118373609
 30
0.0
 10
13.9497613769
 20
4.0895013926
 30
0.0
 10
13.9479090143
 20
4.1542646822
 30
0.0
 10
13.9469340958
 20
4.2060956277
 30
0.0
 10
13.9462935497
 20
4.2579411153
 30
0.0
 10
13.9461322694
 20
4.3227562551
 30
0.0
 10
13.947022274
 20
4.4005242966
 30
0.0
 10
13.9490543963
 20
4.4782557898
 30
0.0
 10
13.952287835
 20
4.5559222052
 30
0.0
 10
13.9582778947
 20
4.6593242357
 30
0.0
 10
13.969062311
 20
4.7882799739
 30
0.0
 10
13.9877594655
 20
4.9423556344
 30
0.0
 10
14.0126862034
 20
5.0955018828
 30
0.0
 10
14.0443184391
 20
5.2474852919
 30
0.0
 10
14.0766439602
 20
5.3728931976
 30
0.0
 10
14.1063
 20
5.4723249454
 30
0.0
 10
14.1305295942
 20
5.5465174601
 30
0.0
 10
14.1567882072
 20
5.6202393328
 30
0.0
 10
14.1756515328
 20
5.6689650082
 30
0.0
 10
14.1854351754
 20
5.6932307776
 30
0.0
  0
SPLINE
  5
2BA
100
AcDbEntity
  8
0
100
AcDbSpline
 62
7
  6
CONTINUOUS
 70
0
 71
3
 72
59
 73
55
 74
0
 42
0.0000001
 43
0.0000001
 44
0.0000000001
 40
0.0
 40
0.0
 40
0.0
 40
0.0
 40
0.0157699635
 40
0.0314954748
 40
0.0471849705
 40
0.0628460772
 40
0.0941068059
 40
0.1253259316
 40
0.1565365243
 40
0.1877602015
 40
0.2190078989
 40
0.2502806961
 40
0.28157066
 40
0.3128616751
 40
0.3285011449
 40
0.3441314982
 40
0.3597507052
 40
0.3753625099
 40
0.406576491
 40
0.4377875114
 40
0.4689947249
 40
0.4845949697
 40
0.500192067
 40
0.5157858817
 40
0.5313770428
 40
0.5391721375
 40
0.5469672979
 40
0.5547629378
 40
0.562559394
 40
0.570356762
 40
0.5781551049
 40
0.5937548226
 40
0.6093589774
 40
0.6249677573
 40
0.6405812154
 40
0.6561992737
 40
0.6718217266
 40
0.6874482449
 40
0.695262934
 40
0.7030784427
 40
0.7187105922
 40
0.7343419452
 40
0.7499700347
 40
0.7655929238
 40
0.7812092383
 40
0.8124184237
 40
0.8436001701
 40
0.8747672374
 40
0.9059446826
 40
0.9371708703
 40
0.9528193539
 40
0.9685009503
 40
0.984224551
 40
1.0
 40
1.0
 40
1.0
 40
1.0
 10
15.9929351754
 20
0.7932307776
 30
0.0
 10
15.9830142608
 20
0.8174309161
 30
0.0
 10
15.9639135484
 20
0.8660588198
 30
0.0
 10
15.9374316432
 20
0.9397098465
 30
0.0
 10
15.9131218269
 20
1.0139169894
 30
0.0
 10
15.8835701662
 20
1.1134768427
 30
0.0
 10
15.8518231706
 20
1.2391972561
 30
0.0
 10
15.8217410007
 20
1.3917124607
 30
0.0
 10
15.7993551489
 20
1.5454798253
 30
0.0
 10
15.7843296704
 20
1.7001809507
 30
0.0
 10
15.7763279477
 20
1.8555018298
 30
0.0
 10
15.7750144736
 20
2.0111282762
 30
0.0
 10
15.7800541085
 20
2.1667449562
 30
0.0
 10
15.7892713761
 20
2.2961804248
 30
0.0
 10
15.7994920177
 20
2.39943853
 30
0.0
 10
15.8085388327
 20
2.4766811876
 30
0.0
 10
15.8189240782
 20
2.5537080527
 30
0.0
 10
15.8342990511
 20
2.6561297378
 30
0.0
 10
15.8559274288
 20
2.7837458087
 30
0.0
 10
15.8842485069
 20
2.9364339946
 30
0.0
 10
15.9085900269
 20
3.0635188496
 30
0.0
 10
15.927768769
 20
3.1652255671
 30
0.0
 10
15.9418188533
 20
3.2415474388
 30
0.0
 10
15.955350907
 20
3.3179479207
 30
0.0
 10
15.9660420038
 20
3.3817082484
 30
0.0
 10
15.9741500645
 20
3.4327838972
 30
0.0
 10
15.9799860737
 20
3.4711285289
 30
0.0
 10
15.9855522272
 20
3.5095155942
 30
0.0
 10
15.9908325925
 20
3.5479467159
 30
0.0
 10
15.9958316841
 20
3.5864199637
 30
0.0
 10
16.0021239246
 20
3.6377744509
 30
0.0
 10
16.0092935813
 20
3.7020641831
 30
0.0
 10
16.0167975858
 20
3.7793428213
 30
0.0
 10
16.0232169118
 20
3.8567419896
 30
0.0
 10
16.0285657636
 20
3.9342455085
 30
0.0
 10
16.0328583929
 20
4.0118373609
 30
0.0
 10
16.0361089739
 20
4.0895013926
 30
0.0
 10
16.0379613366
 20
4.1542646822
 30
0.0
 10
16.0389362551
 20
4.2060956277
 30
0.0
 10
16.0395768011
 20
4.2579411153
 30
0.0
 10
16.0397380814
 20
4.3227562551
 30
0.0
 10
16.0388480769
 20
4.4005242966
 30
0.0
 10
16.0368159545
 20
4.4782557898
 30
0.0
 10
16.0335825158
 20
4.5559222052
 30
0.0
 10
16.0275924561
 20
4.6593242357
 30
0.0
 10
16.0168080398
 20
4.7882799739
 30
0.0
 10
15.9981108853
 20
4.9423556344
 30
0.0
 10
15.9731841474
 20
5.0955018828
 30
0.0
 10
15.9415519117
 20
5.2474852919
 30
0.0
 10
15.9092263906
 20
5.3728931976
 30
0.0
 10
15.8795703508
 20
5.4723249454
 30
0.0
 10
15.8553407567
 20
5.5465174601
 30
0.0
 10
15.8290821436
 20
5.6202393328
 30
0.0
 10
15.810218818
 20
5.6689650082
 30
0.0
 10
15.8004351754
 20
5.6932307776
 30
0.0
  0
SPLINE
  5
2BB
100
AcDbEntity
  8
0
100
AcDbSpline
 62
7
  6
CONTINUOUS
 70
0
 71
3
 72
14
 73
10
 74
0
 42
0.0000001
 43
0.0000001
 44
0.0000000001
 40
0.0
 40
0.0
 40
0.0
 40
0.0
 40
0.1246828194
 40
0.2496286716
 40
0.3747544702
 40
0.4999726383
 40
0.6251955501
 40
0.7503371101
 40
1.0
 40
1.0
 40
1.0
 40
1.0
 10
7.2938758044
 20
13.7605791223
 30
0.0
 10
7.2930820462
 20
13.7160466081
 30
0.0
 10
7.2897061531
 20
13.6269094936
 30
0.0
 10
7.2793489487
 20
13.4934068385
 30
0.0
 10
7.2637297963
 20
13.3602222197
 30
0.0
 10
7.2428824154
 20
13.227656834
 30
0.0
 10
7.2168357234
 20
13.0960036279
 30
0.0
 10
7.175254423
 20
12.9222586804
 30
0.0
 10
7.136293754
 20
12.7939605675
 30
0.0
 10
7.1068739858
 20
12.7097673032
 30
0.0
  0
SPLINE
  5
2BC
100
AcDbEntity
  8
0
100
AcDbSpline
 62
7
  6
CONTINUOUS
 70
0
 71
3
 72
26
 73
22
 74
0
 42
0.0000001
 43
0.0000001
 44
0.0000000001
 40
0.0
 40
0.0
 40
0.0
 40
0.0
 40
0.1960276042
 40
0.381984166
 40
0.4691622181
 40
0.5514264026
 40
0.6280488637
 40
0.6983681042
 40
0.7618074261
 40
0.8178924309
 40
0.8662724499
 40
0.8875102384
 40
0.9067682411
 40
0.9240590628
 40
0.9394193582
 40
0.9529201827
 40
0.9646789713
 40
0.974891124
 40
0.983860784
 40
0.9920365972
 40
1.0
 40
1.0
 40
1.0
 40
1.0
 10
7.10687407
 20
12.7097673182
 30
0.0
 10
7.1056997568
 20
12.706406539
 30
0.0
 10
7.1035307059
 20
12.6998152182
 30
0.0
 10
7.1011885762
 20
12.6916201818
 30
0.0
 10
7.0996296469
 20
12.6853563525
 30
0.0
 10
7.0986578186
 20
12.6809940311
 30
0.0
 10
7.0978642646
 20
12.6769071891
 30
0.0
 10
7.0972532848
 20
12.6731349425
 30
0.0
 10
7.0968266655
 20
12.6697127351
 30
0.0
 10
7.0965843025
 20
12.6666720079
 30
0.0
 10
7.0965307548
 20
12.6643878145
 30
0.0
 10
7.0965895184
 20
12.6627743608
 30
0.0
 10
7.0966763134
 20
12.6617280476
 30
0.0
 10
7.0968068856
 20
12.6607938091
 30
0.0
 10
7.0969806062
 20
12.6599729889
 30
0.0
 10
7.0971967389
 20
12.6592663953
 30
0.0
 10
7.0974551945
 20
12.6586743212
 30
0.0
 10
7.0977565391
 20
12.6581967665
 30
0.0
 10
7.0981031485
 20
12.6578347367
 30
0.0
 10
7.0984965622
 20
12.6575931237
 30
0.0
 10
7.0987847673
 20
12.6575175016
 30
0.0
 10
7.0989283943
 20
12.6575005623
 30
0.0
  0
SPLINE
  5
2BD
100
AcDbEntity
  8
0
100
AcDbSpline
 62
7
  6
CONTINUOUS
 70
0
 71
3
 72
26
 73
22
 74
0
 42
0.0000001
 43
0.0000001
 44
0.0000000001
 40
0.0
 40
0.0
 40
0.0
 40
0.0
 40
0.0088348009
 40
0.0176937442
 40
0.0271417758
 40
0.0376540954
 40
0.0495792516
 40
0.0631523101
 40
0.0785234882
 40
0.0957875632
 40
0.1149966038
 40
0.1361770493
 40
0.1844369218
 40
0.2404210649
 40
0.3037803751
 40
0.3740235591
 40
0.4505479338
 40
0.5326650429
 40
0.6196249108
 40
0.8048980353
 40
1.0
 40
1.0
 40
1.0
 40
1.0
 10
7.3055920082
 20
13.8121282127
 30
0.0
 10
7.3054377386
 20
13.8121762427
 30
0.0
 10
7.3051150296
 20
13.8122346879
 30
0.0
 10
7.3046151526
 20
13.8121886481
 30
0.0
 10
7.3041145055
 20
13.8120092139
 30
0.0
 10
7.3036155522
 20
13.8117011029
 30
0.0
 10
7.303117414
 20
13.811266892
 30
0.0
 10
7.3026195663
 20
13.8107073483
 30
0.0
 10
7.3021222194
 20
13.8100227996
 30
0.0
 10
7.3016263864
 20
13.8092137315
 30
0.0
 10
7.3011331739
 20
13.8082811583
 30
0.0
 10
7.3004512291
 20
13.806809658
 30
0.0
 10
7.2996288605
 20
13.8046656622
 30
0.0
 10
7.2987144339
 20
13.8017386075
 30
0.0
 10
7.2978475889
 20
13.7983802208
 30
0.0
 10
7.2970408402
 20
13.7946220845
 30
0.0
 10
7.2963059588
 20
13.7905004297
 30
0.0
 10
7.2956531978
 20
13.7860558429
 30
0.0
 10
7.2948879346
 20
13.7796200401
 30
0.0
 10
7.2942020466
 20
13.7710974924
 30
0.0
 10
7.293942841
 20
13.7641437338
 30
0.0
 10
7.2938796375
 20
13.7605762103
 30
0.0
  0
SPLINE
  5
2BE
100
AcDbEntity
  8
0
100
AcDbSpline
 62
9
  6
CONTINUOUS
 70
0
 71
3
 72
15
 73
11
 74
0
 42
0.0000001
 43
0.0000001
 44
0.0000000001
 40
0.0
 40
0.0
 40
0.0
 40
0.0
 40
0.1252916317
 40
0.2505200341
 40
0.3756623881
 40
0.5007005203
 40
0.6256349391
 40
0.7504796653
 40
0.8752557569
 40
1.0
 40
1.0
 40
1.0
 40
1.0
 10
7.384189574
 20
13.7323979576
 30
0.0
 10
7.3863938445
 20
13.7317128729
 30
0.0
 10
7.3906854471
 20
13.7299364257
 30
0.0
 10
7.396543183
 20
13.7261871436
 30
0.0
 10
7.4016522366
 20
13.7214715916
 30
0.0
 10
7.405853717
 20
13.7159404001
 30
0.0
 10
7.4090335303
 20
13.7097717411
 30
0.0
 10
7.4110999655
 20
13.703151491
 30
0.0
 10
7.4120058343
 20
13.6962819136
 30
0.0
 10
7.4118197698
 20
13.691661767
 30
0.0
 10
7.4115289828
 20
13.6893820438
 30
0.0
  0
SPLINE
  5
2BF
100
AcDbEntity
  8
0
100
AcDbSpline
 62
9
  6
CONTINUOUS
 70
0
 71
3
 72
17
 73
13
 74
0
 42
0.0000001
 43
0.0000001
 44
0.0000000001
 40
0.0
 40
0.0
 40
0.0
 40
0.0
 40
0.1246750026
 40
0.2493920958
 40
0.3118528186
 40
0.3743368552
 40
0.4992437342
 40
0.6242678867
 40
0.6868970448
 40
0.7495519434
 40
0.8747600639
 40
1.0
 40
1.0
 40
1.0
 40
1.0
 10
7.2896205561
 20
12.7279995784
 30
0.0
 10
7.2893003356
 20
12.7254517995
 30
0.0
 10
7.2881603415
 20
12.7204055534
 30
0.0
 10
7.2855608894
 20
12.7144878001
 30
0.0
 10
7.2828368188
 20
12.710118161
 30
0.0
 10
7.2797014106
 20
12.7060288617
 30
0.0
 10
7.2750573007
 20
12.7015130535
 30
0.0
 10
7.2696213644
 20
12.6979830899
 30
0.0
 10
7.2649253539
 20
12.6958380411
 30
0.0
 10
7.2600366118
 20
12.6941662012
 30
0.0
 10
7.2536516362
 20
12.6929928236
 30
0.0
 10
7.2484536326
 20
12.6930803372
 30
0.0
 10
7.2458924544
 20
12.6933868913
 30
0.0
  0
LINE
  5
2C0
100
AcDbEntity
  8
0
100
AcDbLine
 62
7
  6
CONTINUOUS
 10
7.2458900206
 20
12.6933664015
 11
7.10687407
 21
12.7097673182
  0
SPLINE
  5
2C1
100
AcDbEntity
  8
0
100
AcDbSpline
 62
9
  6
CONTINUOUS
 70
0
 71
3
 72
28
 73
24
 74
0
 42
0.0000001
 43
0.0000001
 44
0.0000000001
 40
0.0
 40
0.0
 40
0.0
 40
0.0
 40
0.0652371721
 40
0.1295762755
 40
0.161415548
 40
0.1930385859
 40
0.2244550846
 40
0.2556770971
 40
0.2867203874
 40
0.3176024069
 40
0.3483437729
 40
0.3789663433
 40
0.4094936985
 40
0.4399500628
 40
0.5007373313
 40
0.5615364166
 40
0.6225341605
 40
0.6838985504
 40
0.7457701298
 40
0.8082569685
 40
0.8714345575
 40
0.9353459292
 40
1.0
 40
1.0
 40
1.0
 40
1.0
 10
14.6691782047
 20
4.8855472266
 30
0.0
 10
14.6498785254
 20
4.8796181827
 30
0.0
 10
14.6119140325
 20
4.8665956601
 30
0.0
 10
14.5658435716
 20
4.8471683998
 30
0.0
 10
14.5302760275
 20
4.8298492621
 30
0.0
 10
14.5043592335
 20
4.8160311256
 30
0.0
 10
14.4791402849
 20
4.8013534397
 30
0.0
 10
14.4546462862
 20
4.7858277306
 30
0.0
 10
14.4309002447
 20
4.7694702192
 30
0.0
 10
14.4079239502
 20
4.7522952033
 30
0.0
 10
14.3857347045
 20
4.7343207791
 30
0.0
 10
14.3643487755
 20
4.7155638363
 30
0.0
 10
14.3437774658
 20
4.6960443007
 30
0.0
 10
14.3174668197
 20
4.6690518289
 30
0.0
 10
14.2866045841
 20
4.6334644904
 30
0.0
 10
14.2528978858
 20
4.5880477885
 30
0.0
 10
14.2225120625
 20
4.5401363907
 30
0.0
 10
14.1953965892
 20
4.4899292108
 30
0.0
 10
14.1714700553
 20
4.4376243095
 30
0.0
 10
14.1506289533
 20
4.383418851
 30
0.0
 10
14.1327560695
 20
4.3275047539
 30
0.0
 10
14.1177296197
 20
4.2700713693
 30
0.0
 10
14.109565473
 20
4.231111252
 30
0.0
 10
14.1059042909
 20
4.2114396346
 30
0.0
  0
SPLINE
  5
2C2
100
AcDbEntity
  8
0
100
AcDbSpline
 62
9
  6
CONTINUOUS
 70
0
 71
3
 72
27
 73
23
 74
0
 42
0.0000001
 43
0.0000001
 44
0.0000000001
 40
0.0
 40
0.0
 40
0.0
 40
0.0
 40
0.0625387427
 40
0.1246837712
 40
0.1864734397
 40
0.2479667302
 40
0.3092440148
 40
0.370405906
 40
0.4315715183
 40
0.4928726314
 40
0.5544466991
 40
0.6164273975
 40
0.6789304945
 40
0.7420373958
 40
0.7738371591
 40
0.8057929371
 40
0.8378974379
 40
0.8701372764
 40
0.902492739
 40
0.9349404991
 40
0.9674560505
 40
1.0
 40
1.0
 40
1.0
 40
1.0
 10
14.2392854304
 20
3.1662060576
 30
0.0
 10
14.2479869285
 20
3.1470313415
 30
0.0
 10
14.2661144565
 20
3.1091499313
 30
0.0
 10
14.295648132
 20
3.0537218232
 30
0.0
 10
14.3275283628
 20
3.000013664
 30
0.0
 10
14.361864554
 20
2.9481877381
 30
0.0
 10
14.3987801366
 20
2.8984240654
 30
0.0
 10
14.4384076077
 20
2.8509290999
 30
0.0
 10
14.4808772857
 20
2.8059392178
 30
0.0
 10
14.5263116237
 20
2.7637320144
 30
0.0
 10
14.5748136729
 20
2.7246393423
 30
0.0
 10
14.6264459998
 20
2.6890519836
 30
0.0
 10
14.6812065056
 20
2.6574380165
 30
0.0
 10
14.7292605957
 20
2.6349052892
 30
0.0
 10
14.7690834193
 20
2.6194215662
 30
0.0
 10
14.7996883166
 20
2.6091317252
 30
0.0
 10
14.8308922043
 20
2.6002742364
 30
0.0
 10
14.8626240804
 20
2.5929239427
 30
0.0
 10
14.8947975381
 20
2.5871464436
 30
0.0
 10
14.9273158215
 20
2.58299952
 30
0.0
 10
14.9600668799
 20
2.5805245501
 30
0.0
 10
14.9819776853
 20
2.5800033956
 30
0.0
 10
14.9929351754
 20
2.5800259095
 30
0.0
  0
SPLINE
  5
2C3
100
AcDbEntity
  8
0
100
AcDbSpline
 62
9
  6
CONTINUOUS
 70
0
 71
3
 72
35
 73
31
 74
0
 42
0.0000001
 43
0.0000001
 44
0.0000000001
 40
0.0
 40
0.0
 40
0.0
 40
0.0
 40
0.0001140415
 40
0.0003313532
 40
0.0011413975
 40
0.0024760796
 40
0.0043470456
 40
0.0067627049
 40
0.0097305599
 40
0.0132577605
 40
0.0173512914
 40
0.0220180494
 40
0.0272648809
 40
0.0395259867
 40
0.0541889362
 40
0.0713078647
 40
0.0909156017
 40
0.1129595147
 40
0.1373654443
 40
0.1640592055
 40
0.1929665969
 40
0.2240134064
 40
0.2922283894
 40
0.3679819381
 40
0.4500348099
 40
0.5370176424
 40
0.6275610406
 40
0.7203273647
 40
0.8141072792
 40
1.0
 40
1.0
 40
1.0
 40
1.0
 10
7.2392432911
 20
12.6409508995
 30
0.0
 10
7.239245286
 20
12.640950664
 30
0.0
 10
7.2392505782
 20
12.6409550094
 30
0.0
 10
7.2392594585
 20
12.6409723733
 30
0.0
 10
7.2392729811
 20
12.6410125322
 30
0.0
 10
7.2392903079
 20
12.6410807232
 30
0.0
 10
7.2393116476
 20
12.6411776021
 30
0.0
 10
7.239336391
 20
12.6413029038
 30
0.0
 10
7.2393647283
 20
12.6414573101
 30
0.0
 10
7.2393965859
 20
12.6416410746
 30
0.0
 10
7.2394320111
 20
12.6418545971
 30
0.0
 10
7.2394710208
 20
12.6420982212
 30
0.0
 10
7.239531036
 20
12.6424841788
 30
0.0
 10
7.2396149143
 20
12.6430446122
 30
0.0
 10
7.2397258763
 20
12.6438124295
 30
0.0
 10
7.2398519088
 20
12.6447088129
 30
0.0
 10
7.2399929792
 20
12.6457343668
 30
0.0
 10
7.2401488609
 20
12.6468874448
 30
0.0
 10
7.2403190591
 20
12.6481645364
 30
0.0
 10
7.2405030353
 20
12.6495617551
 30
0.0
 10
7.2407002536
 20
12.6510752136
 30
0.0
 10
7.240989354
 20
12.6533142532
 30
0.0
 10
7.2413792438
 20
12.6563722947
 30
0.0
 10
7.2418761074
 20
12.6603224062
 30
0.0
 10
7.2424085364
 20
12.6646012297
 30
0.0
 10
7.242968067
 20
12.6691392014
 30
0.0
 10
7.2435460413
 20
12.673865037
 30
0.0
 10
7.244134149
 20
12.6787102499
 30
0.0
 10
7.2449193943
 20
12.6852233821
 30
0.0
 10
7.2455037653
 20
12.6901148732
 30
0.0
 10
7.2458900202
 20
12.6933664044
 30
0.0
  0
SPLINE
  5
2C4
100
AcDbEntity
  8
0
100
AcDbSpline
 62
9
  6
CONTINUOUS
 70
0
 71
3
 72
28
 73
24
 74
0
 42
0.0000001
 43
0.0000001
 44
0.0000000001
 40
0.0
 40
0.0
 40
0.0
 40
0.0
 40
0.1799793663
 40
0.3634840651
 40
0.4533893797
 40
0.5400931952
 40
0.6220468878
 40
0.6978764885
 40
0.7663354764
 40
0.8265006597
 40
0.8776289089
 40
0.899683507
 40
0.9193546313
 40
0.9366324133
 40
0.951581771
 40
0.9642939479
 40
0.9748760846
 40
0.9834648033
 40
0.990255528
 40
0.9930753914
 40
0.9955833708
 40
0.9978584735
 40
1.0
 40
1.0
 40
1.0
 40
1.0
 10
7.4115289827
 20
13.6893820431
 30
0.0
 10
7.4150655321
 20
13.6889305529
 30
0.0
 10
7.4221998815
 20
13.6879549698
 30
0.0
 10
7.4310755802
 20
13.6865775135
 30
0.0
 10
7.4381056412
 20
13.6853657815
 30
0.0
 10
7.4431422714
 20
13.684434093
 30
0.0
 10
7.4478919012
 20
13.6834862534
 30
0.0
 10
7.4522724139
 20
13.6825382702
 30
0.0
 10
7.4562135093
 20
13.6816036258
 30
0.0
 10
7.4596576799
 20
13.6806984393
 30
0.0
 10
7.4621907416
 20
13.6799467124
 30
0.0
 10
7.4639352907
 20
13.6793632347
 30
0.0
 10
7.4650335402
 20
13.6789627514
 30
0.0
 10
7.465987232
 20
13.6785782135
 30
0.0
 10
7.4667983978
 20
13.6782106449
 30
0.0
 10
7.467470802
 20
13.6778606947
 30
0.0
 10
7.4680090456
 20
13.6775285914
 30
0.0
 10
7.4684175161
 20
13.6772146101
 30
0.0
 10
7.4686688809
 20
13.676952284
 30
0.0
 10
7.4687990193
 20
13.6767496505
 30
0.0
 10
7.4688598816
 20
13.6766110416
 30
0.0
 10
7.4688901707
 20
13.6764762741
 30
0.0
 10
7.4688896941
 20
13.6763878418
 30
0.0
 10
7.4688843575
 20
13.6763457568
 30
0.0
  0
SPLINE
  5
2C5
100
AcDbEntity
  8
0
100
AcDbSpline
 62
9
  6
CONTINUOUS
 70
0
 71
3
 72
28
 73
24
 74
0
 42
0.0000001
 43
0.0000001
 44
0.0000000001
 40
0.0
 40
0.0
 40
0.0
 40
0.0
 40
0.0021448023
 40
0.0044230283
 40
0.0069338758
 40
0.0097563168
 40
0.0165513642
 40
0.0251434902
 40
0.0357283076
 40
0.0484425588
 40
0.0633934523
 40
0.0806722655
 40
0.1003440628
 40
0.1223991071
 40
0.1735274851
 40
0.2336919078
 40
0.3021493844
 40
0.3779767986
 40
0.4599278035
 40
0.5466285184
 40
0.6365304989
 40
0.8200279807
 40
1.0
 40
1.0
 40
1.0
 40
1.0
 10
7.3484155636
 20
12.7263166115
 30
0.0
 10
7.3484102209
 20
12.7262744602
 30
0.0
 10
7.3483885997
 20
12.7261885774
 30
0.0
 10
7.3483256147
 20
12.7260654327
 30
0.0
 10
7.3482320614
 20
12.7259461948
 30
0.0
 10
7.3480554478
 20
12.7257821763
 30
0.0
 10
7.3477465292
 20
12.7255905262
 30
0.0
 10
7.3472725483
 20
12.725388013
 30
0.0
 10
7.3466683812
 20
12.7252003437
 30
0.0
 10
7.3459298489
 20
12.7250288796
 30
0.0
 10
7.3450525553
 20
12.7248749902
 30
0.0
 10
7.3440330163
 20
12.7247402439
 30
0.0
 10
7.3428695169
 20
12.724626143
 30
0.0
 10
7.3410344894
 20
12.7244959968
 30
0.0
 10
7.3383938903
 20
12.7243996274
 30
0.0
 10
7.3348326976
 20
12.7243820066
 30
0.0
 10
7.3307829648
 20
12.7244599443
 30
0.0
 10
7.326304403
 20
12.7246347095
 30
0.0
 10
7.3214684538
 20
12.7249018188
 30
0.0
 10
7.3163586287
 20
12.7252562852
 30
0.0
 10
7.3092485666
 20
12.7258370828
 30
0.0
 10
7.3003099273
 20
12.726718175
 30
0.0
 10
7.2931578627
 20
12.7275540723
 30
0.0
 10
7.2896205563
 20
12.7279995799
 30
0.0
  0
SPLINE
  5
2C6
100
AcDbEntity
  8
0
100
AcDbSpline
 62
9
  6
CONTINUOUS
 70
0
 71
3
 72
33
 73
29
 74
0
 42
0.0000001
 43
0.0000001
 44
0.0000000001
 40
0.0
 40
0.0
 40
0.0
 40
0.0
 40
0.000130378
 40
0.0003548823
 40
0.0011697415
 40
0.002504935
 40
0.0043745719
 40
0.0067879282
 40
0.0097529152
 40
0.0132769129
 40
0.0173670523
 40
0.027273634
 40
0.039527946
 40
0.0541846576
 40
0.0712981878
 40
0.0909015976
 40
0.1129423359
 40
0.1373462509
 40
0.1640391521
 40
0.2239950202
 40
0.2922160742
 40
0.3679790974
 40
0.4500427276
 40
0.5370356895
 40
0.6275866584
 40
0.7203563911
 40
0.81413421
 40
1.0
 40
1.0
 40
1.0
 40
1.0
 10
7.4003904154
 20
13.782737028
 30
0.0
 10
7.4003882402
 20
13.7827377713
 30
0.0
 10
7.4003815266
 20
13.7827353484
 30
0.0
 10
7.4003677226
 20
13.7827202775
 30
0.0
 10
7.4003455547
 20
13.782684187
 30
0.0
 10
7.4003139333
 20
13.7826209712
 30
0.0
 10
7.4002733016
 20
13.7825305078
 30
0.0
 10
7.400224011
 20
13.7824126375
 30
0.0
 10
7.4001658872
 20
13.7822668169
 30
0.0
 10
7.4000989115
 20
13.7820927352
 30
0.0
 10
7.3999905767
 20
13.7818034378
 30
0.0
 10
7.3998329275
 20
13.781368266
 30
0.0
 10
7.3996170898
 20
13.7807560557
 30
0.0
 10
7.3993635927
 20
13.7800224064
 30
0.0
 10
7.3990717967
 20
13.7791649124
 30
0.0
 10
7.3987416655
 20
13.7781829508
 30
0.0
 10
7.3983737221
 20
13.7770780991
 30
0.0
 10
7.3979691117
 20
13.7758537169
 30
0.0
 10
7.397358339
 20
13.7739934221
 30
0.0
 10
7.3965131435
 20
13.771396977
 30
0.0
 10
7.3954086992
 20
13.7679750865
 30
0.0
 10
7.3941924017
 20
13.7641797207
 30
0.0
 10
7.3928817981
 20
13.7600670325
 30
0.0
 10
7.3914980074
 20
13.7557040236
 30
0.0
 10
7.3900626334
 20
13.7511593509
 30
0.0
 10
7.3885964244
 20
13.7464989704
 30
0.0
 10
7.3866320548
 20
13.7402335983
 30
0.0
 10
7.3851632573
 20
13.7355270023
 30
0.0
 10
7.3841895743
 20
13.7323979576
 30
0.0
  0
SPLINE
  5
2C7
100
AcDbEntity
  8
0
100
AcDbSpline
 62
9
  6
CONTINUOUS
 70
0
 71
3
 72
13
 73
9
 74
0
 42
0.0000001
 43
0.0000001
 44
0.0000000001
 40
0.0
 40
0.0
 40
0.0
 40
0.0
 40
0.2648932281
 40
0.5175000568
 40
0.6402593613
 40
0.7612086208
 40
0.8809364442
 40
1.0
 40
1.0
 40
1.0
 40
1.0
 10
7.4421941856
 20
13.4658635344
 30
0.0
 10
7.4435921071
 20
13.4670201186
 30
0.0
 10
7.4461546368
 20
13.4694958147
 30
0.0
 10
7.4487421189
 20
13.4730692763
 30
0.0
 10
7.4503194438
 20
13.4760860487
 30
0.0
 10
7.4512509234
 20
13.478399203
 30
0.0
 10
7.4519357733
 20
13.4807703566
 30
0.0
 10
7.4522260708
 20
13.4823834734
 30
0.0
 10
7.4523286603
 20
13.4831925052
 30
0.0
  0
SPLINE
  5
2C8
100
AcDbEntity
  8
0
100
AcDbSpline
 62
9
  6
CONTINUOUS
 70
0
 71
3
 72
13
 73
9
 74
0
 42
0.0000001
 43
0.0000001
 44
0.0000000001
 40
0.0
 40
0.0
 40
0.0
 40
0.0
 40
0.2648932281
 40
0.5175000568
 40
0.6402593613
 40
0.7612086208
 40
0.8809364442
 40
1.0
 40
1.0
 40
1.0
 40
1.0
 10
7.464350563
 20
13.6405910189
 30
0.0
 10
7.4654155597
 20
13.6391221235
 30
0.0
 10
7.4672790577
 20
13.6360851835
 30
0.0
 10
7.4688927192
 20
13.6319789945
 30
0.0
 10
7.4696671432
 20
13.6286640077
 30
0.0
 10
7.4699917843
 20
13.6261915706
 30
0.0
 10
7.4700631251
 20
13.623724528
 30
0.0
 10
7.4699416051
 20
13.6220900093
 30
0.0
 10
7.4698390155
 20
13.6212809776
 30
0.0
  0
SPLINE
  5
2C9
100
AcDbEntity
  8
0
100
AcDbSpline
 62
9
  6
CONTINUOUS
 70
0
 71
3
 72
27
 73
23
 74
0
 42
0.0000001
 43
0.0000001
 44
0.0000000001
 40
0.0
 40
0.0
 40
0.0
 40
0.0
 40
0.0325427649
 40
0.0650579415
 40
0.0975061056
 40
0.1298628861
 40
0.1621051552
 40
0.1942131376
 40
0.2261735262
 40
0.257978865
 40
0.321099532
 40
0.3836178262
 40
0.4456129121
 40
0.5071985096
 40
0.5685067798
 40
0.6296743135
 40
0.6908325266
 40
0.7521009603
 40
0.8135811697
 40
0.8753545108
 40
0.9374809944
 40
1.0
 40
1.0
 40
1.0
 40
1.0
 10
14.9929351754
 20
2.5800259095
 30
0.0
 10
15.0038754646
 20
2.5800483883
 30
0.0
 10
15.0257497733
 20
2.580656711
 30
0.0
 10
15.0584406063
 20
2.5832496177
 30
0.0
 10
15.0908951297
 20
2.5874997146
 30
0.0
 10
15.1230027853
 20
2.5933660344
 30
0.0
 10
15.1546684248
 20
2.6007903343
 30
0.0
 10
15.185807161
 20
2.6097071374
 30
0.0
 10
15.2163493398
 20
2.6200417785
 30
0.0
 10
15.2560940818
 20
2.6355670488
 30
0.0
 10
15.3040608012
 20
2.6581189001
 30
0.0
 10
15.358737957
 20
2.6897103511
 30
0.0
 10
15.4103103061
 20
2.7252381171
 30
0.0
 10
15.4587745092
 20
2.7642422024
 30
0.0
 10
15.5041903672
 20
2.8063390651
 30
0.0
 10
15.5466571062
 20
2.8512032979
 30
0.0
 10
15.5862939868
 20
2.8985619431
 30
0.0
 10
15.6232278405
 20
2.948182877
 30
0.0
 10
15.6575881673
 20
2.9998629409
 30
0.0
 10
15.6894964482
 20
3.0534242896
 30
0.0
 10
15.7190605132
 20
3.1087062553
 30
0.0
 10
15.7372096569
 20
3.1464916702
 30
0.0
 10
15.745922008
 20
3.1656186932
 30
0.0
  0
SPLINE
  5
2CA
100
AcDbEntity
  8
0
100
AcDbSpline
 62
9
  6
CONTINUOUS
 70
0
 71
3
 72
28
 73
24
 74
0
 42
0.0000001
 43
0.0000001
 44
0.0000000001
 40
0.0
 40
0.0
 40
0.0
 40
0.0
 40
0.0646700857
 40
0.1286007877
 40
0.191800538
 40
0.2543108043
 40
0.3162056118
 40
0.3775913016
 40
0.4386064561
 40
0.4994173608
 40
0.5602091867
 40
0.5906647806
 40
0.6211893615
 40
0.651806991
 40
0.6825414244
 40
0.7134145325
 40
0.7444471602
 40
0.7756568973
 40
0.8070596594
 40
0.8386678527
 40
0.8704913343
 40
0.9347969634
 40
1.0
 40
1.0
 40
1.0
 40
1.0
 10
15.8802522478
 20
4.2110795599
 30
0.0
 10
15.8766111568
 20
4.2308085028
 30
0.0
 10
15.8684860371
 20
4.2698848894
 30
0.0
 10
15.8535180235
 20
4.3274981327
 30
0.0
 10
15.8357027648
 20
4.3835985174
 30
0.0
 10
15.8149163455
 20
4.4379959833
 30
0.0
 10
15.7910409546
 20
4.4904979924
 30
0.0
 10
15.763971295
 20
4.540906126
 30
0.0
 10
15.733623068
 20
4.5890199105
 30
0.0
 10
15.6999434919
 20
4.6346376387
 30
0.0
 10
15.6690906792
 20
4.6703883752
 30
0.0
 10
15.6427788222
 20
4.6975056235
 30
0.0
 10
15.6222022568
 20
4.7171140662
 30
0.0
 10
15.6008061789
 20
4.7359554795
 30
0.0
 10
15.5786010043
 20
4.7540082883
 30
0.0
 10
15.5556030222
 20
4.771254954
 30
0.0
 10
15.5318292388
 20
4.787676188
 30
0.0
 10
15.5073011417
 20
4.8032562852
 30
0.0
 10
15.4820415727
 20
4.8179776339
 30
0.0
 10
15.4560775286
 20
4.83182715
 30
0.0
 10
15.4204387222
 20
4.8491704906
 30
0.0
 10
15.3742625003
 20
4.8685904125
 30
0.0
 10
15.3361996513
 20
4.881560084
 30
0.0
 10
15.3168484227
 20
4.887449048
 30
0.0
  0
ENDSEC
  0
SECTION
  2
OBJECTS
  0
DICTIONARY
  5
C
100
AcDbDictionary
280
0
281
1
  3
ACAD_GROUP
350
D
  3
ACAD_MLINESTYLE
350
17
  3
ACAD_LAYOUT
350
1A
  3
ACAD_PLOTSETTINGS
350
19
  3
ACAD_PLOTSTYLENAME
350
E
  0
DICTIONARY
  5
D
102
{ACAD_REACTORS
330
C
102
}
100
AcDbDictionary
280
0
281
1
  0
ACDBDICTIONARYWDFLT
  5
E
102
{ACAD_REACTORS
330
C
102
}
100
AcDbDictionary
281
1
  3
Normal
350
F
100
AcDbDictionaryWithDefault
340
F
  0
DICTIONARY
  5
17
102
{ACAD_REACTORS
330
C
102
}
100
AcDbDictionary
280
0
281
1
  3
Standard
350
18
  0
DICTIONARY
  5
19
102
{ACAD_REACTORS
330
C
102
}
100
AcDbDictionary
281
1
  0
DICTIONARY
  5
1A
102
{ACAD_REACTORS
330
C
102
}
100
AcDbDictionary
281
1
  3
Model
350
2CB
  3
Layout1
350
2CC
  0
ACDBPLACEHOLDER
  5
F
102
{ACAD_REACTORS
330
E
102
}
  0
MLINESTYLE
  5
18
102
{ACAD_REACTORS
330
17
102
}
100
AcDbMlineStyle
  2
STANDARD
 70
0
  3

 62
256
 51
90.0
 52
90.0
 71
2
 49
0.5
 62
256
  6
BYLAYER
 49
-0.5
 62
256
  6
BYLAYER
  0
LAYOUT
  5
2CB
102
{ACAD_REACTORS
330
1A
102
}
100
AcDbPlotSettings
  1

  2
none_device
  4
ANSI_C_(22.00_x_17.00_Inches)
  6

 40
0.0
 41
0.0
 42
0.0
 43
0.0
 44
558.8
 45
431.8
 46
0.0
 47
0.0
 48
0.0
 49
0.0
140
0.0
141
0.0
142
1.0
143
1.0
 70
1024
 72
0
 73
0
 74
0
  7

 75
0
147
1.0
148
0.0
149
0.0
100
AcDbLayout
  1
Model
 70
0
 71
0
 10
0.0
 20
0.0
 11
22.0
 21
17.0
 12
0.0
 22
0.0
 32
0.0
 14
0.0
 24
0.0
 34
0.0
 15
0.0
 25
0.0
 35
0.0
146
0.0
 13
0.0
 23
0.0
 33
0.0
 16
1.0
 26
0.0
 36
0.0
 17
0.0
 27
1.0
 37
0.0
 76
0
330
205
345
0
346
0
  0
LAYOUT
  5
2CC
102
{ACAD_REACTORS
330
1A
102
}
100
AcDbPlotSettings
  1

  2
none_device
  4
ANSI_C_(22.00_x_17.00_Inches)
  6

 40
0.0
 41
0.0
 42
0.0
 43
0.0
 44
558.8
 45
431.8
 46
0.0
 47
0.0
 48
0.0
 49
0.0
140
0.0
141
0.0
142
1.0
143
1.0
 70
0
 72
0
 73
0
 74
0
  7

 75
0
147
1.0
148
0.0
149
0.0
100
AcDbLayout
  1
Layout1
 70
0
 71
1
 10
0.0
 20
0.0
 11
22.0
 21
17.0
 12
0.0
 22
0.0
 32
0.0
 14
0.0
 24
0.0
 34
0.0
 15
0.0
 25
0.0
 35
0.0
146
0.0
 13
0.0
 23
0.0
 33
0.0
 16
1.0
 26
0.0
 36
0.0
 17
0.0
 27
1.0
 37
0.0
 76
0
330
206
345
0
346
0
  0
ENDSEC
  0
EOF
