999
DXF file: E:\BT Custom\CADOUTPUT\_TOP.dxf
999
Pro/ENGINEER 2018400 by Parametric Technology Corporation
  0
SECTION
  2
HEADER
  9
$ACADVER
  1
AC1018
  9
$DWGCODEPAGE
  3
ANSI_1252
  9
$EXTMAX
 10
22.0
 20
17.0
 30
0.0
  9
$EXTMIN
 10
0.0
 20
0.0
 30
0.0
  9
$LIMMIN
 10
0.0
 20
0.0
  9
$LIMMAX
 10
22.0
 20
17.0
  9
$VIEWCTR
 10
11.0
 20
8.5
  9
$VIEWSIZE
 40
17.0
  9
$CLAYER
  8
0
  9
$LTSCALE
 40
1.21
  9
$CELTYPE
  6
BYLAYER
  9
$DIMSCALE
 40
1.0
  9
$DIMASZ
 40
0.1
  9
$DIMEXO
 40
0.0625
  9
$DIMDLI
 40
0.836
  9
$DIMEXE
 40
0.125
  9
$DIMCEN
 40
0.198
  9
$DIMLFAC
 40
1.0
  9
$DIMBLK
  1
_FILLED
  9
$DIMALT
 70
1
  9
$DIMALTD
 70
2
  9
$DIMALTTD
 70
2
  9
$DIMALTF
 40
25.4
  9
$DIMTXT
 40
0.08
  9
$DIMTOL
 70
1
  9
$DIMLIM
 70
0
  9
$DIMTFAC
 40
1.0
  9
$DIMTP
 40
0.001
  9
$DIMTM
 40
0.001
  9
$DIMGAP
 40
0.09
  9
$DIMDSEP
 70
46
  9
$AUNITS
 70
0
  9
$PDMODE
 70
3
  9
$PDSIZE
 40
0.06
  9
$HANDSEED
  5
26D
  9
$TILEMODE
 70
1
  9
$MEASUREMENT
 70
0
  9
$INSUNITS
 70
1
  0
ENDSEC
  0
SECTION
  2
CLASSES
  0
CLASS
  1
ACDBDICTIONARYWDFLT
  2
AcDbDictionaryWithDefault
  3
AutoCAD 2000
 90
0
 91
1
280
0
281
0
  0
CLASS
  1
ACDBPLACEHOLDER
  2
AcDbPlaceHolder
  3
AutoCAD 2000
 90
0
 91
1
280
0
281
0
  0
CLASS
  1
LAYOUT
  2
AcDbLayout
  3
AutoCAD 2000
 90
0
 91
0
280
0
281
0
  0
ENDSEC
  0
SECTION
  2
TABLES
  0
TABLE
  2
VPORT
  5
8
100
AcDbSymbolTable
 70
2
  0
VPORT
  5
1F4
100
AcDbSymbolTableRecord
100
AcDbViewportTableRecord
  2
*ACTIVE
 70
0
 10
0.0
 20
0.0
 11
1.0
 21
1.0
 12
11.0
 22
8.5
 13
0.0
 23
0.0
 14
1.0
 24
1.0
 15
0.0
 25
0.0
 16
0.0
 26
0.0
 36
1.0
 17
0.0
 27
0.0
 37
0.0
 40
17.0
 41
1.2941176471
 42
50.0
 43
0.0
 44
0.0
 50
0.0
 51
0.0
 71
0
 72
100
 73
1
 74
1
 75
0
 76
0
 77
0
 78
0
  0
ENDTAB
  0
TABLE
  2
LTYPE
  5
5
100
AcDbSymbolTable
 70
6
  0
LTYPE
  5
14
100
AcDbSymbolTableRecord
100
AcDbLinetypeTableRecord
  2
BYBLOCK
 70
0
  3

 72
65
 73
0
 40
0.0
  0
LTYPE
  5
15
100
AcDbSymbolTableRecord
100
AcDbLinetypeTableRecord
  2
BYLAYER
 70
0
  3

 72
65
 73
0
 40
0.0
  0
LTYPE
  5
16
100
AcDbSymbolTableRecord
100
AcDbLinetypeTableRecord
  2
CONTINUOUS
 70
64
  3
Solid line
 72
65
 73
0
 40
0.0
  0
LTYPE
  5
1F5
100
AcDbSymbolTableRecord
100
AcDbLinetypeTableRecord
  2
CENTER
 70
64
  3
____ _ ____ _ ____ _ ____ _ ____ _ ____ _ ____
 72
65
 73
4
 40
0.6
 49
0.375
 74
0
 49
-0.075
 74
0
 49
0.075
 74
0
 49
-0.075
 74
0
  0
LTYPE
  5
1F6
100
AcDbSymbolTableRecord
100
AcDbLinetypeTableRecord
  2
HIDDEN
 70
64
  3
- - - - - - - - - - - - - - - - - - - -
 72
65
 73
2
 40
0.2
 49
0.1
 74
0
 49
-0.1
 74
0
  0
LTYPE
  5
1F7
100
AcDbSymbolTableRecord
100
AcDbLinetypeTableRecord
  2
PHANTOM
 70
64
  3
_____ _ _ _____ _ _ _____ _ _ _____
 72
65
 73
6
 40
0.8
 49
0.45
 74
0
 49
-0.05
 74
0
 49
0.1
 74
0
 49
-0.05
 74
0
 49
0.1
 74
0
 49
-0.05
 74
0
  0
LTYPE
  5
1F8
100
AcDbSymbolTableRecord
100
AcDbLinetypeTableRecord
  2
DOT
 70
64
  3
. . . . . . . . . . . . . . . . . . . .
 72
65
 73
2
 40
0.2
 49
0.1
 74
0
 49
-0.1
 74
0
  0
LTYPE
  5
1F9
100
AcDbSymbolTableRecord
100
AcDbLinetypeTableRecord
  2
DASHED
 70
64
  3
- - - - - - - - - - - - - - - - - - - -
 72
65
 73
2
 40
0.2
 49
0.1
 74
0
 49
-0.1
 74
0
  0
ENDTAB
  0
TABLE
  2
LAYER
  5
2
100
AcDbSymbolTable
 70
36
  0
LAYER
  5
10
100
AcDbSymbolTableRecord
100
AcDbLayerTableRecord
  2
0
 70
0
 62
7
  6
CONTINUOUS
370
-3
390
F
  0
LAYER
  5
1FA
100
AcDbSymbolTableRecord
100
AcDbLayerTableRecord
  2
DEFAULT_1
 70
0
 62
7
  6
CENTER
370
-3
390
F
  0
LAYER
  5
1FB
100
AcDbSymbolTableRecord
100
AcDbLayerTableRecord
  2
DEFAULT_2
 70
0
 62
8
  6
HIDDEN
370
-3
390
F
  0
LAYER
  5
1FC
100
AcDbSymbolTableRecord
100
AcDbLayerTableRecord
  2
DEFAULT_3
 70
0
 62
7
  6
PHANTOM
370
-3
390
F
  0
LAYER
  5
1FD
100
AcDbSymbolTableRecord
100
AcDbLayerTableRecord
  2
ALL_FEATURES
 70
0
 62
7
  6
CONTINUOUS
370
-3
390
F
  0
LAYER
  5
1FE
100
AcDbSymbolTableRecord
100
AcDbLayerTableRecord
  2
AXES_FEATURES
 70
0
 62
7
  6
CONTINUOUS
370
-3
390
F
  0
LAYER
  5
1FF
100
AcDbSymbolTableRecord
100
AcDbLayerTableRecord
  2
DEFAULT_COORDINATE_SYSTEM
 70
0
 62
7
  6
CONTINUOUS
370
-3
390
F
  0
LAYER
  5
200
100
AcDbSymbolTableRecord
100
AcDbLayerTableRecord
  2
DEFAULT_DATUM_AXES
 70
0
 62
7
  6
CONTINUOUS
370
-3
390
F
  0
LAYER
  5
201
100
AcDbSymbolTableRecord
100
AcDbLayerTableRecord
  2
DEFAULT_DATUM_PLANES
 70
0
 62
7
  6
CONTINUOUS
370
-3
390
F
  0
LAYER
  5
202
100
AcDbSymbolTableRecord
100
AcDbLayerTableRecord
  2
DIMENSIONS
 70
0
 62
7
  6
CONTINUOUS
370
-3
390
F
  0
ENDTAB
  0
TABLE
  2
STYLE
  5
3
100
AcDbSymbolTable
 70
1
  0
STYLE
  5
11
100
AcDbSymbolTableRecord
100
AcDbTextStyleTableRecord
  2
STANDARD
 70
0
 40
0.0
 41
0.8
 50
0.0
 71
0
 42
0.2
  3
txt
  4

  0
STYLE
  5
203
100
AcDbSymbolTableRecord
100
AcDbTextStyleTableRecord
  2
TEXTSTYLE_1
 70
0
 40
0.0
 41
0.8
 50
0.0
 71
0
 42
0.2
  3
gdt
  4

  0
ENDTAB
  0
TABLE
  2
VIEW
  5
6
100
AcDbSymbolTable
 70
0
  0
ENDTAB
  0
TABLE
  2
UCS
  5
7
100
AcDbSymbolTable
 70
0
  0
ENDTAB
  0
TABLE
  2
APPID
  5
9
100
AcDbSymbolTable
 70
1
  0
APPID
  5
204
100
AcDbSymbolTableRecord
100
AcDbRegAppTableRecord
  2
ACAD
 70
0
  0
ENDTAB
  0
TABLE
  2
BLOCK_RECORD
  5
1
100
AcDbSymbolTable
 70
0
  0
BLOCK_RECORD
  5
205
100
AcDbSymbolTableRecord
100
AcDbBlockTableRecord
  2
*Model_Space
  0
BLOCK_RECORD
  5
206
100
AcDbSymbolTableRecord
100
AcDbBlockTableRecord
  2
*Paper_Space
  0
BLOCK_RECORD
  5
207
100
AcDbSymbolTableRecord
100
AcDbBlockTableRecord
  2
_FILLED
  0
ENDTAB
  0
TABLE
  2
DIMSTYLE
  5
A
100
AcDbSymbolTable
 70
1
100
AcDbDimStyleTable
 71
0
  0
DIMSTYLE
105
208
100
AcDbSymbolTableRecord
100
AcDbDimStyleTableRecord
  2
STANDARD
 70
0
  3

  4

 40
1.0
 41
0.1
 42
0.0625
 43
0.38
 44
0.125
 45
0.0
 46
0.0
 47
0.001
 48
0.001
140
0.08
141
0.09
142
0.0
143
25.4
144
1.0
145
0.0
146
1.0
147
0.09
 71
1.0
 72
0.0
 73
1
 74
1
 75
0
 76
0
 77
0
 78
4
 79
1
170
1
171
2
172
0
173
0
174
0
175
0
176
0
177
0
178
0
270
2
179
3
271
3
272
3
273
2
274
2
275
0
280
0
281
0
282
0
283
1
284
4
285
0
286
0
287
3
288
0
340
11
278
46
341
207
342
207
343
207
344
207
  0
ENDTAB
  0
ENDSEC
  0
SECTION
  2
BLOCKS
  0
BLOCK
  5
20
100
AcDbEntity
  8
0
100
AcDbBlockBegin
  2
*Model_Space
 70
0
 10
0.0
 20
0.0
 30
0.0
  3
*Model_Space
  1

  0
ENDBLK
  5
21
100
AcDbEntity
  8
0
100
AcDbBlockEnd
  0
BLOCK
  5
1C
100
AcDbEntity
  8
0
100
AcDbBlockBegin
  2
*Paper_Space
 70
0
 10
0.0
 20
0.0
 30
0.0
  3
*Paper_Space
  1

  0
ENDBLK
  5
1D
100
AcDbEntity
  8
0
100
AcDbBlockEnd
  0
BLOCK
  5
209
100
AcDbEntity
  8
0
100
AcDbBlockBegin
  2
_FILLED
 70
64
 10
0.0
 20
0.0
  3
_FILLED
  1

  0
SOLID
  5
20A
100
AcDbEntity
  8
0
  6
BYBLOCK
 62
0
100
AcDbTrace
 10
0.0
 20
0.0
 11
-1.0
 21
0.2
 12
-1.0
 22
-0.2
 13
-1.0
 23
-0.2
  0
ENDBLK
  5
20B
100
AcDbEntity
  8
0
  6
BYBLOCK
 62
0
100
AcDbBlockEnd
  0
ENDSEC
  0
SECTION
  2
ENTITIES
  0
LWPOLYLINE
  5
20C
100
AcDbEntity
  8
0
100
AcDbPolyline
 62
7
  6
CONTINUOUS
 90
20
 70
0
 10
10.6336211129
 20
12.6452321557
 10
10.6091531257
 20
12.637725656
 10
10.5835994639
 20
12.6315270738
 10
10.5591104583
 20
12.6270994829
 10
10.5358101131
 20
12.6242258354
 10
10.5138434917
 20
12.6226971783
 10
10.4933242095
 20
12.6223036157
 10
10.4742924495
 20
12.6228410947
 10
10.4567013346
 20
12.6241258143
 10
10.4404690654
 20
12.626001256
 10
10.4257191349
 20
12.6283009619
 10
10.4125157528
 20
12.6308641168
 10
10.4010156791
 20
12.6335094241
 10
10.3910852701
 20
12.6361270002
 10
10.3821859722
 20
12.6387540682
 10
10.3746672251
 20
12.6411962907
 10
10.3688867498
 20
12.6432273866
 10
10.364697809
 20
12.6447974748
 10
10.3612638067
 20
12.6461598816
 10
10.3591519667
 20
12.6470449742
  0
LINE
  5
20D
100
AcDbEntity
  8
0
100
AcDbLine
 62
7
  6
CONTINUOUS
 10
10.3803827566
 20
10.8973919522
 11
10.3802516868
 21
10.897303622
  0
LWPOLYLINE
  5
20E
100
AcDbEntity
  8
0
100
AcDbPolyline
 62
7
  6
CONTINUOUS
 90
18
 70
0
 10
10.3653211634
 20
10.8860283397
 10
10.3689906701
 20
10.8874002259
 10
10.3745969604
 20
10.8893660186
 10
10.3821121512
 20
10.8918036109
 10
10.3911319765
 20
10.8944614233
 10
10.4012483167
 20
10.8971199631
 10
10.4127327456
 20
10.8997508108
 10
10.4259512736
 20
10.9023051519
 10
10.4407213331
 20
10.9045952232
 10
10.4569739634
 20
10.9064593238
 10
10.4746119439
 20
10.9077326095
 10
10.4936376664
 20
10.9082541438
 10
10.5141261752
 20
10.907845825
 10
10.536053263
 20
10.9063059575
 10
10.5593123801
 20
10.9034255904
 10
10.5837661711
 20
10.8989953196
 10
10.609281217
 20
10.8928004895
 10
10.6337055879
 20
10.8853062814
  0
LINE
  5
20F
100
AcDbEntity
  8
0
100
AcDbLine
 62
7
  6
CONTINUOUS
 10
9.2253209923
 20
11.2488475067
 11
9.2253187618
 21
11.1696216193
  0
LWPOLYLINE
  5
210
100
AcDbEntity
  8
0
100
AcDbPolyline
 62
7
  6
CONTINUOUS
 90
3
 70
0
 10
9.2253183415
 20
11.7653442754
 10
9.2253186256
 20
11.7330091996
 10
9.2253176512
 20
11.7107838798
  0
LINE
  5
211
100
AcDbEntity
  8
0
100
AcDbLine
 62
7
  6
CONTINUOUS
 10
9.2253176512
 20
11.7107838798
 11
9.2253209923
 21
11.2488475067
  0
LINE
  5
212
100
AcDbEntity
  8
0
100
AcDbLine
 62
7
  6
CONTINUOUS
 10
9.2253187618
 20
11.1696216193
 11
9.2253154973
 21
6.2664316924
  0
LINE
  5
213
100
AcDbEntity
  8
0
100
AcDbLine
 62
7
  6
CONTINUOUS
 10
9.2253154973
 20
6.2664316924
 11
9.2253489405
 21
5.6687980757
  0
LWPOLYLINE
  5
214
100
AcDbEntity
  8
0
100
AcDbPolyline
 62
7
  6
CONTINUOUS
 90
4
 70
0
 10
9.2253489405
 20
5.6687980757
 10
9.2253326954
 20
5.529701056
 10
9.225306162
 20
5.3943590861
 10
9.2253169883
 20
4.2791871325
  0
LINE
  5
215
100
AcDbEntity
  8
0
100
AcDbLine
 62
7
  6
CONTINUOUS
 10
9.2253169883
 20
4.2791871325
 11
9.2253183383
 21
3.5251316158
  0
LINE
  5
216
100
AcDbEntity
  8
0
100
AcDbLine
 62
7
  6
CONTINUOUS
 10
10.3653152128
 20
10.9934027441
 11
10.3653179148
 21
11.1696213534
  0
LINE
  5
217
100
AcDbEntity
  8
0
100
AcDbLine
 62
7
  6
CONTINUOUS
 10
10.3653135572
 20
9.9636165384
 11
10.3653211619
 21
10.8961103603
  0
LINE
  5
218
100
AcDbEntity
  8
0
100
AcDbLine
 62
7
  6
CONTINUOUS
 10
10.3653221768
 20
8.333093848
 11
10.3653240113
 21
9.8317849568
  0
LINE
  5
219
100
AcDbEntity
  8
0
100
AcDbLine
 62
7
  6
CONTINUOUS
 10
10.3653240113
 20
9.8317849568
 11
10.3653135572
 21
9.9636165384
  0
LINE
  5
21A
100
AcDbEntity
  8
0
100
AcDbLine
 62
7
  6
CONTINUOUS
 10
10.3653211619
 20
10.8961103603
 11
10.3653152128
 21
10.9934027441
  0
LINE
  5
21B
100
AcDbEntity
  8
0
100
AcDbLine
 62
7
  6
CONTINUOUS
 10
10.3653179148
 20
11.1696213534
 11
10.3653183381
 21
11.765296987
  0
LINE
  5
21C
100
AcDbEntity
  8
0
100
AcDbLine
 62
7
  6
CONTINUOUS
 10
10.3652877361
 20
5.6687978538
 11
10.3653221768
 21
8.333093848
  0
LINE
  5
21D
100
AcDbEntity
  8
0
100
AcDbLine
 62
7
  6
CONTINUOUS
 10
10.3653183383
 20
3.5251316158
 11
10.3652877361
 21
5.6687978538
  0
LINE
  5
21E
100
AcDbEntity
  8
0
100
AcDbLine
 62
7
  6
CONTINUOUS
 10
11.7203183383
 20
10.8452833178
 11
11.7203183383
 21
12.6852837768
  0
LINE
  5
21F
100
AcDbEntity
  8
0
100
AcDbLine
 62
7
  6
CONTINUOUS
 10
11.7793183383
 20
12.6850379688
 11
11.7793183383
 21
10.8455291245
  0
LINE
  5
220
100
AcDbEntity
  8
0
100
AcDbLine
 62
7
  6
CONTINUOUS
 10
13.5177428401
 20
11.5450334523
 11
13.5236970169
 21
11.5616252369
  0
LINE
  5
221
100
AcDbEntity
  8
0
100
AcDbLine
 62
7
  6
CONTINUOUS
 10
12.4893183383
 20
11.1432835467
 11
12.4893183383
 21
12.3872835467
  0
LINE
  5
222
100
AcDbEntity
  8
0
100
AcDbLine
 62
7
  6
CONTINUOUS
 10
12.6064684128
 20
12.301476359
 11
12.6064684128
 21
11.2290907344
  0
LINE
  5
223
100
AcDbEntity
  8
0
100
AcDbLine
 62
9
  6
CONTINUOUS
 10
12.8171766237
 20
12.1675928893
 11
12.8171766237
 21
12.0223343487
  0
LINE
  5
224
100
AcDbEntity
  8
0
100
AcDbLine
 62
9
  6
CONTINUOUS
 10
12.8171766237
 20
11.5082327446
 11
12.8171766237
 21
11.362974204
  0
LINE
  5
225
100
AcDbEntity
  8
0
100
AcDbLine
 62
7
  6
CONTINUOUS
 10
13.4193183383
 20
12.05659781
 11
13.4193183383
 21
11.4739692834
  0
LINE
  5
226
100
AcDbEntity
  8
0
100
AcDbLine
 62
9
  6
CONTINUOUS
 10
13.4329788631
 20
11.4852835467
 11
13.4329788631
 21
12.0452835467
  0
LINE
  5
227
100
AcDbEntity
  8
0
100
AcDbLine
 62
9
  6
CONTINUOUS
 10
13.5177428401
 20
11.5450334523
 11
13.5177428401
 21
11.985533641
  0
LINE
  5
228
100
AcDbEntity
  8
0
100
AcDbLine
 62
9
  6
CONTINUOUS
 10
13.5236970169
 20
11.5616252369
 11
13.523697017
 21
11.9689418562
  0
LINE
  5
229
100
AcDbEntity
  8
0
100
AcDbLine
 62
7
  6
CONTINUOUS
 10
13.4329788631
 20
11.4852835467
 11
13.4193183383
 21
11.4852835467
  0
LINE
  5
22A
100
AcDbEntity
  8
0
100
AcDbLine
 62
7
  6
CONTINUOUS
 10
10.3797148307
 20
12.6336250137
 11
10.3798675343
 21
12.6335222413
  0
LINE
  5
22B
100
AcDbEntity
  8
0
100
AcDbLine
 62
7
  6
CONTINUOUS
 10
13.5177428401
 20
11.985533641
 11
13.523697017
 21
11.9689418562
  0
LINE
  5
22C
100
AcDbEntity
  8
0
100
AcDbLine
 62
7
  6
CONTINUOUS
 10
13.4329788631
 20
12.0452835467
 11
13.4193183383
 21
12.0452835467
  0
ARC
  5
22D
100
AcDbEntity
  8
0
100
AcDbCircle
 62
7
  6
CONTINUOUS
 10
9.8511498441
 20
2.8151182823
 40
0.8481693559
100
AcDbArc
 50
3.7826373874
 51
5.5199670269
  0
ARC
  5
22E
100
AcDbEntity
  8
0
100
AcDbCircle
 62
7
  6
CONTINUOUS
 10
9.7394867162
 20
2.8151182908
 40
0.8481692393
100
AcDbArc
 50
174.4803279819
 51
176.2173603771
  0
ARC
  5
22F
100
AcDbEntity
  8
0
100
AcDbCircle
 62
7
  6
CONTINUOUS
 10
9.8514260712
 20
2.8151404649
 40
0.8478922671
100
AcDbArc
 50
0.0004172486
 51
3.7823730901
  0
ARC
  5
230
100
AcDbEntity
  8
0
100
AcDbCircle
 62
7
  6
CONTINUOUS
 10
9.7391407004
 20
2.8151427732
 40
0.8478223621
100
AcDbArc
 50
176.2174686362
 51
179.9997387125
  0
ARC
  5
231
100
AcDbEntity
  8
0
100
AcDbCircle
 62
7
  6
CONTINUOUS
 10
9.8561481579
 20
2.8708301038
 40
0.8396364422
100
AcDbArc
 50
0.0057727887
 51
13.9334906532
  0
ARC
  5
232
100
AcDbEntity
  8
0
100
AcDbCircle
 62
7
  6
CONTINUOUS
 10
9.7344868942
 20
2.8708302433
 40
0.8396348158
100
AcDbArc
 50
166.0741258827
 51
179.9942367247
  0
ARC
  5
233
100
AcDbEntity
  8
0
100
AcDbCircle
 62
7
  6
CONTINUOUS
 10
9.8374503993
 20
3.445537081
 40
0.6415905141
100
AcDbArc
 50
0.0364763365
 51
25.6718347001
  0
ARC
  5
234
100
AcDbEntity
  8
0
100
AcDbCircle
 62
7
  6
CONTINUOUS
 10
9.753185606
 20
3.4455371957
 40
0.6415898382
100
AcDbArc
 50
154.3305777437
 51
179.9635338761
  0
ARC
  5
235
100
AcDbEntity
  8
0
100
AcDbCircle
 62
7
  6
CONTINUOUS
 10
11.2440222284
 20
12.6846154949
 40
1.9
100
AcDbArc
 50
251.2633260312
 51
284.5178827456
  0
ARC
  5
236
100
AcDbEntity
  8
0
100
AcDbCircle
 62
7
  6
CONTINUOUS
 10
11.2440222284
 20
10.8459515985
 40
1.9
100
AcDbArc
 50
75.4821172544
 51
108.7393658407
  0
ARC
  5
237
100
AcDbEntity
  8
0
100
AcDbCircle
 62
7
  6
CONTINUOUS
 10
9.7953183383
 20
11.7652835467
 40
1.26
100
AcDbArc
 50
296.9059752979
 51
314.7197418335
  0
ARC
  5
238
100
AcDbEntity
  8
0
100
AcDbCircle
 62
7
  6
CONTINUOUS
 10
9.7953183383
 20
11.7652835467
 40
1.26
100
AcDbArc
 50
45.2803712799
 51
243.0940247022
  0
ARC
  5
239
100
AcDbEntity
  8
0
100
AcDbCircle
 62
7
  6
CONTINUOUS
 10
9.7953183383
 20
11.7652835467
 40
1.2242978863
100
AcDbArc
 50
46.1623876568
 51
242.2516407756
  0
ARC
  5
23A
100
AcDbEntity
  8
0
100
AcDbCircle
 62
7
  6
CONTINUOUS
 10
9.7953183383
 20
11.7652835467
 40
1.2242978863
100
AcDbArc
 50
297.7483592249
 51
313.8375521278
  0
ARC
  5
23B
100
AcDbEntity
  8
0
100
AcDbCircle
 62
7
  6
CONTINUOUS
 10
9.7953183383
 20
11.7652835467
 40
1.0803954121
100
AcDbArc
 50
52.7615598892
 51
238.1508766418
  0
ARC
  5
23C
100
AcDbEntity
  8
0
100
AcDbCircle
 62
7
  6
CONTINUOUS
 10
9.7953183383
 20
11.7652835467
 40
1.0803954121
100
AcDbArc
 50
301.8491233584
 51
307.2377632311
  0
ARC
  5
23D
100
AcDbEntity
  8
0
100
AcDbCircle
 62
7
  6
CONTINUOUS
 10
9.7953183383
 20
11.7652835467
 40
1.0466786485
100
AcDbArc
 50
56.0496920751
 51
236.9931132786
  0
ARC
  5
23E
100
AcDbEntity
  8
0
100
AcDbCircle
 62
7
  6
CONTINUOUS
 10
9.7953183383
 20
11.7652835467
 40
1.0466786485
100
AcDbArc
 50
303.0000020358
 51
303.9843909711
  0
ARC
  5
23F
100
AcDbEntity
  8
0
100
AcDbCircle
 62
7
  6
CONTINUOUS
 10
9.7953183383
 20
11.7652835467
 40
0.8391690524
100
AcDbArc
 50
312.7947537576
 51
227.2052462432
  0
ARC
  5
240
100
AcDbEntity
  8
0
100
AcDbCircle
 62
9
  6
CONTINUOUS
 10
9.7953183383
 20
11.7652835467
 40
0.7626323357
100
AcDbArc
 50
318.4241783824
 51
221.5758216077
  0
ARC
  5
241
100
AcDbEntity
  8
0
100
AcDbCircle
 62
9
  6
CONTINUOUS
 10
9.7953183383
 20
11.7652835467
 40
0.7242105216
100
AcDbArc
 50
321.9512703606
 51
218.0487296283
  0
ARC
  5
242
100
AcDbEntity
  8
0
100
AcDbCircle
 62
7
  6
CONTINUOUS
 10
9.7953183383
 20
11.7652835467
 40
0.64
100
AcDbArc
 50
332.9657142295
 51
207.0342857702
  0
ARC
  5
243
100
AcDbEntity
  8
0
100
AcDbCircle
 62
7
  6
CONTINUOUS
 10
9.7953183383
 20
11.7652835467
 40
0.57
100
AcDbArc
 50
0.0013510094
 51
179.9938956153
  0
ARC
  5
244
100
AcDbEntity
  8
0
100
AcDbCircle
 62
7
  6
CONTINUOUS
 10
11.735532142
 20
11.9444117326
 40
1.1
100
AcDbArc
 50
272.400422316
 51
313.2560721476
  0
ARC
  5
245
100
AcDbEntity
  8
0
100
AcDbCircle
 62
7
  6
CONTINUOUS
 10
11.735532142
 20
11.5861553608
 40
1.1
100
AcDbArc
 50
46.7439278524
 51
87.599577684
  0
ARC
  5
246
100
AcDbEntity
  8
0
100
AcDbCircle
 62
7
  6
CONTINUOUS
 10
11.7203183383
 20
11.7652835467
 40
0.8125
100
AcDbArc
 50
85.8356866517
 51
90.0
  0
ARC
  5
247
100
AcDbEntity
  8
0
100
AcDbCircle
 62
7
  6
CONTINUOUS
 10
11.7203183383
 20
11.7652835467
 40
0.8125
100
AcDbArc
 50
270.0
 51
274.1642878977
  0
ARC
  5
248
100
AcDbEntity
  8
0
100
AcDbCircle
 62
7
  6
CONTINUOUS
 10
12.9593183383
 20
11.7652835467
 40
0.6
100
AcDbArc
 50
340.1578181461
 51
19.8421818217
  0
ARC
  5
249
100
AcDbEntity
  8
0
100
AcDbCircle
 62
7
  6
CONTINUOUS
 10
13.0543183383
 20
11.7652835467
 40
0.467
100
AcDbArc
 50
239.4827264509
 51
321.4058881075
  0
ARC
  5
24A
100
AcDbEntity
  8
0
100
AcDbCircle
 62
7
  6
CONTINUOUS
 10
13.0543183383
 20
11.7652835467
 40
0.467
100
AcDbArc
 50
38.5941118925
 51
120.5172735491
  0
CIRCLE
  5
24B
100
AcDbEntity
  8
0
100
AcDbCircle
 62
7
  6
CONTINUOUS
 10
13.0543183383
 20
11.7652835467
 40
0.35
  0
ARC
  5
24C
100
AcDbEntity
  8
0
100
AcDbCircle
 62
7
  6
CONTINUOUS
 10
12.7460848891
 20
11.2423675488
 40
0.14
100
AcDbArc
 50
59.4827264509
 51
176.4506029585
  0
ARC
  5
24D
100
AcDbEntity
  8
0
100
AcDbCircle
 62
7
  6
CONTINUOUS
 10
12.7460848891
 20
12.2881995445
 40
0.14
100
AcDbArc
 50
183.5493970415
 51
300.5172735491
  0
ARC
  5
24E
100
AcDbEntity
  8
0
100
AcDbCircle
 62
7
  6
CONTINUOUS
 10
13.4329788631
 20
11.9552835467
 40
0.09
100
AcDbArc
 50
19.6401819394
 51
90.0
  0
ARC
  5
24F
100
AcDbEntity
  8
0
100
AcDbCircle
 62
7
  6
CONTINUOUS
 10
13.4329788631
 20
11.5752835467
 40
0.09
100
AcDbArc
 50
270.0
 51
340.3598180252
  0
ARC
  5
250
100
AcDbEntity
  8
0
100
AcDbCircle
 62
7
  6
CONTINUOUS
 10
12.5164684128
 20
11.2290907344
 40
0.09
100
AcDbArc
 50
252.442215746
 51
360.0
  0
ARC
  5
251
100
AcDbEntity
  8
0
100
AcDbCircle
 62
7
  6
CONTINUOUS
 10
12.5164684128
 20
12.301476359
 40
0.09
100
AcDbArc
 50
0.0
 51
107.557784254
  0
SPLINE
  5
252
100
AcDbEntity
  8
0
100
AcDbSpline
 62
7
  6
CONTINUOUS
 70
0
 71
3
 72
19
 73
15
 74
0
 42
0.0000001
 43
0.0000001
 44
0.0000000001
 40
0.0
 40
0.0
 40
0.0
 40
0.0
 40
0.0132487383
 40
0.029554367
 40
0.0513845942
 40
0.079799118
 40
0.1152695696
 40
0.1580324351
 40
0.2082192363
 40
0.2659090056
 40
0.4039524206
 40
0.5723204772
 40
0.7710198904
 40
1.0
 40
1.0
 40
1.0
 40
1.0
 10
11.7793183383
 20
10.8455291245
 30
0.0
 10
11.7793183383
 20
10.8455188195
 30
0.0
 10
11.7793261309
 20
10.8454956086
 30
0.0
 10
11.7793567829
 20
10.8454684739
 30
0.0
 10
11.7794031411
 20
10.8454449896
 30
0.0
 10
11.7794666701
 20
10.8454241524
 30
0.0
 10
11.7795476331
 20
10.845405813
 30
0.0
 10
11.7796463154
 20
10.8453900139
 30
0.0
 10
11.7797627636
 20
10.8453767896
 30
0.0
 10
11.7799534798
 20
10.8453617538
 30
0.0
 10
11.7802365807
 20
10.845351082
 30
0.0
 10
11.7806294924
 20
10.8453491133
 30
0.0
 10
11.78109306
 20
10.8453576411
 30
0.0
 10
11.7814255156
 20
10.8453694993
 30
0.0
 10
11.7816034625
 20
10.8453769591
 30
0.0
  0
SPLINE
  5
253
100
AcDbEntity
  8
0
100
AcDbSpline
 62
7
  6
CONTINUOUS
 70
0
 71
3
 72
21
 73
17
 74
0
 42
0.0000001
 43
0.0000001
 44
0.0000000001
 40
0.0
 40
0.0
 40
0.0
 40
0.0
 40
0.0639715498
 40
0.1275835261
 40
0.1908867307
 40
0.2539248532
 40
0.3167368541
 40
0.379357612
 40
0.4418169649
 40
0.5041405072
 40
0.5663508055
 40
0.6284679675
 40
0.6905094106
 40
0.7524905443
 40
0.8762876782
 40
1.0
 40
1.0
 40
1.0
 40
1.0
 10
10.365538544
 20
3.8574422065
 30
0.0
 10
10.3781618008
 20
3.84556311
 30
0.0
 10
10.4026693496
 20
3.8211504527
 30
0.0
 10
10.4372364501
 20
3.7826414474
 30
0.0
 10
10.4694876636
 20
3.7424962298
 30
0.0
 10
10.4994089907
 20
3.7008540674
 30
0.0
 10
10.5269890705
 20
3.6578460345
 30
0.0
 10
10.5522164841
 20
3.6135984238
 30
0.0
 10
10.5750802397
 20
3.5682333047
 30
0.0
 10
10.5955696439
 20
3.5218696927
 30
0.0
 10
10.6136746913
 20
3.4746237802
 30
0.0
 10
10.6293860173
 20
3.4266099525
 30
0.0
 10
10.642695511
 20
3.3779393485
 30
0.0
 10
10.657221009
 20
3.3123565062
 30
0.0
 10
10.6693547163
 20
3.2292406653
 30
0.0
 10
10.6725923082
 20
3.1621333243
 30
0.0
 10
10.6725923082
 20
3.1286121604
 30
0.0
  0
SPLINE
  5
254
100
AcDbEntity
  8
0
100
AcDbSpline
 62
7
  6
CONTINUOUS
 70
0
 71
3
 72
21
 73
17
 74
0
 42
0.0000001
 43
0.0000001
 44
0.0000000001
 40
0.0
 40
0.0
 40
0.0
 40
0.0
 40
0.1237118078
 40
0.2475085539
 40
0.3094897379
 40
0.3715312309
 40
0.433648488
 40
0.4958588989
 40
0.5581827147
 40
0.6206423055
 40
0.6832631739
 40
0.7460753839
 40
0.8091136394
 40
0.8724167607
 40
0.9360286033
 40
1.0
 40
1.0
 40
1.0
 40
1.0
 10
8.9180443683
 20
3.1286121604
 30
0.0
 10
8.9180443683
 20
3.1621241931
 30
0.0
 10
8.9212801783
 20
3.229213267
 30
0.0
 10
8.9334073284
 20
3.3123069844
 30
0.0
 10
8.9479249849
 20
3.3778730152
 30
0.0
 10
8.9612273805
 20
3.4265315708
 30
0.0
 10
8.9769303366
 20
3.4745339397
 30
0.0
 10
8.9950258231
 20
3.5217691082
 30
0.0
 10
9.0155044732
 20
3.5681227779
 30
0.0
 10
9.0383562945
 20
3.6134788255
 30
0.0
 10
9.0635706147
 20
3.6577183319
 30
0.0
 10
9.091136493
 20
3.7007193193
 30
0.0
 10
9.1210425085
 20
3.7423556124
 30
0.0
 10
9.1532772928
 20
3.7824962584
 30
0.0
 10
9.1878269351
 20
3.8210021218
 30
0.0
 10
9.2123222261
 20
3.8454138055
 30
0.0
 10
9.224939248
 20
3.8572926815
 30
0.0
  0
SPLINE
  5
255
100
AcDbEntity
  8
0
100
AcDbSpline
 62
7
  6
CONTINUOUS
 70
0
 71
3
 72
15
 73
11
 74
0
 42
0.0000001
 43
0.0000001
 44
0.0000000001
 40
0.0
 40
0.0
 40
0.0
 40
0.0
 40
0.1246889474
 40
0.2494089738
 40
0.3741910351
 40
0.4990645697
 40
0.6240576336
 40
0.7491961258
 40
0.8745034663
 40
1.0
 40
1.0
 40
1.0
 40
1.0
 10
9.1313183383
 20
3.4947689739
 30
0.0
 10
9.1313183383
 20
3.5091774524
 30
0.0
 10
9.1323224636
 20
3.538008075
 30
0.0
 10
9.1368336588
 20
3.5810452833
 30
0.0
 10
9.1443283303
 20
3.6236880743
 30
0.0
 10
9.1547707785
 20
3.6657381644
 30
0.0
 10
9.1681111995
 20
3.7070037254
 30
0.0
 10
9.18428671
 20
3.747296973
 30
0.0
 10
9.2032195279
 20
3.7864326219
 30
0.0
 10
9.2176121873
 20
3.8116187964
 30
0.0
 10
9.2252325286
 20
3.8239570535
 30
0.0
  0
SPLINE
  5
256
100
AcDbEntity
  8
0
100
AcDbSpline
 62
7
  6
CONTINUOUS
 70
0
 71
3
 72
15
 73
11
 74
0
 42
0.0000001
 43
0.0000001
 44
0.0000000001
 40
0.0
 40
0.0
 40
0.0
 40
0.0
 40
0.1254964798
 40
0.2508037822
 40
0.3759422524
 40
0.5009353105
 40
0.625808854
 40
0.75059094
 40
0.8753110028
 40
1.0
 40
1.0
 40
1.0
 40
1.0
 10
10.3654101037
 20
3.8239474095
 30
0.0
 10
10.3730299744
 20
3.8116094261
 30
0.0
 10
10.3874217356
 20
3.7864238442
 30
0.0
 10
10.4063533607
 20
3.7472892135
 30
0.0
 10
10.4225278428
 20
3.7069970924
 30
0.0
 10
10.4358674098
 20
3.6657327494
 30
0.0
 10
10.4463091865
 20
3.6236839503
 30
0.0
 10
10.4538033742
 20
3.5810425049
 30
0.0
 10
10.4583142779
 20
3.5380066772
 30
0.0
 10
10.4593183383
 20
3.5091769873
 30
0.0
 10
10.4593183383
 20
3.4947689739
 30
0.0
  0
SPLINE
  5
257
100
AcDbEntity
  8
0
100
AcDbSpline
 62
7
  6
CONTINUOUS
 70
0
 71
3
 72
69
 73
65
 74
0
 42
0.0000001
 43
0.0000001
 44
0.0000000001
 40
0.0
 40
0.0
 40
0.0
 40
0.0
 40
0.0154267799
 40
0.0308558898
 40
0.046288353
 40
0.0617265696
 40
0.0771721099
 40
0.0926267394
 40
0.1080920839
 40
0.1235696761
 40
0.1390609416
 40
0.1545671719
 40
0.1700895189
 40
0.1856289881
 40
0.2011864261
 40
0.216762505
 40
0.2323577171
 40
0.2479723761
 40
0.263606614
 40
0.2792603652
 40
0.2949333738
 40
0.3106252031
 40
0.3263352353
 40
0.3420626619
 40
0.357806507
 40
0.3735656383
 40
0.3893387706
 40
0.4051244726
 40
0.4209211909
 40
0.436727265
 40
0.4525409402
 40
0.4683603831
 40
0.5000000927
 40
0.5316398007
 40
0.5474592416
 40
0.5632729137
 40
0.579078984
 40
0.5948756978
 40
0.6106613946
 40
0.6264345209
 40
0.6421936456
 40
0.6579374836
 40
0.6736649025
 40
0.6893749266
 40
0.7050667476
 40
0.7207397473
 40
0.7363934895
 40
0.7520277185
 40
0.7676423684
 40
0.7832375714
 40
0.7988136414
 40
0.8143710707
 40
0.8299105315
 40
0.8454328706
 40
0.8609390934
 40
0.876430352
 40
0.8919079379
 40
0.9073732768
 40
0.9228279015
 40
0.9382734377
 40
0.953711651
 40
0.9691441121
 40
0.9845732205
 40
1.0
 40
1.0
 40
1.0
 40
1.0
 10
10.6993183383
 20
2.8151466396
 30
0.0
 10
10.6993183383
 20
2.8007753506
 30
0.0
 10
10.6985868959
 20
2.7720252405
 30
0.0
 10
10.6952987258
 20
2.7290117273
 30
0.0
 10
10.6898275264
 20
2.686209191
 30
0.0
 10
10.6821878475
 20
2.6437248625
 30
0.0
 10
10.6723989723
 20
2.6016624369
 30
0.0
 10
10.6604860836
 20
2.5601253481
 30
0.0
 10
10.6464796321
 20
2.5192151706
 30
0.0
 10
10.6304153383
 20
2.479031736
 30
0.0
 10
10.6123340143
 20
2.4396727835
 30
0.0
 10
10.592281405
 20
2.4012337331
 30
0.0
 10
10.5703080344
 20
2.3638074477
 30
0.0
 10
10.5464691146
 20
2.3274839487
 30
0.0
 10
10.5208242718
 20
2.2923502559
 30
0.0
 10
10.4934373563
 20
2.2584902085
 30
0.0
 10
10.4643762429
 20
2.2259842918
 30
0.0
 10
10.4337126305
 20
2.1949094688
 30
0.0
 10
10.4015219092
 20
2.1653389629
 30
0.0
 10
10.3678828803
 20
2.1373421893
 30
0.0
 10
10.3328775425
 20
2.1109846403
 30
0.0
 10
10.2965908779
 20
2.0863277658
 30
0.0
 10
10.2591106579
 20
2.0634288724
 30
0.0
 10
10.2205272819
 20
2.0423409444
 30
0.0
 10
10.1809334952
 20
2.0231126549
 30
0.0
 10
10.1404241815
 20
2.0057882775
 30
0.0
 10
10.0990961475
 20
1.9904076349
 30
0.0
 10
10.057047967
 20
1.9770060062
 30
0.0
 10
10.0143796407
 20
1.9656140039
 30
0.0
 10
9.9711928469
 20
1.9562576412
 30
0.0
 10
9.9275888416
 20
1.9489582493
 30
0.0
 10
9.869039761
 20
1.9419909262
 30
0.0
 10
9.7953180802
 20
1.9384960966
 30
0.0
 10
9.7215964025
 20
1.9419909616
 30
0.0
 10
9.6630473332
 20
1.9489583251
 30
0.0
 10
9.61944334
 20
1.9562577378
 30
0.0
 10
9.5762565608
 20
1.9656141181
 30
0.0
 10
9.5335882518
 20
1.9770061368
 30
0.0
 10
9.4915400925
 20
1.9904077842
 30
0.0
 10
9.4502120835
 20
2.0057884461
 30
0.0
 10
9.4097027942
 20
2.0231128335
 30
0.0
 10
9.370109033
 20
2.04234113
 30
0.0
 10
9.331525684
 20
2.0634290628
 30
0.0
 10
9.2940454941
 20
2.0863279624
 30
0.0
 10
9.2577588601
 20
2.11098484
 30
0.0
 10
9.2227535502
 20
2.1373423855
 30
0.0
 10
9.1891145487
 20
2.165339153
 30
0.0
 10
9.1569238545
 20
2.1949096511
 30
0.0
 10
9.1262602705
 20
2.2259844667
 30
0.0
 10
9.0971991833
 20
2.2584903728
 30
0.0
 10
9.0698122901
 20
2.2923504061
 30
0.0
 10
9.0441674677
 20
2.3274840839
 30
0.0
 10
9.0203285667
 20
2.3638075675
 30
0.0
 10
8.9983552143
 20
2.4012338378
 30
0.0
 10
8.9783026198
 20
2.4396728724
 30
0.0
 10
8.9602213073
 20
2.4790318089
 30
0.0
 10
8.9441570229
 20
2.5192152283
 30
0.0
 10
8.9301505789
 20
2.5601253921
 30
0.0
 10
8.9182376964
 20
2.6016624685
 30
0.0
 10
8.9084488251
 20
2.6437248834
 30
0.0
 10
8.9008091483
 20
2.6862092033
 30
0.0
 10
8.8953379502
 20
2.7290117332
 30
0.0
 10
8.8920497806
 20
2.7720252425
 30
0.0
 10
8.8913183383
 20
2.8007753509
 30
0.0
 10
8.8913183383
 20
2.8151466396
 30
0.0
  0
SPLINE
  5
258
100
AcDbEntity
  8
0
100
AcDbSpline
 62
7
  6
CONTINUOUS
 70
0
 71
3
 72
69
 73
65
 74
0
 42
0.0000001
 43
0.0000001
 44
0.0000000001
 40
0.0
 40
0.0
 40
0.0
 40
0.0
 40
0.015377645
 40
0.0307581455
 40
0.0461429686
 40
0.061535027
 40
0.0769363446
 40
0.0923491317
 40
0.1077754301
 40
0.123217154
 40
0.1386760759
 40
0.1541537966
 40
0.169651736
 40
0.1851711211
 40
0.2007129735
 40
0.216278096
 40
0.2318670656
 40
0.2474802313
 40
0.2631177108
 40
0.2787793838
 40
0.2944648965
 40
0.3101736687
 40
0.3259048973
 40
0.341657557
 40
0.3574304186
 40
0.373222062
 40
0.3890308859
 40
0.4048551199
 40
0.420692847
 40
0.4365420232
 40
0.4524004943
 40
0.4682660153
 40
0.5000000478
 40
0.5317340794
 40
0.5475995993
 40
0.5634580688
 40
0.579307243
 40
0.5951449678
 40
0.6109691991
 40
0.6267780199
 40
0.6425696599
 40
0.6583425178
 40
0.6740951735
 40
0.689826398
 40
0.7055351658
 40
0.721220674
 40
0.7368823424
 40
0.7525198172
 40
0.7681329782
 40
0.7837219431
 40
0.799287061
 40
0.814828909
 40
0.8303482898
 40
0.8458462251
 40
0.861323942
 40
0.8767828604
 40
0.892224581
 40
0.9076508765
 40
0.9230636612
 40
0.9384649768
 40
0.9538570335
 40
0.9692418555
 40
0.9846223552
 40
1.0
 40
1.0
 40
1.0
 40
1.0
 10
10.6957837888
 20
2.8709147006
 30
0.0
 10
10.6957837888
 20
2.8566704155
 30
0.0
 10
10.6950570628
 20
2.8281738611
 30
0.0
 10
10.6917900729
 20
2.7855390915
 30
0.0
 10
10.6863538782
 20
2.7431117105
 30
0.0
 10
10.6787626467
 20
2.700997237
 30
0.0
 10
10.6690350882
 20
2.659297699
 30
0.0
 10
10.6571956992
 20
2.6181149806
 30
0.0
 10
10.6432741183
 20
2.5775492164
 30
0.0
 10
10.6273051468
 20
2.5376989368
 30
0.0
 10
10.6093285977
 20
2.4986607261
 30
0.0
 10
10.5893891521
 20
2.4605290053
 30
0.0
 10
10.5675362377
 20
2.4233957982
 30
0.0
 10
10.5438239545
 20
2.3873504535
 30
0.0
 10
10.5183108166
 20
2.352479486
 30
0.0
 10
10.4910595877
 20
2.3188663865
 30
0.0
 10
10.4621370999
 20
2.2865914429
 30
0.0
 10
10.4316140795
 20
2.2557315599
 30
0.0
 10
10.3995650219
 20
2.2263600301
 30
0.0
 10
10.3660679157
 20
2.1985464556
 30
0.0
 10
10.3312040496
 20
2.1723566083
 30
0.0
 10
10.295057805
 20
2.1478523032
 30
0.0
 10
10.2577164708
 20
2.1250912655
 30
0.0
 10
10.2192700726
 20
2.1041269457
 30
0.0
 10
10.179811094
 20
2.085008512
 30
0.0
 10
10.1394342722
 20
2.0677807425
 30
0.0
 10
10.0982363735
 20
2.0524839594
 30
0.0
 10
10.0563160309
 20
2.0391539131
 30
0.0
 10
10.0137733929
 20
2.0278216586
 30
0.0
 10
9.9707103654
 20
2.0185136043
 30
0.0
 10
9.9272285126
 20
2.0112514177
 30
0.0
 10
9.8688392334
 20
2.0043191034
 30
0.0
 10
9.7953182062
 20
2.0008419059
 30
0.0
 10
9.7217971805
 20
2.0043191214
 30
0.0
 10
9.663407907
 20
2.0112514564
 30
0.0
 10
9.6199260605
 20
2.0185136537
 30
0.0
 10
9.5768630405
 20
2.027821717
 30
0.0
 10
9.5343204114
 20
2.0391539799
 30
0.0
 10
9.4924000796
 20
2.0524840354
 30
0.0
 10
9.4512021938
 20
2.0677808285
 30
0.0
 10
9.4108253846
 20
2.0850086032
 30
0.0
 10
9.371366419
 20
2.1041270405
 30
0.0
 10
9.3329200346
 20
2.1250913627
 30
0.0
 10
9.2955787156
 20
2.1478524032
 30
0.0
 10
9.259432487
 20
2.1723567102
 30
0.0
 10
9.2245686353
 20
2.1985465557
 30
0.0
 10
9.1910715431
 20
2.226360127
 30
0.0
 10
9.1590224993
 20
2.2557316528
 30
0.0
 10
9.1284994933
 20
2.2865915317
 30
0.0
 10
9.099577019
 20
2.3188664701
 30
0.0
 10
9.0723258015
 20
2.3524795624
 30
0.0
 10
9.046812674
 20
2.3873505223
 30
0.0
 10
9.0231004005
 20
2.4233958591
 30
0.0
 10
9.0012474952
 20
2.4605290585
 30
0.0
 10
8.9813080573
 20
2.4986607713
 30
0.0
 10
8.963331514
 20
2.5376989738
 30
0.0
 10
8.9473625473
 20
2.5775492457
 30
0.0
 10
8.9334409702
 20
2.6181150028
 30
0.0
 10
8.9216015844
 20
2.659297715
 30
0.0
 10
8.9118740278
 20
2.7009972476
 30
0.0
 10
8.9042827974
 20
2.7431117167
 30
0.0
 10
8.8988466034
 20
2.7855390945
 30
0.0
 10
8.8955796137
 20
2.8281738621
 30
0.0
 10
8.8948528878
 20
2.8566704156
 30
0.0
 10
8.8948528878
 20
2.8709147006
 30
0.0
  0
SPLINE
  5
259
100
AcDbEntity
  8
0
100
AcDbSpline
 62
7
  6
CONTINUOUS
 70
0
 71
3
 72
25
 73
21
 74
0
 42
0.0000001
 43
0.0000001
 44
0.0000000001
 40
0.0
 40
0.0
 40
0.0
 40
0.0
 40
0.0659845046
 40
0.131094574
 40
0.1954343669
 40
0.259116678
 40
0.322249408
 40
0.3849287001
 40
0.4472386101
 40
0.5092495413
 40
0.5710208726
 40
0.6326016071
 40
0.6940327769
 40
0.7247074083
 40
0.755356917
 40
0.8165862226
 40
0.8777543896
 40
0.9083249986
 40
0.9388904272
 40
1.0
 40
1.0
 40
1.0
 40
1.0
 10
9.4612362403
 20
2.2403578753
 30
0.0
 10
9.4392416255
 20
2.2503848541
 30
0.0
 10
9.3963855588
 20
2.2722122252
 30
0.0
 10
9.3354847165
 20
2.3099998008
 30
0.0
 10
9.27853305
 20
2.3521070836
 30
0.0
 10
9.2256173888
 20
2.3980787795
 30
0.0
 10
9.1767864446
 20
2.4475105916
 30
0.0
 10
9.1320766332
 20
2.5000351995
 30
0.0
 10
9.0915178774
 20
2.555314745
 30
0.0
 10
9.055137735
 20
2.6130334053
 30
0.0
 10
9.0229625401
 20
2.6728922868
 30
0.0
 10
8.9950181031
 20
2.7346026716
 30
0.0
 10
8.9752645335
 20
2.7873723716
 30
0.0
 10
8.961607629
 20
2.8302252187
 30
0.0
 10
8.9493887227
 20
2.8734333647
 30
0.0
 10
8.9367907962
 20
2.9281095276
 30
0.0
 10
8.9277793028
 20
2.9834596927
 30
0.0
 10
8.9227320356
 20
3.0279858538
 30
0.0
 10
8.9191270235
 20
3.0726287855
 30
0.0
 10
8.9180443683
 20
3.1062256455
 30
0.0
 10
8.9180443683
 20
3.1286121604
 30
0.0
  0
SPLINE
  5
25A
100
AcDbEntity
  8
0
100
AcDbSpline
 62
7
  6
CONTINUOUS
 70
0
 71
3
 72
28
 73
24
 74
0
 42
0.0000001
 43
0.0000001
 44
0.0000000001
 40
0.0
 40
0.0
 40
0.0
 40
0.0
 40
0.0611063356
 40
0.1222315122
 40
0.1833966609
 40
0.2446231415
 40
0.2752712651
 40
0.3059445151
 40
0.3673730337
 40
0.4289511387
 40
0.4598134565
 40
0.490729101
 40
0.5527376103
 40
0.615045241
 40
0.646337777
 40
0.6777328935
 40
0.7408633571
 40
0.8045435795
 40
0.8688813152
 40
0.9013387422
 40
0.9340042991
 40
0.9668849037
 40
1.0
 40
1.0
 40
1.0
 40
1.0
 10
10.6725923082
 20
3.1286121604
 30
0.0
 10
10.6725923082
 20
3.1062259207
 30
0.0
 10
10.6711492149
 20
3.0614331818
 30
0.0
 10
10.6646575435
 20
2.9945154201
 30
0.0
 10
10.6538462494
 20
2.9281119747
 30
0.0
 10
10.6412484756
 20
2.8734353469
 30
0.0
 10
10.6290297306
 20
2.8302275253
 30
0.0
 10
10.6153729235
 20
2.7873746373
 30
0.0
 10
10.5956200466
 20
2.734606013
 30
0.0
 10
10.5723481375
 20
2.6832142849
 30
0.0
 10
10.5516298071
 20
2.6430432697
 30
0.0
 10
10.5294697757
 20
2.6034683669
 30
0.0
 10
10.4991204786
 20
2.5553168464
 30
0.0
 10
10.4653667823
 20
2.5093126443
 30
0.0
 10
10.4363164497
 20
2.4739036368
 30
0.0
 10
10.4057924073
 20
2.4393539252
 30
0.0
 10
10.3650193023
 20
2.3980787245
 30
0.0
 10
10.3121056918
 20
2.3521086378
 30
0.0
 10
10.2647775391
 20
2.3171167434
 30
0.0
 10
10.2249890901
 20
2.2912843327
 30
0.0
 10
10.1940832117
 20
2.2729900405
 30
0.0
 10
10.1622232603
 20
2.2558990798
 30
0.0
 10
10.1404391403
 20
2.2453902368
 30
0.0
 10
10.1294004362
 20
2.2403578753
 30
0.0
  0
SPLINE
  5
25B
100
AcDbEntity
  8
0
100
AcDbSpline
 62
7
  6
CONTINUOUS
 70
0
 71
3
 72
62
 73
58
 74
0
 42
0.0000001
 43
0.0000001
 44
0.0000000001
 40
0.0
 40
0.0
 40
0.0
 40
0.0
 40
0.0153955412
 40
0.0307939812
 40
0.0461962305
 40
0.0616052411
 40
0.0770228519
 40
0.0924510867
 40
0.1078918699
 40
0.123346974
 40
0.1388180538
 40
0.1543066006
 40
0.1698139425
 40
0.1853412334
 40
0.2008894353
 40
0.2164593022
 40
0.2320513836
 40
0.2476660205
 40
0.2633033363
 40
0.2789632271
 40
0.294645375
 40
0.3103492517
 40
0.3260741179
 40
0.3418190233
 40
0.357582827
 40
0.3733642086
 40
0.4049645945
 40
0.4366154805
 40
0.468301168
 40
0.5000045973
 40
0.5317080253
 40
0.5633937089
 40
0.5950445887
 40
0.6266449661
 40
0.6581810864
 40
0.6739259861
 40
0.6896508462
 40
0.7053547164
 40
0.7210368577
 40
0.7366967418
 40
0.7523340507
 40
0.7679486807
 40
0.7835407553
 40
0.7991106154
 40
0.8146588108
 40
0.8301860954
 40
0.8456934314
 40
0.8611819725
 40
0.8766530471
 40
0.8921081465
 40
0.9075489255
 40
0.9229771567
 40
0.9383947644
 40
0.9538037726
 40
0.9692060202
 40
0.984604459
 40
1.0
 40
1.0
 40
1.0
 40
1.0
 10
10.4790286297
 20
3.4459455303
 30
0.0
 10
10.4790286297
 20
3.4351117532
 30
0.0
 10
10.4784762933
 20
3.4134381054
 30
0.0
 10
10.4759934547
 20
3.3810115563
 30
0.0
 10
10.4718620458
 20
3.3487431635
 30
0.0
 10
10.4660930176
 20
3.3167135352
 30
0.0
 10
10.4587006159
 20
3.2850003858
 30
0.0
 10
10.4497036805
 20
3.2536813924
 30
0.0
 10
10.4391249405
 20
3.2228328613
 30
0.0
 10
10.4269909797
 20
3.1925298495
 30
0.0
 10
10.4133321983
 20
3.1628459349
 30
0.0
 10
10.3981828402
 20
3.1338529461
 30
0.0
 10
10.3815807396
 20
3.1056208423
 30
0.0
 10
10.3635671755
 20
3.0782175607
 30
0.0
 10
10.3441867432
 20
3.0517088834
 30
0.0
 10
10.3234873804
 20
3.0261581733
 30
0.0
 10
10.3015200871
 20
3.0016263155
 30
0.0
 10
10.2783387582
 20
2.9781716122
 30
0.0
 10
10.2540000427
 20
2.9558496865
 30
0.0
 10
10.228563329
 20
2.9347132271
 30
0.0
 10
10.202090463
 20
2.9148119894
 30
0.0
 10
10.1746456032
 20
2.8961927363
 30
0.0
 10
10.1462949666
 20
2.8788991396
 30
0.0
 10
10.1171071816
 20
2.8629716473
 30
0.0
 10
10.0871515021
 20
2.8484471087
 30
0.0
 10
10.0462730106
 20
2.8309920217
 30
0.0
 10
9.9936052788
 20
2.8128430831
 30
0.0
 10
9.9285660093
 20
2.7971543002
 30
0.0
 10
9.8622592161
 20
2.7876821832
 30
0.0
 10
9.7953182348
 20
2.7845151604
 30
0.0
 10
9.7283769946
 20
2.7876822842
 30
0.0
 10
9.6620710013
 20
2.7971540608
 30
0.0
 10
9.5970288669
 20
2.8128442583
 30
0.0
 10
9.5338728434
 20
2.8346059192
 30
0.0
 10
9.4832734885
 20
2.857654106
 30
0.0
 10
9.4443419394
 20
2.8788990798
 30
0.0
 10
9.4159907878
 20
2.8961928939
 30
0.0
 10
9.3885460874
 20
2.9148120909
 30
0.0
 10
9.3620731989
 20
2.9347133412
 30
0.0
 10
9.3366365109
 20
2.9558497929
 30
0.0
 10
9.3122978101
 20
2.9781717175
 30
0.0
 10
9.2891164972
 20
3.0016264153
 30
0.0
 10
9.2671492171
 20
3.0261582658
 30
0.0
 10
9.2464498671
 20
3.051708968
 30
0.0
 10
9.2270694482
 20
3.0782176381
 30
0.0
 10
9.2090558951
 20
3.105620911
 30
0.0
 10
9.1924538034
 20
3.1338530053
 30
0.0
 10
9.1773044532
 20
3.1628459849
 30
0.0
 10
9.1636456795
 20
3.1925298909
 30
0.0
 10
9.1515117242
 20
3.2228328943
 30
0.0
 10
9.1409329882
 20
3.2536814173
 30
0.0
 10
9.131936056
 20
3.2850004036
 30
0.0
 10
9.1245436566
 20
3.3167135471
 30
0.0
 10
9.1187746298
 20
3.3487431705
 30
0.0
 10
9.1146432216
 20
3.3810115597
 30
0.0
 10
9.1121603832
 20
3.4134381065
 30
0.0
 10
9.1116080468
 20
3.4351117533
 30
0.0
 10
9.1116080468
 20
3.4459455303
 30
0.0
  0
SPLINE
  5
25C
100
AcDbEntity
  8
0
100
AcDbSpline
 62
7
  6
CONTINUOUS
 70
0
 71
3
 72
59
 73
55
 74
0
 42
0.0000001
 43
0.0000001
 44
0.0000000001
 40
0.0
 40
0.0
 40
0.0
 40
0.0
 40
0.0154100564
 40
0.0308229462
 40
0.0462393048
 40
0.061662006
 40
0.0770927616
 40
0.0925334485
 40
0.1079858833
 40
0.1234517249
 40
0.1389325274
 40
0.1544296957
 40
0.1699444811
 40
0.1854779713
 40
0.2010310782
 40
0.2166045209
 40
0.2321988245
 40
0.2478143171
 40
0.2634511258
 40
0.2791091666
 40
0.294788149
 40
0.310487583
 40
0.3419357188
 40
0.3734550187
 40
0.4050349231
 40
0.4366624885
 40
0.4683229106
 40
0.5000000882
 40
0.5316772642
 40
0.5633376814
 40
0.594965239
 40
0.6265451327
 40
0.6580644195
 40
0.6895125404
 40
0.7052119663
 40
0.7208909404
 40
0.7365489726
 40
0.7521857728
 40
0.7678012567
 40
0.7833955516
 40
0.7989689858
 40
0.8145220845
 40
0.8300555668
 40
0.8455703446
 40
0.8610675058
 40
0.8765483018
 40
0.8920141374
 40
0.9074665669
 40
0.9229072492
 40
0.9383380009
 40
0.9537606991
 40
0.9691770556
 40
0.9845899439
 40
1.0
 40
1.0
 40
1.0
 40
1.0
 10
10.4593183383
 20
3.4947689739
 30
0.0
 10
10.4593183383
 20
3.4842325424
 30
0.0
 10
10.4587815181
 20
3.4631538054
 30
0.0
 10
10.4563684997
 20
3.4316174599
 30
0.0
 10
10.4523532957
 20
3.4002352774
 30
0.0
 10
10.4467466196
 20
3.3690858697
 30
0.0
 10
10.4395624171
 20
3.3382449411
 30
0.0
 10
10.4308191245
 20
3.3077881719
 30
0.0
 10
10.4205389653
 20
3.2777898946
 30
0.0
 10
10.4087478697
 20
3.2483232108
 30
0.0
 10
10.3954755822
 20
3.2194597297
 30
0.0
 10
10.3807555774
 20
3.1912693236
 30
0.0
 10
10.3646247595
 20
3.1638200478
 30
0.0
 10
10.347123353
 20
3.1371779882
 30
0.0
 10
10.3282949292
 20
3.111407019
 30
0.0
 10
10.3081862354
 20
3.0865686635
 30
0.0
 10
10.2868469212
 20
3.0627220531
 30
0.0
 10
10.2643294395
 20
3.0399238241
 30
0.0
 10
10.2406889699
 20
3.0182277949
 30
0.0
 10
10.2159835165
 20
2.9976851519
 30
0.0
 10
10.1902723152
 20
2.9783437172
 30
0.0
 10
10.1547203084
 20
2.954207966
 30
0.0
 10
10.1080658535
 20
2.927258589
 30
0.0
 10
10.0491541507
 20
2.9004078413
 30
0.0
 10
9.9878302278
 20
2.8792624763
 30
0.0
 10
9.9246816837
 20
2.8640193648
 30
0.0
 10
9.8603075526
 20
2.8548171878
 30
0.0
 10
9.795318158
 20
2.8517405824
 30
0.0
 10
9.7303287687
 20
2.8548172236
 30
0.0
 10
9.6659546511
 20
2.8640194277
 30
0.0
 10
9.6028061322
 20
2.8792625739
 30
0.0
 10
9.5414822369
 20
2.9004079526
 30
0.0
 10
9.482570574
 20
2.9272587238
 30
0.0
 10
9.4359161475
 20
2.9542081
 30
0.0
 10
9.4003641691
 20
2.978343855
 30
0.0
 10
9.3746529894
 20
2.9976852898
 30
0.0
 10
9.3499475543
 20
3.0182279276
 30
0.0
 10
9.3263071031
 20
3.0399239508
 30
0.0
 10
9.3037896422
 20
3.0627221755
 30
0.0
 10
9.2824503454
 20
3.0865687777
 30
0.0
 10
9.2623416667
 20
3.1114071231
 30
0.0
 10
9.2435132574
 20
3.1371780821
 30
0.0
 10
9.2260118661
 20
3.1638201322
 30
0.0
 10
9.2098810592
 20
3.1912693965
 30
0.0
 10
9.1951610638
 20
3.2194597911
 30
0.0
 10
9.181888785
 20
3.2483232614
 30
0.0
 10
9.1700976969
 20
3.2777899351
 30
0.0
 10
9.1598175425
 20
3.3077882025
 30
0.0
 10
9.1510742537
 20
3.3382449631
 30
0.0
 10
9.1438900541
 20
3.3690858842
 30
0.0
 10
9.1382833797
 20
3.400235286
 30
0.0
 10
9.1342681765
 20
3.431617464
 30
0.0
 10
9.1318551584
 20
3.4631538069
 30
0.0
 10
9.1313183383
 20
3.4842325426
 30
0.0
 10
9.1313183383
 20
3.4947689739
 30
0.0
  0
SPLINE
  5
25D
100
AcDbEntity
  8
0
100
AcDbSpline
 62
7
  6
CONTINUOUS
 70
0
 71
3
 72
19
 73
15
 74
0
 42
0.0000001
 43
0.0000001
 44
0.0000000001
 40
0.0
 40
0.0
 40
0.0
 40
0.0
 40
0.2289801096
 40
0.4276795228
 40
0.5960475794
 40
0.7340909944
 40
0.7917807637
 40
0.8419675649
 40
0.8847304304
 40
0.920200882
 40
0.9486154058
 40
0.970445633
 40
0.9867512617
 40
1.0
 40
1.0
 40
1.0
 40
1.0
 10
11.7816034625
 20
12.6851901342
 30
0.0
 10
11.7814255156
 20
12.6851975941
 30
0.0
 10
11.78109306
 20
12.6852094523
 30
0.0
 10
11.7806294924
 20
12.68521798
 30
0.0
 10
11.7802365807
 20
12.6852160113
 30
0.0
 10
11.7799534798
 20
12.6852053396
 30
0.0
 10
11.7797627636
 20
12.6851903038
 30
0.0
 10
11.7796463154
 20
12.6851770795
 30
0.0
 10
11.7795476331
 20
12.6851612804
 30
0.0
 10
11.7794666701
 20
12.685142941
 30
0.0
 10
11.7794031411
 20
12.6851221038
 30
0.0
 10
11.7793567829
 20
12.6850986195
 30
0.0
 10
11.7793261309
 20
12.6850714848
 30
0.0
 10
11.7793183383
 20
12.6850482739
 30
0.0
 10
11.7793183383
 20
12.6850379688
 30
0.0
  0
SPLINE
  5
25E
100
AcDbEntity
  8
0
100
AcDbSpline
 62
9
  6
CONTINUOUS
 70
0
 71
3
 72
23
 73
19
 74
0
 42
0.0000001
 43
0.0000001
 44
0.0000000001
 40
0.0
 40
0.0
 40
0.0
 40
0.0
 40
0.0622546983
 40
0.1246044711
 40
0.1870378964
 40
0.2495425728
 40
0.3121052675
 40
0.3747120726
 40
0.4373485701
 40
0.4999999996
 40
0.5626514292
 40
0.6252879267
 40
0.6878947319
 40
0.7504574266
 40
0.8129621032
 40
0.8753955285
 40
0.9377453016
 40
1.0
 40
1.0
 40
1.0
 40
1.0
 10
10.1294004176
 20
2.2403579011
 30
0.0
 10
10.1163949619
 20
2.2344289162
 30
0.0
 10
10.0900381196
 20
2.2232627968
 30
0.0
 10
10.0496356828
 20
2.2086553417
 30
0.0
 10
10.008452068
 20
2.1962181668
 30
0.0
 10
9.9666151012
 20
2.1859900487
 30
0.0
 10
9.9242526982
 20
2.1780021543
 30
0.0
 10
9.8814948975
 20
2.1722789942
 30
0.0
 10
9.8384728066
 20
2.1688380727
 30
0.0
 10
9.7953183736
 20
2.1676899266
 30
0.0
 10
9.7521639405
 20
2.168838069
 30
0.0
 10
9.7091418492
 20
2.1722789867
 30
0.0
 10
9.666384048
 20
2.178002143
 30
0.0
 10
9.6240216443
 20
2.1859900338
 30
0.0
 10
9.5821846765
 20
2.1962181482
 30
0.0
 10
9.5410010605
 20
2.2086553196
 30
0.0
 10
9.5005986224
 20
2.2232627712
 30
0.0
 10
9.474241779
 20
2.2344288883
 30
0.0
 10
9.4612363227
 20
2.240357872
 30
0.0
  0
SPLINE
  5
25F
100
AcDbEntity
  8
0
100
AcDbSpline
 62
9
  6
CONTINUOUS
 70
0
 71
3
 72
27
 73
23
 74
0
 42
0.0000001
 43
0.0000001
 44
0.0000000001
 40
0.0
 40
0.0
 40
0.0
 40
0.0
 40
0.0782424283
 40
0.1561594719
 40
0.2334019185
 40
0.3095722741
 40
0.3842456311
 40
0.4569879696
 40
0.527368906
 40
0.5949831964
 40
0.6594555247
 40
0.7204448878
 40
0.7776618202
 40
0.8308643229
 40
0.8558977157
 40
0.8798534155
 40
0.9027117397
 40
0.9244555324
 40
0.945069299
 40
0.9645394929
 40
0.9828533276
 40
1.0
 40
1.0
 40
1.0
 40
1.0
 10
10.8008918027
 20
11.7652835467
 30
0.0
 10
10.800907681
 20
11.739192897
 30
0.0
 10
10.7991268599
 20
11.6871009996
 30
0.0
 10
10.7911004184
 20
11.6096274798
 30
0.0
 10
10.777930974
 20
11.533560113
 30
0.0
 10
10.7599367718
 20
11.459604015
 30
0.0
 10
10.7375472377
 20
11.3884323303
 30
0.0
 10
10.711288194
 20
11.3206657772
 30
0.0
 10
10.68177091
 20
11.2568422621
 30
0.0
 10
10.6496643455
 20
11.1974021642
 30
0.0
 10
10.6156751703
 20
11.1426770835
 30
0.0
 10
10.5805222549
 20
11.0928851039
 30
0.0
 10
10.5449106123
 20
11.0481385471
 30
0.0
 10
10.5148293928
 20
11.0144106611
 30
0.0
 10
10.4910942935
 20
10.9899543198
 30
0.0
 10
10.4739427994
 20
10.9732220469
 30
0.0
 10
10.4571485565
 20
10.957707011
 30
0.0
 10
10.4407784747
 20
10.9433870307
 30
0.0
 10
10.424895645
 20
10.9302377961
 30
0.0
 10
10.4095598555
 20
10.9182328293
 30
0.0
 10
10.3948275838
 20
10.907344278
 30
0.0
 10
10.3851218238
 20
10.9005866396
 30
0.0
 10
10.3803807579
 20
10.8973906173
 30
0.0
  0
SPLINE
  5
260
100
AcDbEntity
  8
0
100
AcDbSpline
 62
9
  6
CONTINUOUS
 70
0
 71
3
 72
29
 73
25
 74
0
 42
0.0000001
 43
0.0000001
 44
0.0000000001
 40
0.0
 40
0.0
 40
0.0
 40
0.0
 40
0.0637462968
 40
0.1274442886
 40
0.1910495281
 40
0.2545191868
 40
0.3178158737
 40
0.3809085732
 40
0.4437738398
 40
0.5063967546
 40
0.5687716073
 40
0.6309021965
 40
0.6618893362
 40
0.692821167
 40
0.7237007648
 40
0.7545317263
 40
0.7853181268
 40
0.8160644918
 40
0.8467757572
 40
0.8774572095
 40
0.9081144339
 40
0.9387532687
 40
0.9693797417
 40
1.0
 40
1.0
 40
1.0
 40
1.0
 10
9.7953183383
 20
3.0879161458
 30
0.0
 10
9.7766742515
 20
3.0879161458
 30
0.0
 10
9.7393762884
 20
3.0896745838
 30
0.0
 10
9.6839792381
 20
3.0975633289
 30
0.0
 10
9.6296472808
 20
3.1106271838
 30
0.0
 10
9.5769090866
 20
3.1287411943
 30
0.0
 10
9.5262702617
 20
3.1517317047
 30
0.0
 10
9.4782186414
 20
3.1793786498
 30
0.0
 10
9.4332168006
 20
3.2114164698
 30
0.0
 10
9.3916981268
 20
3.2475388706
 30
0.0
 10
9.3540648108
 20
3.2873957273
 30
0.0
 10
9.3262107922
 20
3.3234482597
 30
0.0
 10
9.3062297768
 20
3.3537464973
 30
0.0
 10
9.2924324004
 20
3.3771327493
 30
0.0
 10
9.279846939
 20
3.4011406404
 30
0.0
 10
9.2685031927
 20
3.4257129945
 30
0.0
 10
9.2584287911
 20
3.4507904758
 30
0.0
 10
9.2496479113
 20
3.4763126592
 30
0.0
 10
9.2421817121
 20
3.5022180142
 30
0.0
 10
9.2360483039
 20
3.5284441549
 30
0.0
 10
9.2312624954
 20
3.5549277947
 30
0.0
 10
9.2278357448
 20
3.5816053262
 30
0.0
 10
9.2257763295
 20
3.6084115321
 30
0.0
 10
9.2253183841
 20
3.6263279401
 30
0.0
 10
9.2253183626
 20
3.6352835467
 30
0.0
  0
SPLINE
  5
261
100
AcDbEntity
  8
0
100
AcDbSpline
 62
9
  6
CONTINUOUS
 70
0
 71
3
 72
47
 73
43
 74
0
 42
0.0000001
 43
0.0000001
 44
0.0000000001
 40
0.0
 40
0.0
 40
0.0
 40
0.0
 40
0.0466011216
 40
0.0930800218
 40
0.139302214
 40
0.1851477004
 40
0.2304933338
 40
0.2752202394
 40
0.3192156638
 40
0.3623731471
 40
0.4045945293
 40
0.4457903675
 40
0.4858806738
 40
0.5247958319
 40
0.5624759271
 40
0.5988705394
 40
0.633938945
 40
0.6676484185
 40
0.6999723758
 40
0.730889549
 40
0.760381653
 40
0.7884318257
 40
0.8150218634
 40
0.8401294018
 40
0.8637255876
 40
0.8749462215
 40
0.8857733953
 40
0.9062182259
 40
0.9158228342
 40
0.9250039899
 40
0.9337531556
 40
0.9420617307
 40
0.949921626
 40
0.9573291505
 40
0.9642863417
 40
0.9707979617
 40
0.9768610962
 40
0.98245732
 40
0.9875690282
 40
0.9921879316
 40
0.9963228742
 40
1.0
 40
1.0
 40
1.0
 40
1.0
 10
11.0223388401
 20
11.7652835467
 30
0.0
 10
11.0222712215
 20
11.7493096694
 30
0.0
 10
11.0218187289
 20
11.7174041269
 30
0.0
 10
11.0201384422
 20
11.6696798437
 30
0.0
 10
11.0174042187
 20
11.6222630512
 30
0.0
 10
11.0135649977
 20
11.5753121754
 30
0.0
 10
11.0085874724
 20
11.5289832322
 30
0.0
 10
11.0024472677
 20
11.4834332567
 30
0.0
 10
10.9951328959
 20
11.4388163844
 30
0.0
 10
10.9866513217
 20
11.3952807831
 30
0.0
 10
10.9770232953
 20
11.3529674081
 30
0.0
 10
10.966279647
 20
11.3120089147
 30
0.0
 10
10.9544589047
 20
11.2725292913
 30
0.0
 10
10.9416202598
 20
11.2346387186
 30
0.0
 10
10.9278293937
 20
11.198436262
 30
0.0
 10
10.9131578552
 20
11.1640100711
 30
0.0
 10
10.8976844005
 20
11.1314369589
 30
0.0
 10
10.8814997985
 20
11.1007802784
 30
0.0
 10
10.8647046319
 20
11.0720908482
 30
0.0
 10
10.8474101422
 20
11.045406567
 30
0.0
 10
10.8297329613
 20
11.0207557037
 30
0.0
 10
10.8117950814
 20
10.9981591152
 30
0.0
 10
10.7937310218
 20
10.9776258073
 30
0.0
 10
10.7756836566
 20
10.9591588431
 30
0.0
 10
10.7605414114
 20
10.9452621104
 30
0.0
 10
10.7485670731
 20
10.9351886706
 30
0.0
 10
10.7371530286
 20
10.9261376547
 30
0.0
 10
10.7257966433
 20
10.9179122976
 30
0.0
 10
10.7145364322
 20
10.9105573435
 30
0.0
 10
10.7064671362
 20
10.9056577179
 30
0.0
 10
10.6986210653
 20
10.9012567228
 30
0.0
 10
10.6910220342
 20
10.8973524484
 30
0.0
 10
10.6836932864
 20
10.8939414777
 30
0.0
 10
10.6766533251
 20
10.891023447
 30
0.0
 10
10.6699165678
 20
10.8886009032
 30
0.0
 10
10.6634995689
 20
10.8866780943
 30
0.0
 10
10.6574317234
 20
10.8852535802
 30
0.0
 10
10.6517558851
 20
10.8843113984
 30
0.0
 10
10.6465178462
 20
10.8838393376
 30
0.0
 10
10.6417574236
 20
10.8838275169
 30
0.0
 10
10.6375105765
 20
10.8842703013
 30
0.0
 10
10.6348956261
 20
10.8849026517
 30
0.0
 10
10.6337019953
 20
10.8853076023
 30
0.0
  0
SPLINE
  5
262
100
AcDbEntity
  8
0
100
AcDbSpline
 62
7
  6
CONTINUOUS
 70
0
 71
3
 72
23
 73
19
 74
0
 42
0.0000001
 43
0.0000001
 44
0.0000000001
 40
0.0
 40
0.0
 40
0.0
 40
0.0
 40
0.0612343553
 40
0.1225173375
 40
0.1838974841
 40
0.2454178268
 40
0.3071161424
 40
0.3690230937
 40
0.4311610396
 40
0.4935432788
 40
0.5561736102
 40
0.61904632
 40
0.6821464918
 40
0.7454506735
 40
0.8089278484
 40
0.8725406103
 40
0.9362461738
 40
1.0
 40
1.0
 40
1.0
 40
1.0
 10
10.3653183383
 20
3.5251316158
 30
0.0
 10
10.3653183383
 20
3.5072243252
 30
0.0
 10
10.3634838517
 20
3.471368562
 30
0.0
 10
10.3552564748
 20
3.4181328931
 30
0.0
 10
10.3416329899
 20
3.3659245313
 30
0.0
 10
10.3227455182
 20
3.3152543691
 30
0.0
 10
10.2987771382
 20
3.2666091345
 30
0.0
 10
10.2699599206
 20
3.2204580989
 30
0.0
 10
10.2365728135
 20
3.1772452893
 30
0.0
 10
10.1989382907
 20
3.1373865422
 30
0.0
 10
10.1574199448
 20
3.1012646486
 30
0.0
 10
10.1124180237
 20
3.0692266782
 30
0.0
 10
10.064366411
 20
3.0415797999
 30
0.0
 10
10.0137275961
 20
3.0185892426
 30
0.0
 10
9.9609893946
 20
3.0004752681
 30
0.0
 10
9.9066574384
 20
2.9874113845
 30
0.0
 10
9.8512603847
 20
2.9795226573
 30
0.0
 10
9.8139624195
 20
2.977764215
 30
0.0
 10
9.7953183383
 20
2.977764215
 30
0.0
  0
SPLINE
  5
263
100
AcDbEntity
  8
0
100
AcDbSpline
 62
9
  6
CONTINUOUS
 70
0
 71
3
 72
29
 73
25
 74
0
 42
0.0000001
 43
0.0000001
 44
0.0000000001
 40
0.0
 40
0.0
 40
0.0
 40
0.0
 40
0.0306202562
 40
0.0612467296
 40
0.0918855663
 40
0.1225427896
 40
0.1532242406
 40
0.1839355078
 40
0.2146818734
 40
0.245468272
 40
0.2762992339
 40
0.3071788333
 40
0.3381106632
 40
0.3690978018
 40
0.4312283926
 40
0.4936032445
 40
0.5562261597
 40
0.6190914264
 40
0.6821841254
 40
0.7454808129
 40
0.8089504712
 40
0.8725557179
 40
0.9362536908
 40
1.0
 40
1.0
 40
1.0
 40
1.0
 10
10.365318303
 20
3.6352835467
 30
0.0
 10
10.365318303
 20
3.6263279407
 30
0.0
 10
10.3648603069
 20
3.6084115345
 30
0.0
 10
10.3628009687
 20
3.5816053237
 30
0.0
 10
10.3593741809
 20
3.5549277945
 30
0.0
 10
10.3545883421
 20
3.528444162
 30
0.0
 10
10.3484549812
 20
3.5022180107
 30
0.0
 10
10.3409887804
 20
3.4763126547
 30
0.0
 10
10.3322078667
 20
3.450790483
 30
0.0
 10
10.3221334742
 20
3.4257129995
 30
0.0
 10
10.3107897601
 20
3.40114063
 30
0.0
 10
10.2982042708
 20
3.3771327522
 30
0.0
 10
10.2844068804
 20
3.3537465102
 30
0.0
 10
10.2644259127
 20
3.3234482406
 30
0.0
 10
10.2365718392
 20
3.2873957499
 30
0.0
 10
10.1989385679
 20
3.247538853
 30
0.0
 10
10.1574198645
 20
3.2114164836
 30
0.0
 10
10.1124180373
 20
3.1793786482
 30
0.0
 10
10.0643664178
 20
3.1517316984
 30
0.0
 10
10.0137275865
 20
3.1287412046
 30
0.0
 10
9.9609893969
 20
3.1106271738
 30
0.0
 10
9.9066574383
 20
3.0975633385
 30
0.0
 10
9.8512603904
 20
3.0896745806
 30
0.0
 10
9.8139624287
 20
3.0879161458
 30
0.0
 10
9.7953183383
 20
3.0879161458
 30
0.0
  0
SPLINE
  5
264
100
AcDbEntity
  8
0
100
AcDbSpline
 62
7
  6
CONTINUOUS
 70
0
 71
3
 72
23
 73
19
 74
0
 42
0.0000001
 43
0.0000001
 44
0.0000000001
 40
0.0
 40
0.0
 40
0.0
 40
0.0
 40
0.0637538262
 40
0.1274593897
 40
0.1910721516
 40
0.2545493265
 40
0.3178535082
 40
0.38095368
 40
0.4438263898
 40
0.5064567212
 40
0.5688389604
 40
0.6309769063
 40
0.6928838576
 40
0.7545821732
 40
0.8161025159
 40
0.8774826625
 40
0.9387656447
 40
1.0
 40
1.0
 40
1.0
 40
1.0
 10
9.7953183383
 20
2.977764215
 30
0.0
 10
9.776674257
 20
2.977764215
 30
0.0
 10
9.7393762919
 20
2.9795226573
 30
0.0
 10
9.6839792382
 20
2.9874113845
 30
0.0
 10
9.629647282
 20
3.0004752681
 30
0.0
 10
9.5769090805
 20
3.0185892426
 30
0.0
 10
9.5262702655
 20
3.0415797999
 30
0.0
 10
9.4782186529
 20
3.0692266782
 30
0.0
 10
9.4332167318
 20
3.1012646486
 30
0.0
 10
9.3916983859
 20
3.1373865422
 30
0.0
 10
9.3540638631
 20
3.1772452893
 30
0.0
 10
9.3206767559
 20
3.2204580989
 30
0.0
 10
9.2918595384
 20
3.2666091345
 30
0.0
 10
9.2678911584
 20
3.3152543691
 30
0.0
 10
9.2490036867
 20
3.3659245313
 30
0.0
 10
9.2353802018
 20
3.4181328931
 30
0.0
 10
9.2271528248
 20
3.471368562
 30
0.0
 10
9.2253183383
 20
3.5072243252
 30
0.0
 10
9.2253183383
 20
3.5251316158
 30
0.0
  0
SPLINE
  5
265
100
AcDbEntity
  8
0
100
AcDbSpline
 62
9
  6
CONTINUOUS
 70
0
 71
3
 72
27
 73
23
 74
0
 42
0.0000001
 43
0.0000001
 44
0.0000000001
 40
0.0
 40
0.0
 40
0.0
 40
0.0
 40
0.0620213693
 40
0.0931055543
 40
0.1242322563
 40
0.1865924102
 40
0.249093349
 40
0.2803951255
 40
0.3117229098
 40
0.3744310606
 40
0.4372006092
 40
0.5000012082
 40
0.5628017643
 40
0.625571185
 40
0.6882791261
 40
0.7196067765
 40
0.7509084005
 40
0.813408983
 40
0.8757687194
 40
0.9068951931
 40
0.9379791384
 40
1.0
 40
1.0
 40
1.0
 40
1.0
 10
10.1796415936
 20
2.9714620661
 30
0.0
 10
10.165853666
 20
2.9616138037
 30
0.0
 10
10.1445582091
 20
2.9476405908
 30
0.0
 10
10.1151308666
 20
2.9307190532
 30
0.0
 10
10.0849805578
 20
2.9149176104
 30
0.0
 10
10.0461000826
 20
2.8973608409
 30
0.0
 10
10.0059293855
 20
2.8828589274
 30
0.0
 10
9.9731496706
 20
2.873132179
 30
0.0
 10
9.9399642472
 20
2.8646638311
 30
0.0
 10
9.8978678226
 20
2.8564805695
 30
0.0
 10
9.846722285
 20
2.8505689692
 30
0.0
 10
9.7952474047
 20
2.8485976718
 30
0.0
 10
9.743772977
 20
2.8505798472
 30
0.0
 10
9.6926287941
 20
2.8565022558
 30
0.0
 10
9.6505342315
 20
2.8646944179
 30
0.0
 10
9.617350739
 20
2.8731697814
 30
0.0
 10
9.5845732634
 20
2.8829034571
 30
0.0
 10
9.544405899
 20
2.8974138562
 30
0.0
 10
9.5055294366
 20
2.9149788471
 30
0.0
 10
9.4753827441
 20
2.9307866676
 30
0.0
 10
9.4459592843
 20
2.9477144215
 30
0.0
 10
9.4246670264
 20
2.961692138
 30
0.0
 10
9.4108813536
 20
2.9715433179
 30
0.0
  0
SPLINE
  5
266
100
AcDbEntity
  8
0
100
AcDbSpline
 62
9
  6
CONTINUOUS
 70
0
 71
3
 72
37
 73
33
 74
0
 42
0.0000001
 43
0.0000001
 44
0.0000000001
 40
0.0
 40
0.0
 40
0.0
 40
0.0
 40
0.0308406145
 40
0.061747785
 40
0.0927211763
 40
0.1237597075
 40
0.1548615665
 40
0.1860242367
 40
0.2172445332
 40
0.2485186387
 40
0.2798421469
 40
0.3112101117
 40
0.3426171059
 40
0.3740572842
 40
0.4055244456
 40
0.4370120978
 40
0.5000012906
 40
0.5629904323
 40
0.5944780214
 40
0.6259450954
 40
0.6573851629
 40
0.688792024
 40
0.720159835
 40
0.7514831705
 40
0.782757086
 40
0.8139771772
 40
0.8451396294
 40
0.8762412597
 40
0.9072795544
 40
0.9382527039
 40
0.9691596299
 40
1.0
 40
1.0
 40
1.0
 40
1.0
 10
10.3030905108
 20
3.0036760052
 30
0.0
 10
10.2951928749
 20
2.9950167861
 30
0.0
 10
10.2789131194
 20
2.9780995326
 30
0.0
 10
10.2531530976
 20
2.9540359397
 30
0.0
 10
10.2260960567
 20
2.9313219328
 30
0.0
 10
10.197819552
 20
2.910022764
 30
0.0
 10
10.168403431
 20
2.890198458
 30
0.0
 10
10.1379311126
 20
2.8719051248
 30
0.0
 10
10.1064888858
 20
2.855194478
 30
0.0
 10
10.0741657918
 20
2.8401137873
 30
0.0
 10
10.0410533325
 20
2.8267057349
 30
0.0
 10
10.0072452806
 20
2.8150082536
 30
0.0
 10
9.9728372878
 20
2.8050543741
 30
0.0
 10
9.937927059
 20
2.7968722358
 30
0.0
 10
9.9026122939
 20
2.7904849596
 30
0.0
 10
9.8551245132
 20
2.7843858491
 30
0.0
 10
9.7952522178
 20
2.7813283097
 30
0.0
 10
9.7353805214
 20
2.7843970937
 30
0.0
 10
9.6878939645
 20
2.790505126
 30
0.0
 10
9.6525805007
 20
2.7968990359
 30
0.0
 10
9.6176719386
 20
2.8050877322
 30
0.0
 10
9.5832659735
 20
2.8150480754
 30
0.0
 10
9.5494603042
 20
2.8267519075
 30
0.0
 10
9.5163505755
 20
2.8401661795
 30
0.0
 10
9.4840305532
 20
2.8552529424
 30
0.0
 10
9.4525917301
 20
2.8719694963
 30
0.0
 10
9.4221231379
 20
2.8902685544
 30
0.0
 10
9.3927110547
 20
2.9100983867
 30
0.0
 10
9.3644388879
 20
2.9314028673
 30
0.0
 10
9.3373864736
 20
2.954121958
 30
0.0
 10
9.3116313537
 20
2.978190391
 30
0.0
 10
9.2953550446
 20
2.9951107031
 30
0.0
 10
9.2874591731
 20
3.0037714055
 30
0.0
  0
SPLINE
  5
267
100
AcDbEntity
  8
0
100
AcDbSpline
 62
9
  6
CONTINUOUS
 70
0
 71
3
 72
47
 73
43
 74
0
 42
0.0000001
 43
0.0000001
 44
0.0000000001
 40
0.0
 40
0.0
 40
0.0
 40
0.0
 40
0.0152966146
 40
0.030606023
 40
0.0459302708
 40
0.0612712648
 40
0.0920030445
 40
0.1228214316
 40
0.1382699856
 40
0.1537436642
 40
0.1692432468
 40
0.1847693166
 40
0.2158950834
 40
0.2471289367
 40
0.2784684165
 40
0.3099079934
 40
0.3414392635
 40
0.3730512111
 40
0.4047305388
 40
0.4364620599
 40
0.4682291308
 40
0.5000141184
 40
0.5317988944
 40
0.5635653357
 40
0.595295827
 40
0.6269737533
 40
0.6585839672
 40
0.6901132198
 40
0.7215505531
 40
0.752887627
 40
0.7841189818
 40
0.8152422304
 40
0.8307670577
 40
0.8462654206
 40
0.8617379117
 40
0.8771853189
 40
0.9080015681
 40
0.9387314727
 40
0.954071647
 40
0.9693951614
 40
0.9847039274
 40
1.0
 40
1.0
 40
1.0
 40
1.0
 10
10.5985319378
 20
2.7432907087
 30
0.0
 10
10.596221636
 20
2.7322523996
 30
0.0
 10
10.5911062241
 20
2.7102663911
 30
0.0
 10
10.581970544
 20
2.6776488772
 30
0.0
 10
10.5713854832
 20
2.6454367203
 30
0.0
 10
10.5553594308
 20
2.6030902944
 30
0.0
 10
10.5317909652
 20
2.5514472741
 30
0.0
 10
10.5037364228
 20
2.5020074324
 30
0.0
 10
10.478721631
 20
2.4639641405
 30
0.0
 10
10.458684274
 20
2.4362045328
 30
0.0
 10
10.4374248874
 20
2.4092964743
 30
0.0
 10
10.4074821743
 20
2.3745961628
 30
0.0
 10
10.3671799421
 20
2.3335858206
 30
0.0
 10
10.3146589822
 20
2.2885867235
 30
0.0
 10
10.2583149505
 20
2.2480771756
 30
0.0
 10
10.1985652857
 20
2.2123571096
 30
0.0
 10
10.1358493241
 20
2.1816881249
 30
0.0
 10
10.070628885
 20
2.1562954377
 30
0.0
 10
10.0033838673
 20
2.136365098
 30
0.0
 10
9.9346088647
 20
2.1220434711
 30
0.0
 10
9.8648096984
 20
2.1134354272
 30
0.0
 10
9.7944995947
 20
2.1106040245
 30
0.0
 10
9.7241955116
 20
2.1135702099
 30
0.0
 10
9.654414359
 20
2.1223120323
 30
0.0
 10
9.5856692386
 20
2.1367654917
 30
0.0
 10
9.5184657477
 20
2.1568247132
 30
0.0
 10
9.4532981769
 20
2.182342397
 30
0.0
 10
9.3906460526
 20
2.2131315981
 30
0.0
 10
9.3309707088
 20
2.2489661765
 30
0.0
 10
9.2747109532
 20
2.2895837182
 30
0.0
 10
9.222283612
 20
2.3346834922
 30
0.0
 10
9.1820666869
 20
2.3757710641
 30
0.0
 10
9.152196199
 20
2.4105287299
 30
0.0
 10
9.1309927997
 20
2.4374775075
 30
0.0
 10
9.1110131949
 20
2.4652754872
 30
0.0
 10
9.0860775259
 20
2.5033667499
 30
0.0
 10
9.0581257665
 20
2.5528604252
 30
0.0
 10
9.0346648085
 20
2.6045484765
 30
0.0
 10
9.0187268708
 20
2.6469254461
 30
0.0
 10
9.0082088205
 20
2.6791578454
 30
0.0
 10
8.9991409923
 20
2.7117928211
 30
0.0
 10
8.9940713151
 20
2.7337885253
 30
0.0
 10
8.9917839806
 20
2.7448312084
 30
0.0
  0
SPLINE
  5
268
100
AcDbEntity
  8
0
100
AcDbSpline
 62
9
  6
CONTINUOUS
 70
0
 71
3
 72
63
 73
59
 74
0
 42
0.0000001
 43
0.0000001
 44
0.0000000001
 40
0.0
 40
0.0
 40
0.0
 40
0.0
 40
0.0152974696
 40
0.0306029549
 40
0.0459188954
 40
0.0612478118
 40
0.0765921633
 40
0.0919542156
 40
0.1073360937
 40
0.1227397403
 40
0.1381669041
 40
0.1536191244
 40
0.1690977164
 40
0.1846037616
 40
0.2001381025
 40
0.2157013337
 40
0.2312937974
 40
0.2469155824
 40
0.2625665273
 40
0.2782462214
 40
0.2939540081
 40
0.3096889926
 40
0.325450053
 40
0.3412358496
 40
0.3570448349
 40
0.3728752683
 40
0.4045846583
 40
0.4363549104
 40
0.468166869
 40
0.5000000244
 40
0.5318331793
 40
0.5636451367
 40
0.5954153867
 40
0.6271247741
 40
0.6429552059
 40
0.6587641894
 40
0.6745499841
 40
0.6903110426
 40
0.706046025
 40
0.7217538096
 40
0.7374335015
 40
0.7530844441
 40
0.7687062268
 40
0.7842986883
 40
0.7998619173
 40
0.8153962558
 40
0.830902299
 40
0.8463808888
 40
0.8618331072
 40
0.877260269
 40
0.8926639139
 40
0.9080457904
 40
0.9234078413
 40
0.9387521914
 40
0.9540811067
 40
0.9693970463
 40
0.9847025309
 40
1.0
 40
1.0
 40
1.0
 40
1.0
 10
10.6880570698
 20
2.7560331493
 30
0.0
 10
10.686867071
 20
2.7427721974
 30
0.0
 10
10.6838451745
 20
2.7162964037
 30
0.0
 10
10.6774005781
 20
2.6768387333
 30
0.0
 10
10.669056674
 20
2.6377096695
 30
0.0
 10
10.6588316563
 20
2.5989948475
 30
0.0
 10
10.6467475902
 20
2.5607772956
 30
0.0
 10
10.6328304469
 20
2.5231394054
 30
0.0
 10
10.6171102198
 20
2.4861622202
 30
0.0
 10
10.599620864
 20
2.4499253325
 30
0.0
 10
10.580400079
 20
2.4145067494
 30
0.0
 10
10.559489246
 20
2.3799827401
 30
0.0
 10
10.5369333984
 20
2.3464276424
 30
0.0
 10
10.5127812044
 20
2.3139136371
 30
0.0
 10
10.4870847033
 20
2.2825106897
 30
0.0
 10
10.459899216
 20
2.2522864035
 30
0.0
 10
10.4312832712
 20
2.2233058462
 30
0.0
 10
10.4012985596
 20
2.1956313176
 30
0.0
 10
10.3700096587
 20
2.1693223442
 30
0.0
 10
10.3374839183
 20
2.1444355496
 30
0.0
 10
10.3037913385
 20
2.1210245072
 30
0.0
 10
10.2690045251
 20
2.0991395134
 30
0.0
 10
10.2331982949
 20
2.0788276024
 30
0.0
 10
10.1964499843
 20
2.0601325597
 30
0.0
 10
10.1588376242
 20
2.0430943581
 30
0.0
 10
10.1076249928
 20
2.0226264728
 30
0.0
 10
10.0418471294
 20
2.0013627181
 30
0.0
 10
9.9608582877
 20
1.982995001
 30
0.0
 10
9.8784441498
 20
1.9719100441
 30
0.0
 10
9.7953167236
 20
1.9682049093
 30
0.0
 10
9.7121893112
 20
1.9719103314
 30
0.0
 10
9.6297752149
 20
1.9829955732
 30
0.0
 10
9.5487864419
 20
2.0013635701
 30
0.0
 10
9.4830086577
 20
2.0226275523
 30
0.0
 10
9.4317961028
 20
2.0430956148
 30
0.0
 10
9.3941838065
 20
2.0601339464
 30
0.0
 10
9.3574355661
 20
2.0788291161
 30
0.0
 10
9.321629412
 20
2.099141151
 30
0.0
 10
9.2868426806
 20
2.121026265
 30
0.0
 10
9.2531501885
 20
2.1444374239
 30
0.0
 10
9.2206245414
 20
2.169324331
 30
0.0
 10
9.1893357391
 20
2.1956334126
 30
0.0
 10
9.1593511312
 20
2.2233080449
 30
0.0
 10
9.1307352951
 20
2.2522887011
 30
0.0
 10
9.103549921
 20
2.2825130813
 30
0.0
 10
9.0778535377
 20
2.3139161175
 30
0.0
 10
9.0537014655
 20
2.3464302063
 30
0.0
 10
9.0311457438
 20
2.379985382
 30
0.0
 10
9.0102350401
 20
2.4145094636
 30
0.0
 10
8.991014388
 20
2.4499281132
 30
0.0
 10
8.973525168
 20
2.4861650614
 30
0.0
 10
8.9578050795
 20
2.523142301
 30
0.0
 10
8.9438880774
 20
2.5607802393
 30
0.0
 10
8.9318041545
 20
2.598997833
 30
0.0
 10
8.921579282
 20
2.6377126904
 30
0.0
 10
8.9132355246
 20
2.676841783
 30
0.0
 10
8.9067910761
 20
2.7162994757
 30
0.0
 10
8.9037692789
 20
2.7427752797
 30
0.0
 10
8.9025793298
 20
2.7560362357
 30
0.0
  0
SPLINE
  5
269
100
AcDbEntity
  8
0
100
AcDbSpline
 62
9
  6
CONTINUOUS
 70
0
 71
3
 72
27
 73
23
 74
0
 42
0.0000001
 43
0.0000001
 44
0.0000000001
 40
0.0
 40
0.0
 40
0.0
 40
0.0
 40
0.0170833038
 40
0.0353336392
 40
0.0547406503
 40
0.0752922519
 40
0.0969748774
 40
0.1197737533
 40
0.1436720081
 40
0.1686510193
 40
0.2217557285
 40
0.2788947206
 40
0.3398319234
 40
0.4042829693
 40
0.4719104213
 40
0.5423407043
 40
0.6151663862
 40
0.6899511853
 40
0.7662509564
 40
0.8436267684
 40
0.9216648283
 40
1.0
 40
1.0
 40
1.0
 40
1.0
 10
10.3798650715
 20
12.6335238506
 30
0.0
 10
10.384592741
 20
12.6303409762
 30
0.0
 10
10.39427212
 20
12.6236098077
 30
0.0
 10
10.4089660196
 20
12.6127615499
 30
0.0
 10
10.424265253
 20
12.6007972706
 30
0.0
 10
10.4401139067
 20
12.5876891636
 30
0.0
 10
10.456452435
 20
12.5734102315
 30
0.0
 10
10.4732181221
 20
12.557936023
 30
0.0
 10
10.4903445392
 20
12.541243778
 30
0.0
 10
10.5140536165
 20
12.5168373558
 30
0.0
 10
10.5441141427
 20
12.4831655485
 30
0.0
 10
10.579718254
 20
12.438475967
 30
0.0
 10
10.6148863627
 20
12.3887216215
 30
0.0
 10
10.6489140769
 20
12.3340086498
 30
0.0
 10
10.6810813282
 20
12.2745497442
 30
0.0
 10
10.7106784997
 20
12.2106732702
 30
0.0
 10
10.7370317452
 20
12.142819348
 30
0.0
 10
10.7595241907
 20
12.0715300004
 30
0.0
 10
10.7776244517
 20
11.9974345349
 30
0.0
 10
10.7908991232
 20
11.9212187466
 30
0.0
 10
10.7990269644
 20
11.8436027219
 30
0.0
 10
10.8008755546
 20
11.7914173857
 30
0.0
 10
10.8008918027
 20
11.7652835467
 30
0.0
  0
SPLINE
  5
26A
100
AcDbEntity
  8
0
100
AcDbSpline
 62
9
  6
CONTINUOUS
 70
0
 71
3
 72
43
 73
39
 74
0
 42
0.0000001
 43
0.0000001
 44
0.0000000001
 40
0.0
 40
0.0
 40
0.0
 40
0.0
 40
0.0036940586
 40
0.0078461965
 40
0.0124845607
 40
0.0176197253
 40
0.0232443531
 40
0.029339721
 40
0.0358855841
 40
0.0428758642
 40
0.0503148692
 40
0.058204572
 40
0.0665418381
 40
0.0753185893
 40
0.0845261098
 40
0.094155709
 40
0.1146460518
 40
0.1254935759
 40
0.1367328275
 40
0.160361061
 40
0.185493352
 40
0.212100695
 40
0.240160676
 40
0.2696552629
 40
0.3005678399
 40
0.3328806775
 40
0.366573108
 40
0.4016193025
 40
0.4379874727
 40
0.4756377851
 40
0.5145207199
 40
0.5545773193
 40
0.595738727
 40
0.6379256114
 40
0.725000773
 40
0.8149996324
 40
0.9069953006
 40
1.0
 40
1.0
 40
1.0
 40
1.0
 10
10.6336178065
 20
12.6452309137
 30
0.0
 10
10.634818554
 20
12.6456383368
 30
0.0
 10
10.6374480555
 20
12.6462757295
 30
0.0
 10
10.6417185045
 20
12.6467254726
 30
0.0
 10
10.6465060121
 20
12.6467211328
 30
0.0
 10
10.6517765554
 20
12.6462580202
 30
0.0
 10
10.6574914095
 20
12.6453272675
 30
0.0
 10
10.6636044903
 20
12.6439161758
 30
0.0
 10
10.6700712773
 20
12.6420088767
 30
0.0
 10
10.6768597449
 20
12.6396011547
 30
0.0
 10
10.6839521557
 20
12.6366980506
 30
0.0
 10
10.6913338775
 20
12.6333017024
 30
0.0
 10
10.6989869635
 20
12.6294126353
 30
0.0
 10
10.7068882697
 20
12.6250271919
 30
0.0
 10
10.7150138817
 20
12.6201434421
 30
0.0
 10
10.7263505927
 20
12.6128114615
 30
0.0
 10
10.737785018
 20
12.604608229
 30
0.0
 10
10.7492779684
 20
12.5955782484
 30
0.0
 10
10.7613320473
 20
12.5855287622
 30
0.0
 10
10.7765752238
 20
12.5716624233
 30
0.0
 10
10.7947439602
 20
12.553229418
 30
0.0
 10
10.8129292444
 20
12.5327294889
 30
0.0
 10
10.8309867428
 20
12.5101647188
 30
0.0
 10
10.8487806783
 20
12.4855434467
 30
0.0
 10
10.8661873027
 20
12.4588855393
 30
0.0
 10
10.8830880283
 20
12.4302183039
 30
0.0
 10
10.8993696146
 20
12.3995787626
 30
0.0
 10
10.9149290775
 20
12.3670168062
 30
0.0
 10
10.9296726036
 20
12.3325948133
 30
0.0
 10
10.943519467
 20
12.2963893265
 30
0.0
 10
10.9563939027
 20
12.2584875675
 30
0.0
 10
10.9682265329
 20
12.2189884623
 30
0.0
 10
10.9789550881
 20
12.1780020489
 30
0.0
 10
10.9918660811
 20
12.1209373937
 30
0.0
 10
11.0048991638
 20
12.0467596237
 30
0.0
 10
11.015534858
 20
11.9549693659
 30
0.0
 10
11.0214568824
 20
11.860723709
 30
0.0
 10
11.022475475
 20
11.7972071236
 30
0.0
 10
11.0223388401
 20
11.7652835467
 30
0.0
  0
ENDSEC
  0
SECTION
  2
OBJECTS
  0
DICTIONARY
  5
C
100
AcDbDictionary
280
0
281
1
  3
ACAD_GROUP
350
D
  3
ACAD_MLINESTYLE
350
17
  3
ACAD_LAYOUT
350
1A
  3
ACAD_PLOTSETTINGS
350
19
  3
ACAD_PLOTSTYLENAME
350
E
  0
DICTIONARY
  5
D
102
{ACAD_REACTORS
330
C
102
}
100
AcDbDictionary
280
0
281
1
  0
ACDBDICTIONARYWDFLT
  5
E
102
{ACAD_REACTORS
330
C
102
}
100
AcDbDictionary
281
1
  3
Normal
350
F
100
AcDbDictionaryWithDefault
340
F
  0
DICTIONARY
  5
17
102
{ACAD_REACTORS
330
C
102
}
100
AcDbDictionary
280
0
281
1
  3
Standard
350
18
  0
DICTIONARY
  5
19
102
{ACAD_REACTORS
330
C
102
}
100
AcDbDictionary
281
1
  0
DICTIONARY
  5
1A
102
{ACAD_REACTORS
330
C
102
}
100
AcDbDictionary
281
1
  3
Model
350
26B
  3
Layout1
350
26C
  0
ACDBPLACEHOLDER
  5
F
102
{ACAD_REACTORS
330
E
102
}
  0
MLINESTYLE
  5
18
102
{ACAD_REACTORS
330
17
102
}
100
AcDbMlineStyle
  2
STANDARD
 70
0
  3

 62
256
 51
90.0
 52
90.0
 71
2
 49
0.5
 62
256
  6
BYLAYER
 49
-0.5
 62
256
  6
BYLAYER
  0
LAYOUT
  5
26B
102
{ACAD_REACTORS
330
1A
102
}
100
AcDbPlotSettings
  1

  2
none_device
  4
ANSI_C_(22.00_x_17.00_Inches)
  6

 40
0.0
 41
0.0
 42
0.0
 43
0.0
 44
558.8
 45
431.8
 46
0.0
 47
0.0
 48
0.0
 49
0.0
140
0.0
141
0.0
142
1.0
143
1.0
 70
1024
 72
0
 73
0
 74
0
  7

 75
0
147
1.0
148
0.0
149
0.0
100
AcDbLayout
  1
Model
 70
0
 71
0
 10
0.0
 20
0.0
 11
22.0
 21
17.0
 12
0.0
 22
0.0
 32
0.0
 14
0.0
 24
0.0
 34
0.0
 15
0.0
 25
0.0
 35
0.0
146
0.0
 13
0.0
 23
0.0
 33
0.0
 16
1.0
 26
0.0
 36
0.0
 17
0.0
 27
1.0
 37
0.0
 76
0
330
205
345
0
346
0
  0
LAYOUT
  5
26C
102
{ACAD_REACTORS
330
1A
102
}
100
AcDbPlotSettings
  1

  2
none_device
  4
ANSI_C_(22.00_x_17.00_Inches)
  6

 40
0.0
 41
0.0
 42
0.0
 43
0.0
 44
558.8
 45
431.8
 46
0.0
 47
0.0
 48
0.0
 49
0.0
140
0.0
141
0.0
142
1.0
143
1.0
 70
0
 72
0
 73
0
 74
0
  7

 75
0
147
1.0
148
0.0
149
0.0
100
AcDbLayout
  1
Layout1
 70
0
 71
1
 10
0.0
 20
0.0
 11
22.0
 21
17.0
 12
0.0
 22
0.0
 32
0.0
 14
0.0
 24
0.0
 34
0.0
 15
0.0
 25
0.0
 35
0.0
146
0.0
 13
0.0
 23
0.0
 33
0.0
 16
1.0
 26
0.0
 36
0.0
 17
0.0
 27
1.0
 37
0.0
 76
0
330
206
345
0
346
0
  0
ENDSEC
  0
EOF
