999
DXF file: E:\BT Custom\CADOUTPUT\_FRONT.dxf
999
Pro/ENGINEER 2018400 by Parametric Technology Corporation
  0
SECTION
  2
HEADER
  9
$ACADVER
  1
AC1018
  9
$DWGCODEPAGE
  3
ANSI_1252
  9
$EXTMAX
 10
22.0
 20
17.0
 30
0.0
  9
$EXTMIN
 10
0.0
 20
0.0
 30
0.0
  9
$LIMMIN
 10
0.0
 20
0.0
  9
$LIMMAX
 10
22.0
 20
17.0
  9
$VIEWCTR
 10
11.0
 20
8.5
  9
$VIEWSIZE
 40
17.0
  9
$CLAYER
  8
0
  9
$LTSCALE
 40
1.21
  9
$CELTYPE
  6
BYLAYER
  9
$DIMSCALE
 40
1.0
  9
$DIMASZ
 40
0.1
  9
$DIMEXO
 40
0.0625
  9
$DIMDLI
 40
0.836
  9
$DIMEXE
 40
0.125
  9
$DIMCEN
 40
0.198
  9
$DIMLFAC
 40
1.0
  9
$DIMBLK
  1
_FILLED
  9
$DIMALT
 70
1
  9
$DIMALTD
 70
2
  9
$DIMALTTD
 70
2
  9
$DIMALTF
 40
25.4
  9
$DIMTXT
 40
0.08
  9
$DIMTOL
 70
1
  9
$DIMLIM
 70
0
  9
$DIMTFAC
 40
1.0
  9
$DIMTP
 40
0.001
  9
$DIMTM
 40
0.001
  9
$DIMGAP
 40
0.09
  9
$DIMDSEP
 70
46
  9
$AUNITS
 70
0
  9
$PDMODE
 70
3
  9
$PDSIZE
 40
0.06
  9
$HANDSEED
  5
222
  9
$TILEMODE
 70
1
  9
$MEASUREMENT
 70
0
  9
$INSUNITS
 70
1
  0
ENDSEC
  0
SECTION
  2
CLASSES
  0
CLASS
  1
ACDBDICTIONARYWDFLT
  2
AcDbDictionaryWithDefault
  3
AutoCAD 2000
 90
0
 91
1
280
0
281
0
  0
CLASS
  1
ACDBPLACEHOLDER
  2
AcDbPlaceHolder
  3
AutoCAD 2000
 90
0
 91
1
280
0
281
0
  0
CLASS
  1
LAYOUT
  2
AcDbLayout
  3
AutoCAD 2000
 90
0
 91
0
280
0
281
0
  0
ENDSEC
  0
SECTION
  2
TABLES
  0
TABLE
  2
VPORT
  5
8
100
AcDbSymbolTable
 70
2
  0
VPORT
  5
1F4
100
AcDbSymbolTableRecord
100
AcDbViewportTableRecord
  2
*ACTIVE
 70
0
 10
0.0
 20
0.0
 11
1.0
 21
1.0
 12
11.0
 22
8.5
 13
0.0
 23
0.0
 14
1.0
 24
1.0
 15
0.0
 25
0.0
 16
0.0
 26
0.0
 36
1.0
 17
0.0
 27
0.0
 37
0.0
 40
17.0
 41
1.2941176471
 42
50.0
 43
0.0
 44
0.0
 50
0.0
 51
0.0
 71
0
 72
100
 73
1
 74
1
 75
0
 76
0
 77
0
 78
0
  0
ENDTAB
  0
TABLE
  2
LTYPE
  5
5
100
AcDbSymbolTable
 70
6
  0
LTYPE
  5
14
100
AcDbSymbolTableRecord
100
AcDbLinetypeTableRecord
  2
BYBLOCK
 70
0
  3

 72
65
 73
0
 40
0.0
  0
LTYPE
  5
15
100
AcDbSymbolTableRecord
100
AcDbLinetypeTableRecord
  2
BYLAYER
 70
0
  3

 72
65
 73
0
 40
0.0
  0
LTYPE
  5
16
100
AcDbSymbolTableRecord
100
AcDbLinetypeTableRecord
  2
CONTINUOUS
 70
64
  3
Solid line
 72
65
 73
0
 40
0.0
  0
LTYPE
  5
1F5
100
AcDbSymbolTableRecord
100
AcDbLinetypeTableRecord
  2
CENTER
 70
64
  3
____ _ ____ _ ____ _ ____ _ ____ _ ____ _ ____
 72
65
 73
4
 40
0.6
 49
0.375
 74
0
 49
-0.075
 74
0
 49
0.075
 74
0
 49
-0.075
 74
0
  0
LTYPE
  5
1F6
100
AcDbSymbolTableRecord
100
AcDbLinetypeTableRecord
  2
HIDDEN
 70
64
  3
- - - - - - - - - - - - - - - - - - - -
 72
65
 73
2
 40
0.2
 49
0.1
 74
0
 49
-0.1
 74
0
  0
LTYPE
  5
1F7
100
AcDbSymbolTableRecord
100
AcDbLinetypeTableRecord
  2
PHANTOM
 70
64
  3
_____ _ _ _____ _ _ _____ _ _ _____
 72
65
 73
6
 40
0.8
 49
0.45
 74
0
 49
-0.05
 74
0
 49
0.1
 74
0
 49
-0.05
 74
0
 49
0.1
 74
0
 49
-0.05
 74
0
  0
LTYPE
  5
1F8
100
AcDbSymbolTableRecord
100
AcDbLinetypeTableRecord
  2
DOT
 70
64
  3
. . . . . . . . . . . . . . . . . . . .
 72
65
 73
2
 40
0.2
 49
0.1
 74
0
 49
-0.1
 74
0
  0
LTYPE
  5
1F9
100
AcDbSymbolTableRecord
100
AcDbLinetypeTableRecord
  2
DASHED
 70
64
  3
- - - - - - - - - - - - - - - - - - - -
 72
65
 73
2
 40
0.2
 49
0.1
 74
0
 49
-0.1
 74
0
  0
ENDTAB
  0
TABLE
  2
LAYER
  5
2
100
AcDbSymbolTable
 70
36
  0
LAYER
  5
10
100
AcDbSymbolTableRecord
100
AcDbLayerTableRecord
  2
0
 70
0
 62
7
  6
CONTINUOUS
370
-3
390
F
  0
LAYER
  5
1FA
100
AcDbSymbolTableRecord
100
AcDbLayerTableRecord
  2
DEFAULT_1
 70
0
 62
7
  6
CENTER
370
-3
390
F
  0
LAYER
  5
1FB
100
AcDbSymbolTableRecord
100
AcDbLayerTableRecord
  2
DEFAULT_2
 70
0
 62
8
  6
HIDDEN
370
-3
390
F
  0
LAYER
  5
1FC
100
AcDbSymbolTableRecord
100
AcDbLayerTableRecord
  2
DEFAULT_3
 70
0
 62
7
  6
PHANTOM
370
-3
390
F
  0
LAYER
  5
1FD
100
AcDbSymbolTableRecord
100
AcDbLayerTableRecord
  2
ALL_FEATURES
 70
0
 62
7
  6
CONTINUOUS
370
-3
390
F
  0
LAYER
  5
1FE
100
AcDbSymbolTableRecord
100
AcDbLayerTableRecord
  2
AXES_FEATURES
 70
0
 62
7
  6
CONTINUOUS
370
-3
390
F
  0
LAYER
  5
1FF
100
AcDbSymbolTableRecord
100
AcDbLayerTableRecord
  2
DEFAULT_COORDINATE_SYSTEM
 70
0
 62
7
  6
CONTINUOUS
370
-3
390
F
  0
LAYER
  5
200
100
AcDbSymbolTableRecord
100
AcDbLayerTableRecord
  2
DEFAULT_DATUM_AXES
 70
0
 62
7
  6
CONTINUOUS
370
-3
390
F
  0
LAYER
  5
201
100
AcDbSymbolTableRecord
100
AcDbLayerTableRecord
  2
DEFAULT_DATUM_PLANES
 70
0
 62
7
  6
CONTINUOUS
370
-3
390
F
  0
LAYER
  5
202
100
AcDbSymbolTableRecord
100
AcDbLayerTableRecord
  2
DIMENSIONS
 70
0
 62
7
  6
CONTINUOUS
370
-3
390
F
  0
ENDTAB
  0
TABLE
  2
STYLE
  5
3
100
AcDbSymbolTable
 70
1
  0
STYLE
  5
11
100
AcDbSymbolTableRecord
100
AcDbTextStyleTableRecord
  2
STANDARD
 70
0
 40
0.0
 41
0.8
 50
0.0
 71
0
 42
0.2
  3
txt
  4

  0
STYLE
  5
203
100
AcDbSymbolTableRecord
100
AcDbTextStyleTableRecord
  2
TEXTSTYLE_1
 70
0
 40
0.0
 41
0.8
 50
0.0
 71
0
 42
0.2
  3
gdt
  4

  0
ENDTAB
  0
TABLE
  2
VIEW
  5
6
100
AcDbSymbolTable
 70
0
  0
ENDTAB
  0
TABLE
  2
UCS
  5
7
100
AcDbSymbolTable
 70
0
  0
ENDTAB
  0
TABLE
  2
APPID
  5
9
100
AcDbSymbolTable
 70
1
  0
APPID
  5
204
100
AcDbSymbolTableRecord
100
AcDbRegAppTableRecord
  2
ACAD
 70
0
  0
ENDTAB
  0
TABLE
  2
BLOCK_RECORD
  5
1
100
AcDbSymbolTable
 70
0
  0
BLOCK_RECORD
  5
205
100
AcDbSymbolTableRecord
100
AcDbBlockTableRecord
  2
*Model_Space
  0
BLOCK_RECORD
  5
206
100
AcDbSymbolTableRecord
100
AcDbBlockTableRecord
  2
*Paper_Space
  0
BLOCK_RECORD
  5
207
100
AcDbSymbolTableRecord
100
AcDbBlockTableRecord
  2
_FILLED
  0
ENDTAB
  0
TABLE
  2
DIMSTYLE
  5
A
100
AcDbSymbolTable
 70
1
100
AcDbDimStyleTable
 71
0
  0
DIMSTYLE
105
208
100
AcDbSymbolTableRecord
100
AcDbDimStyleTableRecord
  2
STANDARD
 70
0
  3

  4

 40
1.0
 41
0.1
 42
0.0625
 43
0.38
 44
0.125
 45
0.0
 46
0.0
 47
0.001
 48
0.001
140
0.08
141
0.09
142
0.0
143
25.4
144
1.0
145
0.0
146
1.0
147
0.09
 71
1.0
 72
0.0
 73
1
 74
1
 75
0
 76
0
 77
0
 78
4
 79
1
170
1
171
2
172
0
173
0
174
0
175
0
176
0
177
0
178
0
270
2
179
3
271
3
272
3
273
2
274
2
275
0
280
0
281
0
282
0
283
1
284
4
285
0
286
0
287
3
288
0
340
11
278
46
341
207
342
207
343
207
344
207
  0
ENDTAB
  0
ENDSEC
  0
SECTION
  2
BLOCKS
  0
BLOCK
  5
20
100
AcDbEntity
  8
0
100
AcDbBlockBegin
  2
*Model_Space
 70
0
 10
0.0
 20
0.0
 30
0.0
  3
*Model_Space
  1

  0
ENDBLK
  5
21
100
AcDbEntity
  8
0
100
AcDbBlockEnd
  0
BLOCK
  5
1C
100
AcDbEntity
  8
0
100
AcDbBlockBegin
  2
*Paper_Space
 70
0
 10
0.0
 20
0.0
 30
0.0
  3
*Paper_Space
  1

  0
ENDBLK
  5
1D
100
AcDbEntity
  8
0
100
AcDbBlockEnd
  0
BLOCK
  5
209
100
AcDbEntity
  8
0
100
AcDbBlockBegin
  2
_FILLED
 70
64
 10
0.0
 20
0.0
  3
_FILLED
  1

  0
SOLID
  5
20A
100
AcDbEntity
  8
0
  6
BYBLOCK
 62
0
100
AcDbTrace
 10
0.0
 20
0.0
 11
-1.0
 21
0.2
 12
-1.0
 22
-0.2
 13
-1.0
 23
-0.2
  0
ENDBLK
  5
20B
100
AcDbEntity
  8
0
  6
BYBLOCK
 62
0
100
AcDbBlockEnd
  0
ENDSEC
  0
SECTION
  2
ENTITIES
  0
LINE
  5
20C
100
AcDbEntity
  8
0
100
AcDbLine
 62
9
  6
CONTINUOUS
 10
4.5626923427
 20
9.8926695021
 11
4.5626923427
 21
8.6426695021
  0
LINE
  5
20D
100
AcDbEntity
  8
0
100
AcDbLine
 62
7
  6
CONTINUOUS
 10
2.9407721844
 20
8.6426695021
 11
18.9346125011
 21
8.6426695021
  0
LINE
  5
20E
100
AcDbEntity
  8
0
100
AcDbLine
 62
7
  6
CONTINUOUS
 10
2.9407721844
 20
9.8926695021
 11
18.9346125011
 21
9.8926695021
  0
LINE
  5
20F
100
AcDbEntity
  8
0
100
AcDbLine
 62
9
  6
CONTINUOUS
 10
17.3126923427
 20
9.8926695021
 11
17.3126923427
 21
8.6426695021
  0
ARC
  5
210
100
AcDbEntity
  8
0
100
AcDbCircle
 62
7
  6
CONTINUOUS
 10
18.9376923427
 20
9.2676695021
 40
1.5
100
AcDbArc
 50
204.6307854214
 51
155.3692145799
  0
ARC
  5
211
100
AcDbEntity
  8
0
100
AcDbCircle
 62
7
  6
CONTINUOUS
 10
2.9376923427
 20
9.2676695021
 40
1.5
100
AcDbArc
 50
24.6307854214
 51
335.3692145799
  0
ARC
  5
212
100
AcDbEntity
  8
0
100
AcDbCircle
 62
9
  6
CONTINUOUS
 10
18.9376923427
 20
9.2676695021
 40
1.34
100
AcDbArc
 50
207.8315578311
 51
152.1684422098
  0
ARC
  5
213
100
AcDbEntity
  8
0
100
AcDbCircle
 62
9
  6
CONTINUOUS
 10
2.9376923427
 20
9.2676695021
 40
1.34
100
AcDbArc
 50
27.8315578311
 51
332.1684422098
  0
ARC
  5
214
100
AcDbEntity
  8
0
100
AcDbCircle
 62
7
  6
CONTINUOUS
 10
18.9376923427
 20
9.2676695021
 40
1.32
100
AcDbArc
 50
208.2917897835
 51
151.708210206
  0
ARC
  5
215
100
AcDbEntity
  8
0
100
AcDbCircle
 62
7
  6
CONTINUOUS
 10
2.9376923427
 20
9.2676695021
 40
1.32
100
AcDbArc
 50
28.2917897835
 51
331.708210206
  0
ARC
  5
216
100
AcDbEntity
  8
0
100
AcDbCircle
 62
9
  6
CONTINUOUS
 10
18.9376923427
 20
9.2676695021
 40
1.3
100
AcDbArc
 50
208.7660424609
 51
151.2339575348
  0
ARC
  5
217
100
AcDbEntity
  8
0
100
AcDbCircle
 62
9
  6
CONTINUOUS
 10
2.9376923427
 20
9.2676695021
 40
1.3
100
AcDbArc
 50
28.7660424609
 51
331.2339575348
  0
ARC
  5
218
100
AcDbEntity
  8
0
100
AcDbCircle
 62
7
  6
CONTINUOUS
 10
18.9376923427
 20
9.2676695021
 40
0.875
100
AcDbArc
 50
225.7334028339
 51
134.2665971598
  0
ARC
  5
219
100
AcDbEntity
  8
0
100
AcDbCircle
 62
7
  6
CONTINUOUS
 10
2.9376923427
 20
9.2676695021
 40
0.875
100
AcDbArc
 50
45.6206596226
 51
314.3793403794
  0
ARC
  5
21A
100
AcDbEntity
  8
0
100
AcDbCircle
 62
9
  6
CONTINUOUS
 10
2.9376923427
 20
9.2676695021
 40
0.815
100
AcDbArc
 50
50.1549054094
 51
309.8450945854
  0
ARC
  5
21B
100
AcDbEntity
  8
0
100
AcDbCircle
 62
9
  6
CONTINUOUS
 10
18.9376923427
 20
9.2676695021
 40
0.815
100
AcDbArc
 50
230.1691154926
 51
129.8308844891
  0
SPLINE
  5
21C
100
AcDbEntity
  8
0
100
AcDbSpline
 62
7
  6
CONTINUOUS
 70
0
 71
3
 72
29
 73
25
 74
0
 42
0.0000001
 43
0.0000001
 44
0.0000000001
 40
0.0
 40
0.0
 40
0.0
 40
0.0
 40
0.0624919209
 40
0.0937502552
 40
0.1250051966
 40
0.1874973215
 40
0.2499905158
 40
0.2812463142
 40
0.3125021786
 40
0.3437580793
 40
0.3750139852
 40
0.4375068875
 40
0.4999997932
 40
0.5624927642
 40
0.6249856864
 40
0.6874787146
 40
0.7187345716
 40
0.7499904387
 40
0.8124834849
 40
0.8749764567
 40
0.9062323206
 40
0.9374882451
 40
0.9687441456
 40
1.0
 40
1.0
 40
1.0
 40
1.0
 10
2.3149156634
 20
9.2676695021
 30
0.0
 10
2.3149156634
 20
9.2472103105
 30
0.0
 10
2.3164277614
 20
9.2164894921
 30
0.0
 10
2.3214478419
 20
9.1758613786
 30
0.0
 10
2.3284583644
 20
9.135525524
 30
0.0
 10
2.3409279309
 20
9.0858273386
 30
0.0
 10
2.3582182123
 20
9.0375930022
 30
0.0
 10
2.3748330695
 20
9.0001770623
 30
0.0
 10
2.3886614204
 20
8.9727552138
 30
0.0
 10
2.4038194955
 20
8.9460452931
 30
0.0
 10
2.4257506802
 20
8.9114764693
 30
0.0
 10
2.4563117364
 20
8.8703457396
 30
0.0
 10
2.4976404367
 20
8.8248364576
 30
0.0
 10
2.5432346615
 20
8.7835960392
 30
0.0
 10
2.5926486505
 20
8.7470254021
 30
0.0
 10
2.6366257722
 20
8.7207256238
 30
0.0
 10
2.6732112275
 20
8.7023535875
 30
0.0
 10
2.7106527895
 20
8.6857950535
 30
0.0
 10
2.7589097935
 20
8.6685702484
 30
0.0
 10
2.8086215621
 20
8.6561522988
 30
0.0
 10
2.8489608974
 20
8.6491719333
 30
0.0
 10
2.879442784
 20
8.6454233857
 30
0.0
 10
2.9100700784
 20
8.6431702284
 30
0.0
 10
2.9305393495
 20
8.6426697194
 30
0.0
 10
2.9407721844
 20
8.6426697203
 30
0.0
  0
SPLINE
  5
21D
100
AcDbEntity
  8
0
100
AcDbSpline
 62
7
  6
CONTINUOUS
 70
0
 71
3
 72
29
 73
25
 74
0
 42
0.0000001
 43
0.0000001
 44
0.0000000001
 40
0.0
 40
0.0
 40
0.0
 40
0.0
 40
0.0624919304
 40
0.09375027
 40
0.1250052117
 40
0.187497334
 40
0.2499905298
 40
0.2812463285
 40
0.3125021921
 40
0.3437580923
 40
0.375013999
 40
0.437506902
 40
0.4999998069
 40
0.5624927793
 40
0.6249857004
 40
0.6874787299
 40
0.7187345868
 40
0.7499904534
 40
0.8124835001
 40
0.8749764717
 40
0.9062323325
 40
0.9374882516
 40
0.9687441474
 40
1.0
 40
1.0
 40
1.0
 40
1.0
 10
19.560469022
 20
9.2676695021
 30
0.0
 10
19.560469022
 20
9.2881286968
 30
0.0
 10
19.5589569226
 20
9.3188495201
 30
0.0
 10
19.5539368422
 20
9.3594776385
 30
0.0
 10
19.5469263179
 20
9.3998134938
 30
0.0
 10
19.5344567505
 20
9.4495116788
 30
0.0
 10
19.5171664678
 20
9.4977460144
 30
0.0
 10
19.5005516103
 20
9.5351619546
 30
0.0
 10
19.4867232588
 20
9.5625838024
 30
0.0
 10
19.4715651832
 20
9.5892937225
 30
0.0
 10
19.4496339974
 20
9.623862546
 30
0.0
 10
19.4190729407
 20
9.6649932756
 30
0.0
 10
19.3777442386
 20
9.7105025567
 30
0.0
 10
19.3321500134
 20
9.7517429743
 30
0.0
 10
19.2827360229
 20
9.7883136104
 30
0.0
 10
19.2387589004
 20
9.8146133874
 30
0.0
 10
19.2021734447
 20
9.8329854234
 30
0.0
 10
19.1647318821
 20
9.849543956
 30
0.0
 10
19.1164748779
 20
9.8667687602
 30
0.0
 10
19.0667631097
 20
9.8791867079
 30
0.0
 10
19.0264237773
 20
9.8861670729
 30
0.0
 10
18.995941895
 20
9.8899156195
 30
0.0
 10
18.9653146044
 20
9.8921687759
 30
0.0
 10
18.9448453355
 20
9.8926692849
 30
0.0
 10
18.9346125011
 20
9.8926692839
 30
0.0
  0
SPLINE
  5
21E
100
AcDbEntity
  8
0
100
AcDbSpline
 62
7
  6
CONTINUOUS
 70
0
 71
3
 72
29
 73
25
 74
0
 42
0.0000001
 43
0.0000001
 44
0.0000000001
 40
0.0
 40
0.0
 40
0.0
 40
0.0
 40
0.0312558544
 40
0.0625117549
 40
0.0937676794
 40
0.1250235433
 40
0.1875165151
 40
0.2500095613
 40
0.2812654284
 40
0.3125212854
 40
0.3750143136
 40
0.4375072358
 40
0.5000002068
 40
0.5624931125
 40
0.6249860148
 40
0.6562419207
 40
0.6874978214
 40
0.7187536858
 40
0.7500094842
 40
0.8125026785
 40
0.8749948034
 40
0.9062497448
 40
0.9375080791
 40
1.0
 40
1.0
 40
1.0
 40
1.0
 10
18.9346125011
 20
8.6426697203
 30
0.0
 10
18.944845336
 20
8.6426697194
 30
0.0
 10
18.9653146071
 20
8.6431702284
 30
0.0
 10
18.9959419015
 20
8.6454233857
 30
0.0
 10
19.0264237881
 20
8.6491719333
 30
0.0
 10
19.0667631234
 20
8.6561522988
 30
0.0
 10
19.116474892
 20
8.6685702484
 30
0.0
 10
19.164731896
 20
8.6857950535
 30
0.0
 10
19.202173458
 20
8.7023535875
 30
0.0
 10
19.2387589133
 20
8.7207256238
 30
0.0
 10
19.282736035
 20
8.7470254021
 30
0.0
 10
19.332150024
 20
8.7835960392
 30
0.0
 10
19.3777442488
 20
8.8248364576
 30
0.0
 10
19.4190729491
 20
8.8703457396
 30
0.0
 10
19.4496340053
 20
8.9114764693
 30
0.0
 10
19.47156519
 20
8.9460452931
 30
0.0
 10
19.4867232651
 20
8.9727552138
 30
0.0
 10
19.500551616
 20
9.0001770623
 30
0.0
 10
19.5171664732
 20
9.0375930022
 30
0.0
 10
19.5344567545
 20
9.0858273386
 30
0.0
 10
19.5469263211
 20
9.135525524
 30
0.0
 10
19.5539368436
 20
9.1758613786
 30
0.0
 10
19.5589569241
 20
9.2164894921
 30
0.0
 10
19.560469022
 20
9.2472103105
 30
0.0
 10
19.560469022
 20
9.2676695021
 30
0.0
  0
SPLINE
  5
21F
100
AcDbEntity
  8
0
100
AcDbSpline
 62
7
  6
CONTINUOUS
 70
0
 71
3
 72
29
 73
25
 74
0
 42
0.0000001
 43
0.0000001
 44
0.0000000001
 40
0.0
 40
0.0
 40
0.0
 40
0.0
 40
0.0312558526
 40
0.0625117484
 40
0.0937676675
 40
0.1250235283
 40
0.1875164999
 40
0.2500095466
 40
0.2812654132
 40
0.3125212701
 40
0.3750142996
 40
0.4375072207
 40
0.5000001931
 40
0.562493098
 40
0.624986001
 40
0.6562419077
 40
0.6874978079
 40
0.7187536715
 40
0.7500094702
 40
0.812502666
 40
0.8749947883
 40
0.90624973
 40
0.9375080696
 40
1.0
 40
1.0
 40
1.0
 40
1.0
 10
2.9407721844
 20
9.8926692839
 30
0.0
 10
2.93053935
 20
9.8926692849
 30
0.0
 10
2.9100700811
 20
9.8921687759
 30
0.0
 10
2.8794427905
 20
9.8899156195
 30
0.0
 10
2.8489609082
 20
9.8861670729
 30
0.0
 10
2.8086215758
 20
9.8791867079
 30
0.0
 10
2.7589098076
 20
9.8667687602
 30
0.0
 10
2.7106528033
 20
9.849543956
 30
0.0
 10
2.6732112408
 20
9.8329854234
 30
0.0
 10
2.6366257851
 20
9.8146133874
 30
0.0
 10
2.5926486626
 20
9.7883136104
 30
0.0
 10
2.5432346721
 20
9.7517429743
 30
0.0
 10
2.4976404469
 20
9.7105025567
 30
0.0
 10
2.4563117447
 20
9.6649932756
 30
0.0
 10
2.4257506881
 20
9.623862546
 30
0.0
 10
2.4038195023
 20
9.5892937225
 30
0.0
 10
2.3886614267
 20
9.5625838024
 30
0.0
 10
2.3748330751
 20
9.5351619546
 30
0.0
 10
2.3582182177
 20
9.4977460144
 30
0.0
 10
2.340927935
 20
9.4495116788
 30
0.0
 10
2.3284583676
 20
9.3998134938
 30
0.0
 10
2.3214478432
 20
9.3594776385
 30
0.0
 10
2.3164277629
 20
9.3188495201
 30
0.0
 10
2.3149156634
 20
9.2881286968
 30
0.0
 10
2.3149156634
 20
9.2676695021
 30
0.0
  0
ENDSEC
  0
SECTION
  2
OBJECTS
  0
DICTIONARY
  5
C
100
AcDbDictionary
280
0
281
1
  3
ACAD_GROUP
350
D
  3
ACAD_MLINESTYLE
350
17
  3
ACAD_LAYOUT
350
1A
  3
ACAD_PLOTSETTINGS
350
19
  3
ACAD_PLOTSTYLENAME
350
E
  0
DICTIONARY
  5
D
102
{ACAD_REACTORS
330
C
102
}
100
AcDbDictionary
280
0
281
1
  0
ACDBDICTIONARYWDFLT
  5
E
102
{ACAD_REACTORS
330
C
102
}
100
AcDbDictionary
281
1
  3
Normal
350
F
100
AcDbDictionaryWithDefault
340
F
  0
DICTIONARY
  5
17
102
{ACAD_REACTORS
330
C
102
}
100
AcDbDictionary
280
0
281
1
  3
Standard
350
18
  0
DICTIONARY
  5
19
102
{ACAD_REACTORS
330
C
102
}
100
AcDbDictionary
281
1
  0
DICTIONARY
  5
1A
102
{ACAD_REACTORS
330
C
102
}
100
AcDbDictionary
281
1
  3
Model
350
220
  3
Layout1
350
221
  0
ACDBPLACEHOLDER
  5
F
102
{ACAD_REACTORS
330
E
102
}
  0
MLINESTYLE
  5
18
102
{ACAD_REACTORS
330
17
102
}
100
AcDbMlineStyle
  2
STANDARD
 70
0
  3

 62
256
 51
90.0
 52
90.0
 71
2
 49
0.5
 62
256
  6
BYLAYER
 49
-0.5
 62
256
  6
BYLAYER
  0
LAYOUT
  5
220
102
{ACAD_REACTORS
330
1A
102
}
100
AcDbPlotSettings
  1

  2
none_device
  4
ANSI_C_(22.00_x_17.00_Inches)
  6

 40
0.0
 41
0.0
 42
0.0
 43
0.0
 44
558.8
 45
431.8
 46
0.0
 47
0.0
 48
0.0
 49
0.0
140
0.0
141
0.0
142
1.0
143
1.0
 70
1024
 72
0
 73
0
 74
0
  7

 75
0
147
1.0
148
0.0
149
0.0
100
AcDbLayout
  1
Model
 70
0
 71
0
 10
0.0
 20
0.0
 11
22.0
 21
17.0
 12
0.0
 22
0.0
 32
0.0
 14
0.0
 24
0.0
 34
0.0
 15
0.0
 25
0.0
 35
0.0
146
0.0
 13
0.0
 23
0.0
 33
0.0
 16
1.0
 26
0.0
 36
0.0
 17
0.0
 27
1.0
 37
0.0
 76
0
330
205
345
0
346
0
  0
LAYOUT
  5
221
102
{ACAD_REACTORS
330
1A
102
}
100
AcDbPlotSettings
  1

  2
none_device
  4
ANSI_C_(22.00_x_17.00_Inches)
  6

 40
0.0
 41
0.0
 42
0.0
 43
0.0
 44
558.8
 45
431.8
 46
0.0
 47
0.0
 48
0.0
 49
0.0
140
0.0
141
0.0
142
1.0
143
1.0
 70
0
 72
0
 73
0
 74
0
  7

 75
0
147
1.0
148
0.0
149
0.0
100
AcDbLayout
  1
Layout1
 70
0
 71
1
 10
0.0
 20
0.0
 11
22.0
 21
17.0
 12
0.0
 22
0.0
 32
0.0
 14
0.0
 24
0.0
 34
0.0
 15
0.0
 25
0.0
 35
0.0
146
0.0
 13
0.0
 23
0.0
 33
0.0
 16
1.0
 26
0.0
 36
0.0
 17
0.0
 27
1.0
 37
0.0
 76
0
330
206
345
0
346
0
  0
ENDSEC
  0
EOF
