999
DXF file: E:\BT Custom\CADOUTPUT\_FRONT.dxf
999
Pro/ENGINEER 2018400 by Parametric Technology Corporation
  0
SECTION
  2
HEADER
  9
$ACADVER
  1
AC1018
  9
$DWGCODEPAGE
  3
ANSI_1252
  9
$EXTMAX
 10
22.0
 20
17.0
 30
0.0
  9
$EXTMIN
 10
0.0
 20
0.0
 30
0.0
  9
$LIMMIN
 10
0.0
 20
0.0
  9
$LIMMAX
 10
22.0
 20
17.0
  9
$VIEWCTR
 10
11.0
 20
8.5
  9
$VIEWSIZE
 40
17.0
  9
$CLAYER
  8
0
  9
$LTSCALE
 40
1.21
  9
$CELTYPE
  6
BYLAYER
  9
$DIMSCALE
 40
1.0
  9
$DIMASZ
 40
0.1
  9
$DIMEXO
 40
0.0625
  9
$DIMDLI
 40
0.836
  9
$DIMEXE
 40
0.125
  9
$DIMCEN
 40
0.198
  9
$DIMLFAC
 40
1.0
  9
$DIMBLK
  1
_FILLED
  9
$DIMALT
 70
1
  9
$DIMALTD
 70
2
  9
$DIMALTTD
 70
2
  9
$DIMALTF
 40
25.4
  9
$DIMTXT
 40
0.08
  9
$DIMTOL
 70
1
  9
$DIMLIM
 70
0
  9
$DIMTFAC
 40
1.0
  9
$DIMTP
 40
0.001
  9
$DIMTM
 40
0.001
  9
$DIMGAP
 40
0.09
  9
$DIMDSEP
 70
46
  9
$AUNITS
 70
0
  9
$PDMODE
 70
3
  9
$PDSIZE
 40
0.06
  9
$HANDSEED
  5
22E
  9
$TILEMODE
 70
1
  9
$MEASUREMENT
 70
0
  9
$INSUNITS
 70
1
  0
ENDSEC
  0
SECTION
  2
CLASSES
  0
CLASS
  1
ACDBDICTIONARYWDFLT
  2
AcDbDictionaryWithDefault
  3
AutoCAD 2000
 90
0
 91
1
280
0
281
0
  0
CLASS
  1
ACDBPLACEHOLDER
  2
AcDbPlaceHolder
  3
AutoCAD 2000
 90
0
 91
1
280
0
281
0
  0
CLASS
  1
LAYOUT
  2
AcDbLayout
  3
AutoCAD 2000
 90
0
 91
0
280
0
281
0
  0
ENDSEC
  0
SECTION
  2
TABLES
  0
TABLE
  2
VPORT
  5
8
100
AcDbSymbolTable
 70
2
  0
VPORT
  5
1F4
100
AcDbSymbolTableRecord
100
AcDbViewportTableRecord
  2
*ACTIVE
 70
0
 10
0.0
 20
0.0
 11
1.0
 21
1.0
 12
11.0
 22
8.5
 13
0.0
 23
0.0
 14
1.0
 24
1.0
 15
0.0
 25
0.0
 16
0.0
 26
0.0
 36
1.0
 17
0.0
 27
0.0
 37
0.0
 40
17.0
 41
1.2941176471
 42
50.0
 43
0.0
 44
0.0
 50
0.0
 51
0.0
 71
0
 72
100
 73
1
 74
1
 75
0
 76
0
 77
0
 78
0
  0
ENDTAB
  0
TABLE
  2
LTYPE
  5
5
100
AcDbSymbolTable
 70
6
  0
LTYPE
  5
14
100
AcDbSymbolTableRecord
100
AcDbLinetypeTableRecord
  2
BYBLOCK
 70
0
  3

 72
65
 73
0
 40
0.0
  0
LTYPE
  5
15
100
AcDbSymbolTableRecord
100
AcDbLinetypeTableRecord
  2
BYLAYER
 70
0
  3

 72
65
 73
0
 40
0.0
  0
LTYPE
  5
16
100
AcDbSymbolTableRecord
100
AcDbLinetypeTableRecord
  2
CONTINUOUS
 70
64
  3
Solid line
 72
65
 73
0
 40
0.0
  0
LTYPE
  5
1F5
100
AcDbSymbolTableRecord
100
AcDbLinetypeTableRecord
  2
CENTER
 70
64
  3
____ _ ____ _ ____ _ ____ _ ____ _ ____ _ ____
 72
65
 73
4
 40
0.6
 49
0.375
 74
0
 49
-0.075
 74
0
 49
0.075
 74
0
 49
-0.075
 74
0
  0
LTYPE
  5
1F6
100
AcDbSymbolTableRecord
100
AcDbLinetypeTableRecord
  2
HIDDEN
 70
64
  3
- - - - - - - - - - - - - - - - - - - -
 72
65
 73
2
 40
0.2
 49
0.1
 74
0
 49
-0.1
 74
0
  0
LTYPE
  5
1F7
100
AcDbSymbolTableRecord
100
AcDbLinetypeTableRecord
  2
PHANTOM
 70
64
  3
_____ _ _ _____ _ _ _____ _ _ _____
 72
65
 73
6
 40
0.8
 49
0.45
 74
0
 49
-0.05
 74
0
 49
0.1
 74
0
 49
-0.05
 74
0
 49
0.1
 74
0
 49
-0.05
 74
0
  0
LTYPE
  5
1F8
100
AcDbSymbolTableRecord
100
AcDbLinetypeTableRecord
  2
DOT
 70
64
  3
. . . . . . . . . . . . . . . . . . . .
 72
65
 73
2
 40
0.2
 49
0.1
 74
0
 49
-0.1
 74
0
  0
LTYPE
  5
1F9
100
AcDbSymbolTableRecord
100
AcDbLinetypeTableRecord
  2
DASHED
 70
64
  3
- - - - - - - - - - - - - - - - - - - -
 72
65
 73
2
 40
0.2
 49
0.1
 74
0
 49
-0.1
 74
0
  0
ENDTAB
  0
TABLE
  2
LAYER
  5
2
100
AcDbSymbolTable
 70
36
  0
LAYER
  5
10
100
AcDbSymbolTableRecord
100
AcDbLayerTableRecord
  2
0
 70
0
 62
7
  6
CONTINUOUS
370
-3
390
F
  0
LAYER
  5
1FA
100
AcDbSymbolTableRecord
100
AcDbLayerTableRecord
  2
DEFAULT_1
 70
0
 62
7
  6
CENTER
370
-3
390
F
  0
LAYER
  5
1FB
100
AcDbSymbolTableRecord
100
AcDbLayerTableRecord
  2
DEFAULT_2
 70
0
 62
8
  6
HIDDEN
370
-3
390
F
  0
LAYER
  5
1FC
100
AcDbSymbolTableRecord
100
AcDbLayerTableRecord
  2
DEFAULT_3
 70
0
 62
7
  6
PHANTOM
370
-3
390
F
  0
LAYER
  5
1FD
100
AcDbSymbolTableRecord
100
AcDbLayerTableRecord
  2
ALL_FEATURES
 70
0
 62
7
  6
CONTINUOUS
370
-3
390
F
  0
LAYER
  5
1FE
100
AcDbSymbolTableRecord
100
AcDbLayerTableRecord
  2
AXES_FEATURES
 70
0
 62
7
  6
CONTINUOUS
370
-3
390
F
  0
LAYER
  5
1FF
100
AcDbSymbolTableRecord
100
AcDbLayerTableRecord
  2
DEFAULT_COORDINATE_SYSTEM
 70
0
 62
7
  6
CONTINUOUS
370
-3
390
F
  0
LAYER
  5
200
100
AcDbSymbolTableRecord
100
AcDbLayerTableRecord
  2
DEFAULT_DATUM_AXES
 70
0
 62
7
  6
CONTINUOUS
370
-3
390
F
  0
LAYER
  5
201
100
AcDbSymbolTableRecord
100
AcDbLayerTableRecord
  2
DEFAULT_DATUM_PLANES
 70
0
 62
7
  6
CONTINUOUS
370
-3
390
F
  0
LAYER
  5
202
100
AcDbSymbolTableRecord
100
AcDbLayerTableRecord
  2
DIMENSIONS
 70
0
 62
7
  6
CONTINUOUS
370
-3
390
F
  0
ENDTAB
  0
TABLE
  2
STYLE
  5
3
100
AcDbSymbolTable
 70
1
  0
STYLE
  5
11
100
AcDbSymbolTableRecord
100
AcDbTextStyleTableRecord
  2
STANDARD
 70
0
 40
0.0
 41
0.8
 50
0.0
 71
0
 42
0.2
  3
txt
  4

  0
STYLE
  5
203
100
AcDbSymbolTableRecord
100
AcDbTextStyleTableRecord
  2
TEXTSTYLE_1
 70
0
 40
0.0
 41
0.8
 50
0.0
 71
0
 42
0.2
  3
gdt
  4

  0
ENDTAB
  0
TABLE
  2
VIEW
  5
6
100
AcDbSymbolTable
 70
0
  0
ENDTAB
  0
TABLE
  2
UCS
  5
7
100
AcDbSymbolTable
 70
0
  0
ENDTAB
  0
TABLE
  2
APPID
  5
9
100
AcDbSymbolTable
 70
1
  0
APPID
  5
204
100
AcDbSymbolTableRecord
100
AcDbRegAppTableRecord
  2
ACAD
 70
0
  0
ENDTAB
  0
TABLE
  2
BLOCK_RECORD
  5
1
100
AcDbSymbolTable
 70
0
  0
BLOCK_RECORD
  5
205
100
AcDbSymbolTableRecord
100
AcDbBlockTableRecord
  2
*Model_Space
  0
BLOCK_RECORD
  5
206
100
AcDbSymbolTableRecord
100
AcDbBlockTableRecord
  2
*Paper_Space
  0
BLOCK_RECORD
  5
207
100
AcDbSymbolTableRecord
100
AcDbBlockTableRecord
  2
_FILLED
  0
ENDTAB
  0
TABLE
  2
DIMSTYLE
  5
A
100
AcDbSymbolTable
 70
1
100
AcDbDimStyleTable
 71
0
  0
DIMSTYLE
105
208
100
AcDbSymbolTableRecord
100
AcDbDimStyleTableRecord
  2
STANDARD
 70
0
  3

  4

 40
1.0
 41
0.1
 42
0.0625
 43
0.38
 44
0.125
 45
0.0
 46
0.0
 47
0.001
 48
0.001
140
0.08
141
0.09
142
0.0
143
25.4
144
1.0
145
0.0
146
1.0
147
0.09
 71
1.0
 72
0.0
 73
1
 74
1
 75
0
 76
0
 77
0
 78
4
 79
1
170
1
171
2
172
0
173
0
174
0
175
0
176
0
177
0
178
0
270
2
179
3
271
3
272
3
273
2
274
2
275
0
280
0
281
0
282
0
283
1
284
4
285
0
286
0
287
3
288
0
340
11
278
46
341
207
342
207
343
207
344
207
  0
ENDTAB
  0
ENDSEC
  0
SECTION
  2
BLOCKS
  0
BLOCK
  5
20
100
AcDbEntity
  8
0
100
AcDbBlockBegin
  2
*Model_Space
 70
0
 10
0.0
 20
0.0
 30
0.0
  3
*Model_Space
  1

  0
ENDBLK
  5
21
100
AcDbEntity
  8
0
100
AcDbBlockEnd
  0
BLOCK
  5
1C
100
AcDbEntity
  8
0
100
AcDbBlockBegin
  2
*Paper_Space
 70
0
 10
0.0
 20
0.0
 30
0.0
  3
*Paper_Space
  1

  0
ENDBLK
  5
1D
100
AcDbEntity
  8
0
100
AcDbBlockEnd
  0
BLOCK
  5
209
100
AcDbEntity
  8
0
100
AcDbBlockBegin
  2
_FILLED
 70
64
 10
0.0
 20
0.0
  3
_FILLED
  1

  0
SOLID
  5
20A
100
AcDbEntity
  8
0
  6
BYBLOCK
 62
0
100
AcDbTrace
 10
0.0
 20
0.0
 11
-1.0
 21
0.2
 12
-1.0
 22
-0.2
 13
-1.0
 23
-0.2
  0
ENDBLK
  5
20B
100
AcDbEntity
  8
0
  6
BYBLOCK
 62
0
100
AcDbBlockEnd
  0
ENDSEC
  0
SECTION
  2
ENTITIES
  0
LINE
  5
20C
100
AcDbEntity
  8
0
100
AcDbLine
 62
9
  6
CONTINUOUS
 10
-8.4373076573
 20
9.8926695021
 11
-8.4373076573
 21
8.6426695021
  0
LINE
  5
20D
100
AcDbEntity
  8
0
100
AcDbLine
 62
7
  6
CONTINUOUS
 10
-10.0592278156
 20
8.6426695021
 11
31.9346125011
 21
8.6426695021
  0
LINE
  5
20E
100
AcDbEntity
  8
0
100
AcDbLine
 62
7
  6
CONTINUOUS
 10
-10.0592278156
 20
9.8926695021
 11
31.9346125011
 21
9.8926695021
  0
LINE
  5
20F
100
AcDbEntity
  8
0
100
AcDbLine
 62
9
  6
CONTINUOUS
 10
30.3126923427
 20
9.8926695021
 11
30.3126923427
 21
8.6426695021
  0
ARC
  5
210
100
AcDbEntity
  8
0
100
AcDbCircle
 62
7
  6
CONTINUOUS
 10
31.9376923427
 20
9.2676695021
 40
1.5
100
AcDbArc
 50
204.6349979094
 51
155.3650020916
  0
ARC
  5
211
100
AcDbEntity
  8
0
100
AcDbCircle
 62
7
  6
CONTINUOUS
 10
10.9376923427
 20
9.2676695021
 40
1.5
100
AcDbArc
 50
24.6349979094
 51
155.3650020916
  0
ARC
  5
212
100
AcDbEntity
  8
0
100
AcDbCircle
 62
7
  6
CONTINUOUS
 10
10.9376923427
 20
9.2676695021
 40
1.5
100
AcDbArc
 50
204.6349979094
 51
335.3650020916
  0
ARC
  5
213
100
AcDbEntity
  8
0
100
AcDbCircle
 62
7
  6
CONTINUOUS
 10
-10.0623076573
 20
9.2676695021
 40
1.5
100
AcDbArc
 50
24.6349979094
 51
335.3650020916
  0
ARC
  5
214
100
AcDbEntity
  8
0
100
AcDbCircle
 62
9
  6
CONTINUOUS
 10
31.9376923427
 20
9.2676695021
 40
1.34
100
AcDbArc
 50
207.803832257
 51
152.1961674811
  0
ARC
  5
215
100
AcDbEntity
  8
0
100
AcDbCircle
 62
9
  6
CONTINUOUS
 10
10.9376923427
 20
9.2676695021
 40
1.34
100
AcDbArc
 50
207.803832257
 51
332.1961674811
  0
ARC
  5
216
100
AcDbEntity
  8
0
100
AcDbCircle
 62
9
  6
CONTINUOUS
 10
10.9376923427
 20
9.2676695021
 40
1.34
100
AcDbArc
 50
27.803832257
 51
152.1961674811
  0
ARC
  5
217
100
AcDbEntity
  8
0
100
AcDbCircle
 62
9
  6
CONTINUOUS
 10
-10.0623076573
 20
9.2676695021
 40
1.34
100
AcDbArc
 50
27.803832257
 51
332.1961674811
  0
ARC
  5
218
100
AcDbEntity
  8
0
100
AcDbCircle
 62
7
  6
CONTINUOUS
 10
31.9376923427
 20
9.2676695021
 40
1.32
100
AcDbArc
 50
208.2687423977
 51
151.7312575951
  0
ARC
  5
219
100
AcDbEntity
  8
0
100
AcDbCircle
 62
7
  6
CONTINUOUS
 10
10.9376923427
 20
9.2676695021
 40
1.32
100
AcDbArc
 50
28.2687423977
 51
151.7312575951
  0
ARC
  5
21A
100
AcDbEntity
  8
0
100
AcDbCircle
 62
7
  6
CONTINUOUS
 10
10.9376923427
 20
9.2676695021
 40
1.32
100
AcDbArc
 50
208.2687423977
 51
331.7312575951
  0
ARC
  5
21B
100
AcDbEntity
  8
0
100
AcDbCircle
 62
7
  6
CONTINUOUS
 10
-10.0623076573
 20
9.2676695021
 40
1.32
100
AcDbArc
 50
28.2687423977
 51
331.7312575951
  0
ARC
  5
21C
100
AcDbEntity
  8
0
100
AcDbCircle
 62
9
  6
CONTINUOUS
 10
31.9376923427
 20
9.2676695021
 40
1.3
100
AcDbArc
 50
208.747914411
 51
151.2520855907
  0
ARC
  5
21D
100
AcDbEntity
  8
0
100
AcDbCircle
 62
9
  6
CONTINUOUS
 10
-10.0623076573
 20
9.2676695021
 40
1.3
100
AcDbArc
 50
28.747914411
 51
331.2520855907
  0
ARC
  5
21E
100
AcDbEntity
  8
0
100
AcDbCircle
 62
9
  6
CONTINUOUS
 10
10.9376923427
 20
9.2676695021
 40
1.3
100
AcDbArc
 50
28.747914411
 51
151.2520855907
  0
ARC
  5
21F
100
AcDbEntity
  8
0
100
AcDbCircle
 62
9
  6
CONTINUOUS
 10
10.9376923427
 20
9.2676695021
 40
1.3
100
AcDbArc
 50
208.747914411
 51
331.2520855907
  0
ARC
  5
220
100
AcDbEntity
  8
0
100
AcDbCircle
 62
7
  6
CONTINUOUS
 10
31.9376923427
 20
9.2676695021
 40
0.875
100
AcDbArc
 50
225.6907249491
 51
134.3092750457
  0
ARC
  5
221
100
AcDbEntity
  8
0
100
AcDbCircle
 62
7
  6
CONTINUOUS
 10
10.9376923427
 20
9.2676695021
 40
0.875
100
AcDbArc
 50
225.6061109423
 51
314.3938890539
  0
ARC
  5
222
100
AcDbEntity
  8
0
100
AcDbCircle
 62
7
  6
CONTINUOUS
 10
10.9376923427
 20
9.2676695021
 40
0.875
100
AcDbArc
 50
45.6061109423
 51
134.3938890539
  0
ARC
  5
223
100
AcDbEntity
  8
0
100
AcDbCircle
 62
7
  6
CONTINUOUS
 10
-10.0623076573
 20
9.2676695021
 40
0.875
100
AcDbArc
 50
45.5956680294
 51
314.4043319727
  0
ARC
  5
224
100
AcDbEntity
  8
0
100
AcDbCircle
 62
9
  6
CONTINUOUS
 10
-10.0623076573
 20
9.2676695021
 40
0.815
100
AcDbArc
 50
50.0986392328
 51
309.9013607598
  0
ARC
  5
225
100
AcDbEntity
  8
0
100
AcDbCircle
 62
9
  6
CONTINUOUS
 10
10.9376923427
 20
9.2676695021
 40
0.815
100
AcDbArc
 50
230.0987061414
 51
309.9012938693
  0
ARC
  5
226
100
AcDbEntity
  8
0
100
AcDbCircle
 62
9
  6
CONTINUOUS
 10
10.9376923427
 20
9.2676695021
 40
0.815
100
AcDbArc
 50
50.0987061414
 51
129.9012938693
  0
ARC
  5
227
100
AcDbEntity
  8
0
100
AcDbCircle
 62
9
  6
CONTINUOUS
 10
31.9376923427
 20
9.2676695021
 40
0.815
100
AcDbArc
 50
230.0946256179
 51
129.9053743625
  0
SPLINE
  5
228
100
AcDbEntity
  8
0
100
AcDbSpline
 62
7
  6
CONTINUOUS
 70
0
 71
3
 72
31
 73
27
 74
0
 42
0.0000001
 43
0.0000001
 44
0.0000000001
 40
0.0
 40
0.0
 40
0.0
 40
0.0
 40
0.0312547103
 40
0.0625094351
 40
0.0937641461
 40
0.1250188549
 40
0.1875095316
 40
0.2500001844
 40
0.2812548953
 40
0.3125096016
 40
0.3437643147
 40
0.3750190264
 40
0.4375096191
 40
0.5000002034
 40
0.5624907702
 40
0.624981318
 40
0.656236029
 40
0.6874907335
 40
0.7187454328
 40
0.7500001406
 40
0.8124906666
 40
0.8749812674
 40
0.906235904
 40
0.9374901333
 40
0.9687464527
 40
1.0
 40
1.0
 40
1.0
 40
1.0
 10
-10.0592278156
 20
9.8926694565
 30
0.0
 10
-10.069460663
 20
9.8926694568
 30
0.0
 10
-10.0899299328
 20
9.892168576
 30
0.0
 10
-10.1205572754
 20
9.8899159986
 30
0.0
 10
-10.1510391023
 20
9.8861669402
 30
0.0
 10
-10.191378533
 20
9.8791869957
 30
0.0
 10
-10.2410902028
 20
9.8667688206
 30
0.0
 10
-10.2893474355
 20
9.8495436892
 30
0.0
 10
-10.3267885793
 20
9.8329858794
 30
0.0
 10
-10.3542334276
 20
9.819203274
 30
0.0
 10
-10.3809694268
 20
9.8040913292
 30
0.0
 10
-10.4155784742
 20
9.7822237167
 30
0.0
 10
-10.4567674994
 20
9.7517418052
 30
0.0
 10
-10.5023591556
 20
9.7105029102
 30
0.0
 10
-10.543688467
 20
9.6649931657
 30
0.0
 10
-10.5742497385
 20
9.6238627727
 30
0.0
 10
-10.5961803206
 20
9.5892935577
 30
0.0
 10
-10.6113389346
 20
9.5625839514
 30
0.0
 10
-10.6251668656
 20
9.5351618523
 30
0.0
 10
-10.6417819911
 20
9.4977460909
 30
0.0
 10
-10.6590724223
 20
9.4495117632
 30
0.0
 10
-10.6715416822
 20
9.399812324
 30
0.0
 10
-10.6785521005
 20
9.3594782794
 30
0.0
 10
-10.6823180628
 20
9.328998078
 30
0.0
 10
-10.6845808556
 20
9.2983714053
 30
0.0
 10
-10.6850843366
 20
9.2779019688
 30
0.0
 10
-10.6850843366
 20
9.2676695021
 30
0.0
  0
SPLINE
  5
229
100
AcDbEntity
  8
0
100
AcDbSpline
 62
7
  6
CONTINUOUS
 70
0
 71
3
 72
31
 73
27
 74
0
 42
0.0000001
 43
0.0000001
 44
0.0000000001
 40
0.0
 40
0.0
 40
0.0
 40
0.0
 40
0.0312535466
 40
0.0625098648
 40
0.0937640941
 40
0.1250187312
 40
0.1875093316
 40
0.2499998579
 40
0.2812545654
 40
0.3125092651
 40
0.3437639695
 40
0.3750186803
 40
0.4375092284
 40
0.4999997952
 40
0.5624903795
 40
0.6249809722
 40
0.656235684
 40
0.687490397
 40
0.7187451034
 40
0.7499998143
 40
0.8124904671
 40
0.8749811444
 40
0.9062358532
 40
0.9374905644
 40
0.9687452895
 40
1.0
 40
1.0
 40
1.0
 40
1.0
 10
-10.6850843366
 20
9.2676695021
 30
0.0
 10
-10.6850843366
 20
9.2574370358
 30
0.0
 10
-10.6845808557
 20
9.2369675998
 30
0.0
 10
-10.6823180629
 20
9.2063409278
 30
0.0
 10
-10.6785521007
 20
9.1758607266
 30
0.0
 10
-10.6715416826
 20
9.135526682
 30
0.0
 10
-10.6590724228
 20
9.0858272426
 30
0.0
 10
-10.6417819918
 20
9.037592915
 30
0.0
 10
-10.6251668662
 20
9.0001771534
 30
0.0
 10
-10.6113389353
 20
8.9727550543
 30
0.0
 10
-10.5961803214
 20
8.9460454479
 30
0.0
 10
-10.5742497393
 20
8.9114762328
 30
0.0
 10
-10.543688468
 20
8.8703458397
 30
0.0
 10
-10.5023591566
 20
8.8248360951
 30
0.0
 10
-10.4567675004
 20
8.7835971999
 30
0.0
 10
-10.4155784753
 20
8.7531152883
 30
0.0
 10
-10.3809694279
 20
8.7312476758
 30
0.0
 10
-10.3542334288
 20
8.7161357309
 30
0.0
 10
-10.3267885804
 20
8.7023531255
 30
0.0
 10
-10.2893474367
 20
8.6857953155
 30
0.0
 10
-10.2410902038
 20
8.668570184
 30
0.0
 10
-10.1913785338
 20
8.6561520088
 30
0.0
 10
-10.1510391029
 20
8.6491720641
 30
0.0
 10
-10.1205572759
 20
8.6454230057
 30
0.0
 10
-10.089929933
 20
8.6431704283
 30
0.0
 10
-10.069460663
 20
8.6426695474
 30
0.0
 10
-10.0592278156
 20
8.6426695478
 30
0.0
  0
SPLINE
  5
22A
100
AcDbEntity
  8
0
100
AcDbSpline
 62
7
  6
CONTINUOUS
 70
0
 71
3
 72
31
 73
27
 74
0
 42
0.0000001
 43
0.0000001
 44
0.0000000001
 40
0.0
 40
0.0
 40
0.0
 40
0.0
 40
0.0312535473
 40
0.0625098667
 40
0.093764096
 40
0.1250187326
 40
0.1875093334
 40
0.2499998594
 40
0.2812545672
 40
0.3125092665
 40
0.343763971
 40
0.375018682
 40
0.4375092298
 40
0.4999997966
 40
0.5624903809
 40
0.6249809736
 40
0.6562356853
 40
0.6874903984
 40
0.7187451047
 40
0.7499998156
 40
0.8124904684
 40
0.8749811451
 40
0.9062358539
 40
0.9374905649
 40
0.9687452897
 40
1.0
 40
1.0
 40
1.0
 40
1.0
 10
32.560469022
 20
9.2676695021
 30
0.0
 10
32.560469022
 20
9.2779019688
 30
0.0
 10
32.559965541
 20
9.2983714053
 30
0.0
 10
32.5577027483
 20
9.328998078
 30
0.0
 10
32.553936786
 20
9.3594782794
 30
0.0
 10
32.5469263677
 20
9.399812324
 30
0.0
 10
32.5344571078
 20
9.4495117632
 30
0.0
 10
32.5171666766
 20
9.4977460909
 30
0.0
 10
32.5005515511
 20
9.5351618523
 30
0.0
 10
32.48672362
 20
9.5625839514
 30
0.0
 10
32.4715650061
 20
9.5892935577
 30
0.0
 10
32.449634424
 20
9.6238627727
 30
0.0
 10
32.4190731525
 20
9.6649931657
 30
0.0
 10
32.3777438411
 20
9.7105029102
 30
0.0
 10
32.3321521849
 20
9.7517418052
 30
0.0
 10
32.2909631597
 20
9.7822237167
 30
0.0
 10
32.2563541123
 20
9.8040913292
 30
0.0
 10
32.2296181131
 20
9.819203274
 30
0.0
 10
32.2021732648
 20
9.8329858794
 30
0.0
 10
32.164732121
 20
9.8495436892
 30
0.0
 10
32.1164748882
 20
9.8667688206
 30
0.0
 10
32.0667632184
 20
9.8791869957
 30
0.0
 10
32.0264237878
 20
9.8861669402
 30
0.0
 10
31.9959419609
 20
9.8899159986
 30
0.0
 10
31.9653146183
 20
9.892168576
 30
0.0
 10
31.9448453485
 20
9.8926694568
 30
0.0
 10
31.9346125011
 20
9.8926694565
 30
0.0
  0
SPLINE
  5
22B
100
AcDbEntity
  8
0
100
AcDbSpline
 62
7
  6
CONTINUOUS
 70
0
 71
3
 72
31
 73
27
 74
0
 42
0.0000001
 43
0.0000001
 44
0.0000000001
 40
0.0
 40
0.0
 40
0.0
 40
0.0
 40
0.0312547105
 40
0.0625094356
 40
0.0937641468
 40
0.1250188556
 40
0.1875095329
 40
0.2500001857
 40
0.2812548966
 40
0.312509603
 40
0.343764316
 40
0.3750190278
 40
0.4375096205
 40
0.5000002048
 40
0.5624907716
 40
0.6249813197
 40
0.6562360305
 40
0.6874907349
 40
0.7187454346
 40
0.7500001421
 40
0.8124906684
 40
0.8749812688
 40
0.9062359059
 40
0.9374901352
 40
0.9687464534
 40
1.0
 40
1.0
 40
1.0
 40
1.0
 10
31.9346125011
 20
8.6426695478
 30
0.0
 10
31.9448453485
 20
8.6426695474
 30
0.0
 10
31.9653146185
 20
8.6431704283
 30
0.0
 10
31.9959419613
 20
8.6454230057
 30
0.0
 10
32.0264237884
 20
8.6491720641
 30
0.0
 10
32.0667632193
 20
8.6561520088
 30
0.0
 10
32.1164748893
 20
8.668570184
 30
0.0
 10
32.1647321222
 20
8.6857953155
 30
0.0
 10
32.2021732659
 20
8.7023531255
 30
0.0
 10
32.2296181143
 20
8.7161357309
 30
0.0
 10
32.2563541134
 20
8.7312476758
 30
0.0
 10
32.2909631608
 20
8.7531152883
 30
0.0
 10
32.3321521859
 20
8.7835971999
 30
0.0
 10
32.3777438421
 20
8.8248360951
 30
0.0
 10
32.4190731534
 20
8.8703458397
 30
0.0
 10
32.4496344248
 20
8.9114762328
 30
0.0
 10
32.4715650069
 20
8.9460454479
 30
0.0
 10
32.4867236207
 20
8.9727550543
 30
0.0
 10
32.5005515517
 20
9.0001771534
 30
0.0
 10
32.5171666773
 20
9.037592915
 30
0.0
 10
32.5344571082
 20
9.0858272426
 30
0.0
 10
32.5469263681
 20
9.135526682
 30
0.0
 10
32.5539367862
 20
9.1758607266
 30
0.0
 10
32.5577027484
 20
9.2063409278
 30
0.0
 10
32.5599655412
 20
9.2369675998
 30
0.0
 10
32.560469022
 20
9.2574370358
 30
0.0
 10
32.560469022
 20
9.2676695021
 30
0.0
  0
ENDSEC
  0
SECTION
  2
OBJECTS
  0
DICTIONARY
  5
C
100
AcDbDictionary
280
0
281
1
  3
ACAD_GROUP
350
D
  3
ACAD_MLINESTYLE
350
17
  3
ACAD_LAYOUT
350
1A
  3
ACAD_PLOTSETTINGS
350
19
  3
ACAD_PLOTSTYLENAME
350
E
  0
DICTIONARY
  5
D
102
{ACAD_REACTORS
330
C
102
}
100
AcDbDictionary
280
0
281
1
  0
ACDBDICTIONARYWDFLT
  5
E
102
{ACAD_REACTORS
330
C
102
}
100
AcDbDictionary
281
1
  3
Normal
350
F
100
AcDbDictionaryWithDefault
340
F
  0
DICTIONARY
  5
17
102
{ACAD_REACTORS
330
C
102
}
100
AcDbDictionary
280
0
281
1
  3
Standard
350
18
  0
DICTIONARY
  5
19
102
{ACAD_REACTORS
330
C
102
}
100
AcDbDictionary
281
1
  0
DICTIONARY
  5
1A
102
{ACAD_REACTORS
330
C
102
}
100
AcDbDictionary
281
1
  3
Model
350
22C
  3
Layout1
350
22D
  0
ACDBPLACEHOLDER
  5
F
102
{ACAD_REACTORS
330
E
102
}
  0
MLINESTYLE
  5
18
102
{ACAD_REACTORS
330
17
102
}
100
AcDbMlineStyle
  2
STANDARD
 70
0
  3

 62
256
 51
90.0
 52
90.0
 71
2
 49
0.5
 62
256
  6
BYLAYER
 49
-0.5
 62
256
  6
BYLAYER
  0
LAYOUT
  5
22C
102
{ACAD_REACTORS
330
1A
102
}
100
AcDbPlotSettings
  1

  2
none_device
  4
ANSI_C_(22.00_x_17.00_Inches)
  6

 40
0.0
 41
0.0
 42
0.0
 43
0.0
 44
558.8
 45
431.8
 46
0.0
 47
0.0
 48
0.0
 49
0.0
140
0.0
141
0.0
142
1.0
143
1.0
 70
1024
 72
0
 73
0
 74
0
  7

 75
0
147
1.0
148
0.0
149
0.0
100
AcDbLayout
  1
Model
 70
0
 71
0
 10
0.0
 20
0.0
 11
22.0
 21
17.0
 12
0.0
 22
0.0
 32
0.0
 14
0.0
 24
0.0
 34
0.0
 15
0.0
 25
0.0
 35
0.0
146
0.0
 13
0.0
 23
0.0
 33
0.0
 16
1.0
 26
0.0
 36
0.0
 17
0.0
 27
1.0
 37
0.0
 76
0
330
205
345
0
346
0
  0
LAYOUT
  5
22D
102
{ACAD_REACTORS
330
1A
102
}
100
AcDbPlotSettings
  1

  2
none_device
  4
ANSI_C_(22.00_x_17.00_Inches)
  6

 40
0.0
 41
0.0
 42
0.0
 43
0.0
 44
558.8
 45
431.8
 46
0.0
 47
0.0
 48
0.0
 49
0.0
140
0.0
141
0.0
142
1.0
143
1.0
 70
0
 72
0
 73
0
 74
0
  7

 75
0
147
1.0
148
0.0
149
0.0
100
AcDbLayout
  1
Layout1
 70
0
 71
1
 10
0.0
 20
0.0
 11
22.0
 21
17.0
 12
0.0
 22
0.0
 32
0.0
 14
0.0
 24
0.0
 34
0.0
 15
0.0
 25
0.0
 35
0.0
146
0.0
 13
0.0
 23
0.0
 33
0.0
 16
1.0
 26
0.0
 36
0.0
 17
0.0
 27
1.0
 37
0.0
 76
0
330
206
345
0
346
0
  0
ENDSEC
  0
EOF
