999
DXF file: 252_front.dxf
999
Pro/ENGINEER 2018400 by Parametric Technology Corporation
  0
SECTION
  2
HEADER
  9
$ACADVER
  1
AC1027
  9
$DWGCODEPAGE
  3
ANSI_1252
  9
$EXTMAX
 10
11.0
 20
8.5
 30
0.0
  9
$EXTMIN
 10
0.0
 20
0.0
 30
0.0
  9
$LIMMIN
 10
0.0
 20
0.0
  9
$LIMMAX
 10
11.0
 20
8.5
  9
$VIEWCTR
 10
5.5
 20
4.25
  9
$VIEWSIZE
 40
8.5
  9
$CLAYER
  8
0
  9
$LTSCALE
 40
0.605
  9
$CELTYPE
  6
BYLAYER
  9
$DIMSCALE
 40
1.0
  9
$DIMASZ
 40
0.1
  9
$DIMEXO
 40
0.0625
  9
$DIMDLI
 40
0.418
  9
$DIMEXE
 40
0.125
  9
$DIMCEN
 40
0.099
  9
$DIMLFAC
 40
1.0
  9
$DIMBLK
  1
_FILLED
  9
$DIMALT
 70
1
  9
$DIMALTD
 70
1
  9
$DIMALTTD
 70
2
  9
$DIMALTF
 40
25.4
  9
$DIMTXT
 40
0.08
  9
$DIMTOL
 70
1
  9
$DIMLIM
 70
0
  9
$DIMTFAC
 40
1.0
  9
$DIMTP
 40
0.01
  9
$DIMTM
 40
0.01
  9
$DIMGAP
 40
0.09
  9
$DIMDSEP
 70
46
  9
$AUNITS
 70
0
  9
$PDMODE
 70
3
  9
$PDSIZE
 40
0.3125
  9
$HANDSEED
  5
361
  9
$TILEMODE
 70
1
  9
$MEASUREMENT
 70
0
  9
$INSUNITS
 70
1
  0
ENDSEC
  0
SECTION
  2
CLASSES
  0
CLASS
  1
ACDBDICTIONARYWDFLT
  2
AcDbDictionaryWithDefault
  3
AutoCAD 2000
 90
0
 91
1
280
0
281
0
  0
CLASS
  1
ACDBPLACEHOLDER
  2
AcDbPlaceHolder
  3
AutoCAD 2000
 90
0
 91
1
280
0
281
0
  0
CLASS
  1
LAYOUT
  2
AcDbLayout
  3
AutoCAD 2000
 90
0
 91
0
280
0
281
0
  0
ENDSEC
  0
SECTION
  2
TABLES
  0
TABLE
  2
VPORT
  5
8
100
AcDbSymbolTable
 70
2
  0
VPORT
  5
1F4
100
AcDbSymbolTableRecord
100
AcDbViewportTableRecord
  2
*ACTIVE
 70
0
 10
0.0
 20
0.0
 11
1.0
 21
1.0
 12
5.5
 22
4.25
 13
0.0
 23
0.0
 14
1.0
 24
1.0
 15
0.0
 25
0.0
 16
0.0
 26
0.0
 36
1.0
 17
0.0
 27
0.0
 37
0.0
 40
8.5
 41
1.2941176471
 42
50.0
 43
0.0
 44
0.0
 50
0.0
 51
0.0
 71
0
 72
100
 73
1
 74
1
 75
0
 76
0
 77
0
 78
0
  0
ENDTAB
  0
TABLE
  2
LTYPE
  5
5
100
AcDbSymbolTable
 70
6
  0
LTYPE
  5
14
100
AcDbSymbolTableRecord
100
AcDbLinetypeTableRecord
  2
BYBLOCK
 70
0
  3

 72
65
 73
0
 40
0.0
  0
LTYPE
  5
15
100
AcDbSymbolTableRecord
100
AcDbLinetypeTableRecord
  2
BYLAYER
 70
0
  3

 72
65
 73
0
 40
0.0
  0
LTYPE
  5
16
100
AcDbSymbolTableRecord
100
AcDbLinetypeTableRecord
  2
CONTINUOUS
 70
64
  3
Solid line
 72
65
 73
0
 40
0.0
  0
LTYPE
  5
1F5
100
AcDbSymbolTableRecord
100
AcDbLinetypeTableRecord
  2
CENTER
 70
64
  3
____ _ ____ _ ____ _ ____ _ ____ _ ____ _ ____
 72
65
 73
4
 40
0.6
 49
0.375
 74
0
 49
-0.075
 74
0
 49
0.075
 74
0
 49
-0.075
 74
0
  0
LTYPE
  5
1F6
100
AcDbSymbolTableRecord
100
AcDbLinetypeTableRecord
  2
HIDDEN
 70
64
  3
- - - - - - - - - - - - - - - - - - - -
 72
65
 73
2
 40
0.2
 49
0.1
 74
0
 49
-0.1
 74
0
  0
LTYPE
  5
1F7
100
AcDbSymbolTableRecord
100
AcDbLinetypeTableRecord
  2
PHANTOM
 70
64
  3
_____ _ _ _____ _ _ _____ _ _ _____
 72
65
 73
6
 40
0.8
 49
0.45
 74
0
 49
-0.05
 74
0
 49
0.1
 74
0
 49
-0.05
 74
0
 49
0.1
 74
0
 49
-0.05
 74
0
  0
LTYPE
  5
1F8
100
AcDbSymbolTableRecord
100
AcDbLinetypeTableRecord
  2
DOT
 70
64
  3
. . . . . . . . . . . . . . . . . . . .
 72
65
 73
2
 40
0.2
 49
0.1
 74
0
 49
-0.1
 74
0
  0
LTYPE
  5
1F9
100
AcDbSymbolTableRecord
100
AcDbLinetypeTableRecord
  2
DASHED
 70
64
  3
- - - - - - - - - - - - - - - - - - - -
 72
65
 73
2
 40
0.2
 49
0.1
 74
0
 49
-0.1
 74
0
  0
ENDTAB
  0
TABLE
  2
LAYER
  5
2
100
AcDbSymbolTable
 70
36
  0
LAYER
  5
10
100
AcDbSymbolTableRecord
100
AcDbLayerTableRecord
  2
0
 70
0
 62
7
  6
CONTINUOUS
370
-3
390
F
  0
LAYER
  5
1FA
100
AcDbSymbolTableRecord
100
AcDbLayerTableRecord
  2
DEFAULT_1
 70
0
 62
7
  6
CENTER
370
-3
390
F
  0
LAYER
  5
1FB
100
AcDbSymbolTableRecord
100
AcDbLayerTableRecord
  2
DEFAULT_2
 70
0
 62
8
  6
HIDDEN
370
-3
390
F
  0
LAYER
  5
1FC
100
AcDbSymbolTableRecord
100
AcDbLayerTableRecord
  2
DEFAULT_3
 70
0
 62
7
  6
PHANTOM
370
-3
390
F
  0
LAYER
  5
1FD
100
AcDbSymbolTableRecord
100
AcDbLayerTableRecord
  2
ALL_ASSEMBLY_MEMBERS
 70
0
 62
7
  6
CONTINUOUS
370
-3
390
F
  0
LAYER
  5
1FE
100
AcDbSymbolTableRecord
100
AcDbLayerTableRecord
  2
ALL_FEATURES
 70
0
 62
7
  6
CONTINUOUS
370
-3
390
F
  0
LAYER
  5
1FF
100
AcDbSymbolTableRecord
100
AcDbLayerTableRecord
  2
AXES_FEATURES
 70
0
 62
7
  6
CONTINUOUS
370
-3
390
F
  0
LAYER
  5
200
100
AcDbSymbolTableRecord
100
AcDbLayerTableRecord
  2
CUT_FEATURES
 70
0
 62
7
  6
CONTINUOUS
370
-3
390
F
  0
LAYER
  5
201
100
AcDbSymbolTableRecord
100
AcDbLayerTableRecord
  2
DATUM_CURVES
 70
0
 62
7
  6
CONTINUOUS
370
-3
390
F
  0
LAYER
  5
202
100
AcDbSymbolTableRecord
100
AcDbLayerTableRecord
  2
DATUM_PLANES
 70
0
 62
7
  6
CONTINUOUS
370
-3
390
F
  0
LAYER
  5
203
100
AcDbSymbolTableRecord
100
AcDbLayerTableRecord
  2
DEFAULT_COORDINATE_SYSTEM
 70
0
 62
7
  6
CONTINUOUS
370
-3
390
F
  0
LAYER
  5
204
100
AcDbSymbolTableRecord
100
AcDbLayerTableRecord
  2
DEFAULT_DATUM_AXES
 70
0
 62
7
  6
CONTINUOUS
370
-3
390
F
  0
LAYER
  5
205
100
AcDbSymbolTableRecord
100
AcDbLayerTableRecord
  2
DEFAULT_DATUM_CURVES
 70
0
 62
7
  6
CONTINUOUS
370
-3
390
F
  0
LAYER
  5
206
100
AcDbSymbolTableRecord
100
AcDbLayerTableRecord
  2
DEFAULT_DATUM_PLANES
 70
0
 62
7
  6
CONTINUOUS
370
-3
390
F
  0
LAYER
  5
207
100
AcDbSymbolTableRecord
100
AcDbLayerTableRecord
  2
DEFAULT_SURFACES
 70
0
 62
7
  6
CONTINUOUS
370
-3
390
F
  0
LAYER
  5
208
100
AcDbSymbolTableRecord
100
AcDbLayerTableRecord
  2
DIMENSIONS
 70
0
 62
7
  6
CONTINUOUS
370
-3
390
F
  0
LAYER
  5
209
100
AcDbSymbolTableRecord
100
AcDbLayerTableRecord
  2
PART_REFERENCE_DIMENSIONS
 70
0
 62
7
  6
CONTINUOUS
370
-3
390
F
  0
LAYER
  5
20A
100
AcDbSymbolTableRecord
100
AcDbLayerTableRecord
  2
PLATED_SURFACES
 70
0
 62
7
  6
CONTINUOUS
370
-3
390
F
  0
LAYER
  5
20B
100
AcDbSymbolTableRecord
100
AcDbLayerTableRecord
  2
PLATED_SURFACE_AREA
 70
0
 62
7
  6
CONTINUOUS
370
-3
390
F
  0
LAYER
  5
20C
100
AcDbSymbolTableRecord
100
AcDbLayerTableRecord
  2
PROTRUSION_FEATURES
 70
0
 62
7
  6
CONTINUOUS
370
-3
390
F
  0
LAYER
  5
20D
100
AcDbSymbolTableRecord
100
AcDbLayerTableRecord
  2
QUILT
 70
0
 62
7
  6
CONTINUOUS
370
-3
390
F
  0
LAYER
  5
20E
100
AcDbSymbolTableRecord
100
AcDbLayerTableRecord
  2
QUILT1
 70
0
 62
7
  6
CONTINUOUS
370
-3
390
F
  0
LAYER
  5
20F
100
AcDbSymbolTableRecord
100
AcDbLayerTableRecord
  2
QUILTS
 70
0
 62
7
  6
CONTINUOUS
370
-3
390
F
  0
LAYER
  5
210
100
AcDbSymbolTableRecord
100
AcDbLayerTableRecord
  2
REFERENCE_DIMENSIONS
 70
0
 62
7
  6
CONTINUOUS
370
-3
390
F
  0
LAYER
  5
211
100
AcDbSymbolTableRecord
100
AcDbLayerTableRecord
  2
ROUND_FEATURES
 70
0
 62
7
  6
CONTINUOUS
370
-3
390
F
  0
LAYER
  5
212
100
AcDbSymbolTableRecord
100
AcDbLayerTableRecord
  2
SHELL_FEATURES
 70
0
 62
7
  6
CONTINUOUS
370
-3
390
F
  0
LAYER
  5
213
100
AcDbSymbolTableRecord
100
AcDbLayerTableRecord
  2
XSEC_DATUMS
 70
0
 62
7
  6
CONTINUOUS
370
-3
390
F
  0
ENDTAB
  0
TABLE
  2
STYLE
  5
3
100
AcDbSymbolTable
 70
1
  0
STYLE
  5
11
100
AcDbSymbolTableRecord
100
AcDbTextStyleTableRecord
  2
STANDARD
 70
0
 40
0.0
 41
0.8
 50
0.0
 71
0
 42
0.2
  3
txt
  4

  0
STYLE
  5
214
100
AcDbSymbolTableRecord
100
AcDbTextStyleTableRecord
  2
TEXTSTYLE_1
 70
0
 40
0.0
 41
0.8
 50
0.0
 71
0
 42
0.2
  3
gdt
  4

  0
ENDTAB
  0
TABLE
  2
VIEW
  5
6
100
AcDbSymbolTable
 70
0
  0
ENDTAB
  0
TABLE
  2
UCS
  5
7
100
AcDbSymbolTable
 70
0
  0
ENDTAB
  0
TABLE
  2
APPID
  5
9
100
AcDbSymbolTable
 70
1
  0
APPID
  5
215
100
AcDbSymbolTableRecord
100
AcDbRegAppTableRecord
  2
ACAD
 70
0
  0
ENDTAB
  0
TABLE
  2
BLOCK_RECORD
  5
1
100
AcDbSymbolTable
 70
0
  0
BLOCK_RECORD
  5
216
100
AcDbSymbolTableRecord
100
AcDbBlockTableRecord
  2
*Model_Space
  0
BLOCK_RECORD
  5
217
100
AcDbSymbolTableRecord
100
AcDbBlockTableRecord
  2
*Paper_Space
  0
BLOCK_RECORD
  5
218
100
AcDbSymbolTableRecord
100
AcDbBlockTableRecord
  2
_FILLED
  0
ENDTAB
  0
TABLE
  2
DIMSTYLE
  5
A
100
AcDbSymbolTable
 70
1
100
AcDbDimStyleTable
 71
0
  0
DIMSTYLE
105
219
100
AcDbSymbolTableRecord
100
AcDbDimStyleTableRecord
  2
STANDARD
 70
0
  3

  4

 40
1.0
 41
0.1
 42
0.0625
 43
0.38
 44
0.125
 45
0.0
 46
0.0
 47
0.01
 48
0.01
140
0.08
141
0.09
142
0.0
143
25.4
144
1.0
145
0.0
146
1.0
147
0.09
 71
1.0
 72
0.0
 73
1
 74
1
 75
0
 76
0
 77
0
 78
4
 79
1
170
1
171
1
172
0
173
0
174
0
175
0
176
0
177
0
178
0
270
2
179
2
271
2
272
2
273
2
274
2
275
0
280
0
281
0
282
0
283
1
284
4
285
0
286
0
287
3
288
0
340
11
278
46
341
218
342
218
343
218
344
218
  0
ENDTAB
  0
ENDSEC
  0
SECTION
  2
BLOCKS
  0
BLOCK
  5
20
100
AcDbEntity
  8
0
100
AcDbBlockBegin
  2
*Model_Space
 70
0
 10
0.0
 20
0.0
 30
0.0
  3
*Model_Space
  1

  0
ENDBLK
  5
21
100
AcDbEntity
  8
0
100
AcDbBlockEnd
  0
BLOCK
  5
1C
100
AcDbEntity
  8
0
100
AcDbBlockBegin
  2
*Paper_Space
 70
0
 10
0.0
 20
0.0
 30
0.0
  3
*Paper_Space
  1

  0
ENDBLK
  5
1D
100
AcDbEntity
  8
0
100
AcDbBlockEnd
  0
BLOCK
  5
21A
100
AcDbEntity
  8
0
100
AcDbBlockBegin
  2
_FILLED
 70
64
 10
0.0
 20
0.0
  3
_FILLED
  1

  0
SOLID
  5
21B
100
AcDbEntity
  8
0
  6
BYBLOCK
 62
0
100
AcDbTrace
 10
0.0
 20
0.0
 11
-1.0
 21
0.2
 12
-1.0
 22
-0.2
 13
-1.0
 23
-0.2
  0
ENDBLK
  5
21C
100
AcDbEntity
  8
0
  6
BYBLOCK
 62
0
100
AcDbBlockEnd
  0
ENDSEC
  0
SECTION
  2
ENTITIES
  0
MTEXT
  5
21D
100
AcDbEntity
  8
0
100
AcDbMText
 62
2
  6
CONTINUOUS
  7
STANDARD
 71
3
 72
1
 10
5.4641201863
 20
0.9877225901
 30
0.0
 11
1.0
 21
0.0
 31
0.0
 73
2
 44
0.9
  1
SCALE  .250
 40
0.08
 41
0.704
  0
LINE
  5
21E
100
AcDbEntity
  8
0
100
AcDbLine
 62
7
  6
CONTINUOUS
 10
0.0
 20
0.0
 11
0.0
 21
8.5
  0
LINE
  5
21F
100
AcDbEntity
  8
0
100
AcDbLine
 62
7
  6
CONTINUOUS
 10
0.0
 20
0.0
 11
11.0
 21
0.0
  0
LINE
  5
220
100
AcDbEntity
  8
0
100
AcDbLine
 62
7
  6
CONTINUOUS
 10
0.0
 20
8.5
 11
11.0
 21
8.5
  0
LINE
  5
221
100
AcDbEntity
  8
0
100
AcDbLine
 62
7
  6
CONTINUOUS
 10
11.0
 20
0.0
 11
11.0
 21
8.5
  0
LINE
  5
222
100
AcDbEntity
  8
0
100
AcDbLine
 62
7
  6
CONTINUOUS
 10
5.1815135493
 20
1.8758236126
 11
5.0337635493
 21
1.8757656481
  0
LINE
  5
223
100
AcDbEntity
  8
0
100
AcDbLine
 62
7
  6
CONTINUOUS
 10
5.0337635493
 20
1.8882596644
 11
5.1967635493
 21
1.8883236116
  0
LINE
  5
224
100
AcDbEntity
  8
0
100
AcDbLine
 62
7
  6
CONTINUOUS
 10
4.8397903727
 20
1.7851921553
 11
5.2147903727
 21
1.7851921553
  0
LINE
  5
225
100
AcDbEntity
  8
0
100
AcDbLine
 62
7
  6
CONTINUOUS
 10
5.0337635493
 20
1.8757656481
 11
4.8860135493
 21
1.8758236126
  0
LINE
  5
226
100
AcDbEntity
  8
0
100
AcDbLine
 62
7
  6
CONTINUOUS
 10
4.8707635493
 20
1.8883236116
 11
5.0337635493
 21
1.8882596644
  0
LINE
  5
227
100
AcDbEntity
  8
0
100
AcDbLine
 62
7
  6
CONTINUOUS
 10
5.0337635493
 20
2.2820070398
 11
5.1967635493
 21
2.2820709871
  0
LINE
  5
228
100
AcDbEntity
  8
0
100
AcDbLine
 62
7
  6
CONTINUOUS
 10
4.9044869563
 20
2.2908113208
 11
5.1630401423
 21
2.2908113208
  0
LINE
  5
229
100
AcDbEntity
  8
0
100
AcDbLine
 62
7
  6
CONTINUOUS
 10
4.8707635493
 20
2.2820709871
 11
5.0337635493
 21
2.2820070398
  0
LINE
  5
22A
100
AcDbEntity
  8
0
100
AcDbLine
 62
7
  6
CONTINUOUS
 10
5.0181492372
 20
2.4361746063
 11
5.0493949809
 21
2.4366855739
  0
LINE
  5
22B
100
AcDbEntity
  8
0
100
AcDbLine
 62
7
  6
CONTINUOUS
 10
5.0272903727
 20
2.4035135907
 11
5.0494363531
 21
2.403856769
  0
LINE
  5
22C
100
AcDbEntity
  8
0
100
AcDbLine
 62
7
  6
CONTINUOUS
 10
5.0272903727
 20
2.4292207199
 11
5.0494541291
 21
2.4295641747
  0
LINE
  5
22D
100
AcDbEntity
  8
0
100
AcDbLine
 62
7
  6
CONTINUOUS
 10
5.0493901651
 20
2.4068381804
 11
5.0181389172
 21
2.4063540837
  0
LINE
  5
22E
100
AcDbEntity
  8
0
100
AcDbLine
 62
7
  6
CONTINUOUS
 10
5.2460365198
 20
2.3776921553
 11
4.8085442256
 21
2.3776921553
  0
LINE
  5
22F
100
AcDbEntity
  8
0
100
AcDbLine
 62
7
  6
CONTINUOUS
 10
4.795172734
 20
2.4466921553
 11
5.2487162986
 21
2.4466921553
  0
LINE
  5
230
100
AcDbEntity
  8
0
100
AcDbLine
 62
7
  6
CONTINUOUS
 10
4.8197903727
 20
2.4566921553
 11
5.2347903727
 21
2.4566921553
  0
LINE
  5
231
100
AcDbEntity
  8
0
100
AcDbLine
 62
7
  6
CONTINUOUS
 10
5.2909280351
 20
2.6101785883
 11
5.0296780351
 21
2.5641131646
  0
LINE
  5
232
100
AcDbEntity
  8
0
100
AcDbLine
 62
7
  6
CONTINUOUS
 10
5.0611324164
 20
2.5833233857
 11
5.0744798442
 21
2.5855588061
  0
LINE
  5
233
100
AcDbEntity
  8
0
100
AcDbLine
 62
7
  6
CONTINUOUS
 10
5.0272887427
 20
2.5776539634
 11
5.3022903727
 21
2.6237196949
  0
LINE
  5
234
100
AcDbEntity
  8
0
100
AcDbLine
 62
7
  6
CONTINUOUS
 10
5.0544103062
 20
2.5821969167
 11
5.0611324164
 21
2.5833233857
  0
LINE
  5
235
100
AcDbEntity
  8
0
100
AcDbLine
 62
7
  6
CONTINUOUS
 10
5.1845786001
 20
2.6040017185
 11
5.1965571133
 21
2.6060082695
  0
LINE
  5
236
100
AcDbEntity
  8
0
100
AcDbLine
 62
7
  6
CONTINUOUS
 10
5.0744798442
 20
2.5855588061
 11
5.1594104711
 21
2.5997860508
  0
LINE
  5
237
100
AcDbEntity
  8
0
100
AcDbLine
 62
7
  6
CONTINUOUS
 10
5.2833485518
 20
2.6205471277
 11
5.2857817697
 21
2.6209543279
  0
LINE
  5
238
100
AcDbEntity
  8
0
100
AcDbLine
 62
7
  6
CONTINUOUS
 10
5.2023479864
 20
2.6069782796
 11
5.213494013
 21
2.6088452564
  0
LINE
  5
239
100
AcDbEntity
  8
0
100
AcDbLine
 62
7
  6
CONTINUOUS
 10
5.1594104711
 20
2.5997860508
 11
5.1784203377
 21
2.6029702838
  0
LINE
  5
23A
100
AcDbEntity
  8
0
100
AcDbLine
 62
7
  6
CONTINUOUS
 10
5.2188259237
 20
2.6097385095
 11
5.2239875319
 21
2.6106029256
  0
LINE
  5
23B
100
AcDbEntity
  8
0
100
AcDbLine
 62
7
  6
CONTINUOUS
 10
5.2289793008
 20
2.6114391247
 11
5.2807744776
 21
2.6201154264
  0
LINE
  5
23C
100
AcDbEntity
  8
0
100
AcDbLine
 62
7
  6
CONTINUOUS
 10
5.2901906434
 20
2.6216941653
 11
5.2921891664
 21
2.6220276339
  0
LINE
  5
23D
100
AcDbEntity
  8
0
100
AcDbLine
 62
7
  6
CONTINUOUS
 10
5.2957418144
 20
2.6226249742
 11
5.2986845818
 21
2.6231155007
  0
LWPOLYLINE
  5
23E
100
AcDbEntity
  8
0
100
AcDbPolyline
 62
7
  6
CONTINUOUS
 90
5
 70
0
 10
5.2998826886
 20
2.6233194567
 10
5.3008776743
 20
2.6234830504
 10
5.3016373169
 20
2.6236022943
 10
5.3021207129
 20
2.6236811758
 10
5.3022903727
 20
2.6237196949
  0
LINE
  5
23F
100
AcDbEntity
  8
0
100
AcDbLine
 62
7
  6
CONTINUOUS
 10
4.9435543633
 20
2.5401921553
 11
4.8197903727
 21
2.5401921553
  0
LINE
  5
240
100
AcDbEntity
  8
0
100
AcDbLine
 62
7
  6
CONTINUOUS
 10
5.1110263821
 20
2.5401921553
 11
5.2347903727
 21
2.5401921553
  0
LINE
  5
241
100
AcDbEntity
  8
0
100
AcDbLine
 62
7
  6
CONTINUOUS
 10
4.8723043633
 20
2.581328362
 11
4.8435403727
 21
2.581328362
  0
LINE
  5
242
100
AcDbEntity
  8
0
100
AcDbLine
 62
7
  6
CONTINUOUS
 10
5.1822763821
 20
2.581328362
 11
5.2110403727
 21
2.581328362
  0
LINE
  5
243
100
AcDbEntity
  8
0
100
AcDbLine
 62
7
  6
CONTINUOUS
 10
4.7524041143
 20
2.6236966172
 11
4.7539888912
 21
2.623436791
  0
LINE
  5
244
100
AcDbEntity
  8
0
100
AcDbLine
 62
7
  6
CONTINUOUS
 10
5.004520226
 20
2.5814685123
 11
5.0119327585
 21
2.5802276677
  0
LINE
  5
245
100
AcDbEntity
  8
0
100
AcDbLine
 62
7
  6
CONTINUOUS
 10
4.7522903727
 20
2.6237196949
 11
5.0272887427
 21
2.5776539634
  0
LINE
  5
246
100
AcDbEntity
  8
0
100
AcDbLine
 62
7
  6
CONTINUOUS
 10
5.0249027102
 20
2.5641131646
 11
4.7636527102
 21
2.6101785883
  0
LINE
  5
247
100
AcDbEntity
  8
0
100
AcDbLine
 62
7
  6
CONTINUOUS
 10
4.7522903727
 20
2.6237196949
 11
4.7524041143
 21
2.6236966172
  0
LINE
  5
248
100
AcDbEntity
  8
0
100
AcDbLine
 62
7
  6
CONTINUOUS
 10
4.7936242711
 20
2.3977354341
 11
4.8059320765
 21
2.3906268263
  0
LINE
  5
249
100
AcDbEntity
  8
0
100
AcDbLine
 62
7
  6
CONTINUOUS
 10
4.7936242711
 20
2.4204604341
 11
4.8059320765
 21
2.4133518263
  0
LINE
  5
24A
100
AcDbEntity
  8
0
100
AcDbLine
 62
7
  6
CONTINUOUS
 10
4.7936242711
 20
2.4431854341
 11
4.8059320765
 21
2.4360768263
  0
LINE
  5
24B
100
AcDbEntity
  8
ALL_FEATURES
100
AcDbLine
 62
7
  6
CONTINUOUS
 10
4.8481361698
 20
2.595281875
 11
4.9693603926
 21
2.5252930373
  0
LINE
  5
24C
100
AcDbEntity
  8
0
100
AcDbLine
 62
7
  6
CONTINUOUS
 10
5.2589634402
 20
2.3906999719
 11
5.2486486689
 21
2.3966574843
  0
LINE
  5
24D
100
AcDbEntity
  8
0
100
AcDbLine
 62
7
  6
CONTINUOUS
 10
5.2609564743
 20
2.4122738764
 11
5.2486486689
 21
2.4193824843
  0
LINE
  5
24E
100
AcDbEntity
  8
0
100
AcDbLine
 62
7
  6
CONTINUOUS
 10
5.2609564743
 20
2.4349988764
 11
5.2486486689
 21
2.4421074843
  0
LINE
  5
24F
100
AcDbEntity
  8
0
100
AcDbLine
 62
7
  6
CONTINUOUS
 10
4.8085404956
 20
2.3776921553
 11
4.8027981842
 21
2.3834344699
  0
LINE
  5
250
100
AcDbEntity
  8
0
100
AcDbLine
 62
7
  6
CONTINUOUS
 10
4.7522903727
 20
3.04368399
 11
5.3022903727
 21
3.04368399
  0
LINE
  5
251
100
AcDbEntity
  8
0
100
AcDbLine
 62
7
  6
CONTINUOUS
 10
4.7936242711
 20
2.3977354341
 11
4.7935403727
 21
2.3978323407
  0
LINE
  5
252
100
AcDbEntity
  8
0
100
AcDbLine
 62
7
  6
CONTINUOUS
 10
4.7936242711
 20
2.4204604341
 11
4.7935403727
 21
2.4205573407
  0
LINE
  5
253
100
AcDbEntity
  8
0
100
AcDbLine
 62
7
  6
CONTINUOUS
 10
4.7935403727
 20
2.4432823407
 11
4.7936242711
 21
2.4431854341
  0
LINE
  5
254
100
AcDbEntity
  8
0
100
AcDbLine
 62
7
  6
CONTINUOUS
 10
4.9569193943
 20
3.185129231
 11
4.9571474146
 21
3.1851729511
  0
LINE
  5
255
100
AcDbEntity
  8
0
100
AcDbLine
 62
7
  6
CONTINUOUS
 10
4.9571477432
 20
3.1851719274
 11
4.9569161918
 21
3.1851286165
  0
LINE
  5
256
100
AcDbEntity
  8
0
100
AcDbLine
 62
7
  6
CONTINUOUS
 10
4.8710401136
 20
3.1736920859
 11
4.8707397841
 21
3.1736439521
  0
LINE
  5
257
100
AcDbEntity
  8
0
100
AcDbLine
 62
7
  6
CONTINUOUS
 10
4.7772903727
 20
3.1611921553
 11
4.8085403727
 21
3.165358822
  0
LINE
  5
258
100
AcDbEntity
  8
0
100
AcDbLine
 62
7
  6
CONTINUOUS
 10
4.8710403727
 20
3.1736921553
 11
4.8946477432
 21
3.1768398047
  0
LINE
  5
259
100
AcDbEntity
  8
0
100
AcDbLine
 62
7
  6
CONTINUOUS
 10
4.9571477432
 20
3.185173138
 11
4.9606784511
 21
3.1856438991
  0
LINE
  5
25A
100
AcDbEntity
  8
0
100
AcDbLine
 62
7
  6
CONTINUOUS
 10
4.8088332062
 20
3.1653923665
 11
4.8085403727
 21
3.1653589423
  0
LINE
  5
25B
100
AcDbEntity
  8
0
100
AcDbLine
 62
7
  6
CONTINUOUS
 10
4.8948748814
 20
3.1768629699
 11
4.8946480371
 21
3.176839819
  0
LINE
  5
25C
100
AcDbEntity
  8
0
100
AcDbLine
 62
7
  6
CONTINUOUS
 10
5.3701361691
 20
3.1179295425
 11
5.366137698
 21
3.1175797216
  0
LINE
  5
25D
100
AcDbEntity
  8
0
100
AcDbLine
 62
7
  6
CONTINUOUS
 10
4.9606784511
 20
3.1856438991
 11
4.9689386836
 21
3.1861921553
  0
LINE
  5
25E
100
AcDbEntity
  8
0
100
AcDbLine
 62
7
  6
CONTINUOUS
 10
4.6835403727
 20
3.0686921553
 11
5.3710403727
 21
3.0686921553
  0
LINE
  5
25F
100
AcDbEntity
  8
0
100
AcDbLine
 62
7
  6
CONTINUOUS
 10
4.6835403727
 20
3.0886921553
 11
5.3710403727
 21
3.0886921553
  0
LINE
  5
260
100
AcDbEntity
  8
0
100
AcDbLine
 62
7
  6
CONTINUOUS
 10
5.3701361691
 20
3.1179295425
 11
4.6844445763
 21
3.1179295425
  0
LINE
  5
261
100
AcDbEntity
  8
0
100
AcDbLine
 62
7
  6
CONTINUOUS
 10
5.3685760743
 20
3.1353962461
 11
4.686004671
 21
3.1353962461
  0
LINE
  5
262
100
AcDbEntity
  8
0
100
AcDbLine
 62
7
  6
CONTINUOUS
 10
4.6522909428
 20
3.1361921553
 11
5.4022898025
 21
3.1361921553
  0
LINE
  5
263
100
AcDbEntity
  8
0
100
AcDbLine
 62
7
  6
CONTINUOUS
 10
4.6522903727
 20
3.1561921553
 11
5.4022903727
 21
3.1561921553
  0
LINE
  5
264
100
AcDbEntity
  8
0
100
AcDbLine
 62
7
  6
CONTINUOUS
 10
4.6572933879
 20
3.1611921553
 11
5.3972873574
 21
3.1611921553
  0
LINE
  5
265
100
AcDbEntity
  8
0
100
AcDbLine
 62
7
  6
CONTINUOUS
 10
4.9606784511
 20
3.1856438991
 11
5.0939022942
 21
3.1856438991
  0
LINE
  5
266
100
AcDbEntity
  8
0
100
AcDbLine
 62
7
  6
CONTINUOUS
 10
4.9689413177
 20
3.1861921553
 11
5.0856394277
 21
3.1861921553
  0
LINE
  5
267
100
AcDbEntity
  8
0
100
AcDbLine
 62
7
  6
CONTINUOUS
 10
5.0939022942
 20
3.1856438991
 11
5.0856420617
 21
3.1861921553
  0
LINE
  5
268
100
AcDbEntity
  8
0
100
AcDbLine
 62
7
  6
CONTINUOUS
 10
4.6844445763
 20
3.1179295425
 11
4.6884430473
 21
3.1175797216
  0
LINE
  5
269
100
AcDbEntity
  8
0
100
AcDbLine
 62
7
  6
CONTINUOUS
 10
5.1599330021
 20
3.1768399188
 11
5.159704238
 21
3.1768631372
  0
LINE
  5
26A
100
AcDbEntity
  8
0
100
AcDbLine
 62
7
  6
CONTINUOUS
 10
5.2460403727
 20
3.1653589423
 11
5.2457475392
 21
3.1653923665
  0
LINE
  5
26B
100
AcDbEntity
  8
0
100
AcDbLine
 62
7
  6
CONTINUOUS
 10
5.2772903727
 20
3.1611921553
 11
5.2460403727
 21
3.165358822
  0
LINE
  5
26C
100
AcDbEntity
  8
0
100
AcDbLine
 62
7
  6
CONTINUOUS
 10
5.1835403727
 20
3.1736921553
 11
5.1599330021
 21
3.1768398047
  0
LINE
  5
26D
100
AcDbEntity
  8
0
100
AcDbLine
 62
7
  6
CONTINUOUS
 10
5.0974330021
 20
3.185173138
 11
5.0939022942
 21
3.1856438991
  0
LINE
  5
26E
100
AcDbEntity
  8
0
100
AcDbLine
 62
7
  6
CONTINUOUS
 10
5.1838409612
 20
3.1736439521
 11
5.1835403727
 21
3.1736917015
  0
LINE
  5
26F
100
AcDbEntity
  8
0
100
AcDbLine
 62
7
  6
CONTINUOUS
 10
5.0976645535
 20
3.1851286165
 11
5.0974330021
 21
3.1851719274
  0
LINE
  5
270
100
AcDbEntity
  8
0
100
AcDbLine
 62
7
  6
CONTINUOUS
 10
5.0976613511
 20
3.185129231
 11
5.0974333307
 21
3.1851729511
  0
LINE
  5
271
100
AcDbEntity
  8
0
100
AcDbLine
 62
7
  6
CONTINUOUS
 10
5.2609564743
 20
2.4122738764
 11
5.2610403727
 21
2.4121769699
  0
LINE
  5
272
100
AcDbEntity
  8
0
100
AcDbLine
 62
7
  6
CONTINUOUS
 10
5.2610403727
 20
2.4349019699
 11
5.2609564743
 21
2.4349988764
  0
LINE
  5
273
100
AcDbEntity
  8
ALL_FEATURES
100
AcDbLine
 62
7
  6
CONTINUOUS
 10
4.7847903727
 20
3.6634421553
 11
5.2697903727
 21
3.6634421553
  0
LINE
  5
274
100
AcDbEntity
  8
ALL_FEATURES
100
AcDbLine
 62
7
  6
CONTINUOUS
 10
4.7847903727
 20
3.6934421553
 11
5.2697903727
 21
3.6934421553
  0
LINE
  5
275
100
AcDbEntity
  8
ALL_FEATURES
100
AcDbLine
 62
7
  6
CONTINUOUS
 10
5.2735403727
 20
3.7201348509
 11
5.2156103926
 21
3.7201348509
  0
LINE
  5
276
100
AcDbEntity
  8
ALL_FEATURES
100
AcDbLine
 62
7
  6
CONTINUOUS
 10
4.7810403727
 20
3.7201348509
 11
4.8389703527
 21
3.7201348509
  0
LINE
  5
277
100
AcDbEntity
  8
ALL_FEATURES
100
AcDbLine
 62
7
  6
CONTINUOUS
 10
4.9693603926
 20
3.7201348509
 11
5.0852203527
 21
3.7201348509
  0
LINE
  5
278
100
AcDbEntity
  8
ALL_FEATURES
100
AcDbLine
 62
7
  6
CONTINUOUS
 10
5.2735403727
 20
3.7584911032
 11
5.2156103926
 21
3.7584911032
  0
LINE
  5
279
100
AcDbEntity
  8
ALL_FEATURES
100
AcDbLine
 62
7
  6
CONTINUOUS
 10
4.7810403727
 20
3.7584911032
 11
4.8389703527
 21
3.7584911032
  0
LINE
  5
27A
100
AcDbEntity
  8
ALL_FEATURES
100
AcDbLine
 62
7
  6
CONTINUOUS
 10
4.9693603926
 20
3.7584911032
 11
5.0852203527
 21
3.7584911032
  0
LINE
  5
27B
100
AcDbEntity
  8
0
100
AcDbLine
 62
7
  6
CONTINUOUS
 10
5.2110403727
 20
2.581328362
 11
5.2347903727
 21
2.5401921553
  0
LINE
  5
27C
100
AcDbEntity
  8
ALL_FEATURES
100
AcDbLine
 62
7
  6
CONTINUOUS
 10
4.7858255199
 20
3.7857870875
 11
5.2687552254
 21
3.7857870875
  0
LINE
  5
27D
100
AcDbEntity
  8
ALL_FEATURES
100
AcDbLine
 62
7
  6
CONTINUOUS
 10
5.2271442026
 20
3.7965420104
 11
4.8272099194
 21
3.7965420104
  0
LINE
  5
27E
100
AcDbEntity
  8
0
100
AcDbLine
 62
7
  6
CONTINUOUS
 10
4.6522903727
 20
3.1361921553
 11
4.6522903727
 21
3.1561921553
  0
LINE
  5
27F
100
AcDbEntity
  8
0
100
AcDbLine
 62
7
  6
CONTINUOUS
 10
4.6835403727
 20
3.0686921553
 11
4.6835403727
 21
3.0886921553
  0
LINE
  5
280
100
AcDbEntity
  8
ALL_FEATURES
100
AcDbLine
 62
7
  6
CONTINUOUS
 10
4.6885403727
 20
3.0886921553
 11
4.6885403727
 21
3.1175712068
  0
LINE
  5
281
100
AcDbEntity
  8
0
100
AcDbLine
 62
7
  6
CONTINUOUS
 10
4.7522903727
 20
2.6237196949
 11
4.7522903727
 21
3.04368399
  0
LINE
  5
282
100
AcDbEntity
  8
ALL_ASSEMBLY_MEMBERS
100
AcDbLine
 62
7
  6
CONTINUOUS
 10
4.7760403727
 20
6.6911979338
 11
4.7760403727
 21
6.8099864735
  0
LINE
  5
283
100
AcDbEntity
  8
ALL_FEATURES
100
AcDbLine
 62
7
  6
CONTINUOUS
 10
4.7810403727
 20
3.7825026837
 11
4.7810403727
 21
3.696123347
  0
LINE
  5
284
100
AcDbEntity
  8
ALL_FEATURES
100
AcDbLine
 62
7
  6
CONTINUOUS
 10
4.7847903727
 20
3.6934421553
 11
4.7847903727
 21
3.6634421553
  0
LINE
  5
285
100
AcDbEntity
  8
0
100
AcDbLine
 62
7
  6
CONTINUOUS
 10
4.7935403727
 20
2.4462644699
 11
4.7935403727
 21
2.4432823407
  0
LINE
  5
286
100
AcDbEntity
  8
0
100
AcDbLine
 62
7
  6
CONTINUOUS
 10
4.7935403727
 20
2.4235394699
 11
4.7935403727
 21
2.4205573407
  0
LINE
  5
287
100
AcDbEntity
  8
0
100
AcDbLine
 62
7
  6
CONTINUOUS
 10
4.7935403727
 20
2.4008144699
 11
4.7935403727
 21
2.3978323407
  0
LINE
  5
288
100
AcDbEntity
  8
ALL_ASSEMBLY_MEMBERS
100
AcDbLine
 62
7
  6
CONTINUOUS
 10
4.7935403727
 20
6.6911979338
 11
4.7935403727
 21
6.8099864735
  0
LINE
  5
289
100
AcDbEntity
  8
0
100
AcDbLine
 62
7
  6
CONTINUOUS
 10
4.8058435223
 20
2.4361791139
 11
4.8058435223
 21
2.4306426966
  0
LINE
  5
28A
100
AcDbEntity
  8
0
100
AcDbLine
 62
7
  6
CONTINUOUS
 10
4.8058435223
 20
2.4134541139
 11
4.8058435223
 21
2.4079176966
  0
LINE
  5
28B
100
AcDbEntity
  8
0
100
AcDbLine
 62
7
  6
CONTINUOUS
 10
4.8058435223
 20
2.3907291139
 11
4.8058435223
 21
2.3851926966
  0
LINE
  5
28C
100
AcDbEntity
  8
0
100
AcDbLine
 62
7
  6
CONTINUOUS
 10
4.8147903727
 20
6.3359421553
 11
4.8147903727
 21
6.4050162793
  0
LINE
  5
28D
100
AcDbEntity
  8
0
100
AcDbLine
 62
7
  6
CONTINUOUS
 10
4.8197903727
 20
3.6634421553
 11
4.8197903727
 21
3.166673144
  0
LINE
  5
28E
100
AcDbEntity
  8
0
100
AcDbLine
 62
7
  6
CONTINUOUS
 10
4.8197903727
 20
3.1361921553
 11
4.8197903727
 21
3.1353962461
  0
LINE
  5
28F
100
AcDbEntity
  8
0
100
AcDbLine
 62
7
  6
CONTINUOUS
 10
4.8197903727
 20
2.5401921553
 11
4.8197903727
 21
2.4566921553
  0
LINE
  5
290
100
AcDbEntity
  8
ALL_FEATURES
100
AcDbLine
 62
7
  6
CONTINUOUS
 10
4.8389703527
 20
3.7584911032
 11
4.8389703527
 21
3.7201348509
  0
LINE
  5
291
100
AcDbEntity
  8
0
100
AcDbLine
 62
7
  6
CONTINUOUS
 10
4.8397903727
 20
1.7851921553
 11
4.8397903727
 21
2.3776921553
  0
LINE
  5
292
100
AcDbEntity
  8
0
100
AcDbLine
 62
7
  6
CONTINUOUS
 10
4.8397903727
 20
3.7965420104
 11
4.8397903727
 21
6.3359421553
  0
LINE
  5
293
100
AcDbEntity
  8
0
100
AcDbLine
 62
7
  6
CONTINUOUS
 10
4.8435403727
 20
2.596092238
 11
4.8435403727
 21
2.581328362
  0
LINE
  5
294
100
AcDbEntity
  8
0
100
AcDbLine
 62
7
  6
CONTINUOUS
 10
5.0296780351
 20
2.5641131646
 11
5.0272903727
 21
2.5776542712
  0
LINE
  5
295
100
AcDbEntity
  8
ALL_FEATURES
100
AcDbLine
 62
7
  6
CONTINUOUS
 10
4.9693603926
 20
3.7584911032
 11
4.9693603926
 21
3.7201348509
  0
LINE
  5
296
100
AcDbEntity
  8
0
100
AcDbLine
 62
7
  6
CONTINUOUS
 10
5.0035403727
 20
3.1361921553
 11
5.0035403727
 21
3.1353962461
  0
LINE
  5
297
100
AcDbEntity
  8
ALL_ASSEMBLY_MEMBERS
100
AcDbLine
 62
7
  6
CONTINUOUS
 10
5.0147903727
 20
6.3543389681
 11
5.0147903727
 21
6.3621491334
  0
LINE
  5
298
100
AcDbEntity
  8
ALL_ASSEMBLY_MEMBERS
100
AcDbLine
 62
7
  6
CONTINUOUS
 10
5.0397903727
 20
6.3621491334
 11
5.0397903727
 21
6.3543389681
  0
LINE
  5
299
100
AcDbEntity
  8
0
100
AcDbLine
 62
7
  6
CONTINUOUS
 10
5.0446403727
 20
3.1353962461
 11
5.0446403727
 21
3.1359999596
  0
LINE
  5
29A
100
AcDbEntity
  8
0
100
AcDbLine
 62
7
  6
CONTINUOUS
 10
4.8058435223
 20
2.4134541139
 11
4.8058438529
 21
2.4134603639
  0
LINE
  5
29B
100
AcDbEntity
  8
0
100
AcDbLine
 62
7
  6
CONTINUOUS
 10
4.7935403727
 20
2.4205573407
 11
4.7935407217
 21
2.4205635907
  0
LINE
  5
29C
100
AcDbEntity
  8
0
100
AcDbLine
 62
7
  6
CONTINUOUS
 10
4.7935403727
 20
2.4008144699
 11
4.7935407217
 21
2.4008207199
  0
LINE
  5
29D
100
AcDbEntity
  8
ALL_FEATURES
100
AcDbLine
 62
7
  6
CONTINUOUS
 10
5.0852203527
 20
3.7584911032
 11
5.0852203527
 21
3.7201348509
  0
LINE
  5
29E
100
AcDbEntity
  8
0
100
AcDbLine
 62
7
  6
CONTINUOUS
 10
5.2110403727
 20
2.596092238
 11
5.2110403727
 21
2.581328362
  0
LINE
  5
29F
100
AcDbEntity
  8
0
100
AcDbLine
 62
7
  6
CONTINUOUS
 10
5.2147903727
 20
1.7851921553
 11
5.2147903727
 21
2.3776921553
  0
LINE
  5
2A0
100
AcDbEntity
  8
0
100
AcDbLine
 62
7
  6
CONTINUOUS
 10
5.2147903727
 20
3.7965420104
 11
5.2147903727
 21
6.3359421553
  0
LINE
  5
2A1
100
AcDbEntity
  8
ALL_FEATURES
100
AcDbLine
 62
7
  6
CONTINUOUS
 10
5.2156103926
 20
3.7584911032
 11
5.2156103926
 21
3.7201348509
  0
LINE
  5
2A2
100
AcDbEntity
  8
0
100
AcDbLine
 62
7
  6
CONTINUOUS
 10
5.2347903727
 20
3.6634421553
 11
5.2347903727
 21
3.166673144
  0
LINE
  5
2A3
100
AcDbEntity
  8
0
100
AcDbLine
 62
7
  6
CONTINUOUS
 10
5.2347903727
 20
3.1361921553
 11
5.2347903727
 21
3.1353962461
  0
LINE
  5
2A4
100
AcDbEntity
  8
0
100
AcDbLine
 62
7
  6
CONTINUOUS
 10
5.2347903727
 20
2.5401921553
 11
5.2347903727
 21
2.4566921553
  0
LINE
  5
2A5
100
AcDbEntity
  8
0
100
AcDbLine
 62
7
  6
CONTINUOUS
 10
5.2397903727
 20
6.3359421553
 11
5.2397903727
 21
6.4050162793
  0
LINE
  5
2A6
100
AcDbEntity
  8
0
100
AcDbLine
 62
7
  6
CONTINUOUS
 10
5.2487372231
 20
2.3965551966
 11
5.2487372231
 21
2.4020916139
  0
LINE
  5
2A7
100
AcDbEntity
  8
0
100
AcDbLine
 62
7
  6
CONTINUOUS
 10
5.2487372231
 20
2.4192801966
 11
5.2487372231
 21
2.4248166139
  0
LINE
  5
2A8
100
AcDbEntity
  8
0
100
AcDbLine
 62
7
  6
CONTINUOUS
 10
5.2487372231
 20
2.4420051966
 11
5.2487372231
 21
2.4466921553
  0
LINE
  5
2A9
100
AcDbEntity
  8
0
100
AcDbLine
 62
7
  6
CONTINUOUS
 10
5.2610403727
 20
2.4349019699
 11
5.2610403727
 21
2.4319198407
  0
LINE
  5
2AA
100
AcDbEntity
  8
0
100
AcDbLine
 62
7
  6
CONTINUOUS
 10
5.2610403727
 20
2.4121769699
 11
5.2610403727
 21
2.4091948407
  0
LINE
  5
2AB
100
AcDbEntity
  8
ALL_ASSEMBLY_MEMBERS
100
AcDbLine
 62
7
  6
CONTINUOUS
 10
5.2610403727
 20
6.6911979338
 11
5.2610403727
 21
6.8099864735
  0
LINE
  5
2AC
100
AcDbEntity
  8
ALL_FEATURES
100
AcDbLine
 62
7
  6
CONTINUOUS
 10
5.2697903727
 20
3.6934421553
 11
5.2697903727
 21
3.6634421553
  0
LINE
  5
2AD
100
AcDbEntity
  8
ALL_FEATURES
100
AcDbLine
 62
7
  6
CONTINUOUS
 10
5.2735403727
 20
3.696123347
 11
5.2735403727
 21
3.7825026837
  0
LINE
  5
2AE
100
AcDbEntity
  8
ALL_ASSEMBLY_MEMBERS
100
AcDbLine
 62
7
  6
CONTINUOUS
 10
5.2785403727
 20
6.6911979338
 11
5.2785403727
 21
6.8099864735
  0
LINE
  5
2AF
100
AcDbEntity
  8
0
100
AcDbLine
 62
7
  6
CONTINUOUS
 10
5.3022903727
 20
2.6237196949
 11
5.3022903727
 21
3.04368399
  0
LINE
  5
2B0
100
AcDbEntity
  8
ALL_FEATURES
100
AcDbLine
 62
7
  6
CONTINUOUS
 10
5.3660403727
 20
3.0886921553
 11
5.3660403727
 21
3.1175712068
  0
LINE
  5
2B1
100
AcDbEntity
  8
0
100
AcDbLine
 62
7
  6
CONTINUOUS
 10
5.3710403727
 20
3.0686921553
 11
5.3710403727
 21
3.0886921553
  0
LINE
  5
2B2
100
AcDbEntity
  8
0
100
AcDbLine
 62
7
  6
CONTINUOUS
 10
5.4022903727
 20
3.1361921553
 11
5.4022903727
 21
3.1561921553
  0
LINE
  5
2B3
100
AcDbEntity
  8
0
100
AcDbLine
 62
7
  6
CONTINUOUS
 10
5.0272903727
 20
2.5776542712
 11
5.0249027102
 21
2.5641131646
  0
LINE
  5
2B4
100
AcDbEntity
  8
0
100
AcDbLine
 62
7
  6
CONTINUOUS
 10
4.8028215634
 20
2.3834984203
 11
4.8027981842
 21
2.3834344699
  0
LINE
  5
2B5
100
AcDbEntity
  8
0
100
AcDbLine
 62
7
  6
CONTINUOUS
 10
4.8435403727
 20
2.581328362
 11
4.8197903727
 21
2.5401921553
  0
LINE
  5
2B6
100
AcDbEntity
  8
0
100
AcDbLine
 62
7
  6
CONTINUOUS
 10
4.7935403727
 20
2.4462644699
 11
4.7936242711
 21
2.4463613764
  0
LINE
  5
2B7
100
AcDbEntity
  8
0
100
AcDbLine
 62
7
  6
CONTINUOUS
 10
4.7936242711
 20
2.4236363764
 11
4.7935403727
 21
2.4235394699
  0
LINE
  5
2B8
100
AcDbEntity
  8
0
100
AcDbLine
 62
7
  6
CONTINUOUS
 10
4.7936242711
 20
2.4009113764
 11
4.7935407217
 21
2.4008207199
  0
LINE
  5
2B9
100
AcDbEntity
  8
0
100
AcDbLine
 62
7
  6
CONTINUOUS
 10
5.0444070845
 20
3.1358635125
 11
5.0449689758
 21
3.1361921553
  0
LINE
  5
2BA
100
AcDbEntity
  8
0
100
AcDbLine
 62
7
  6
CONTINUOUS
 10
5.2610403727
 20
2.4319198407
 11
5.2609564743
 21
2.4318229341
  0
LINE
  5
2BB
100
AcDbEntity
  8
0
100
AcDbLine
 62
7
  6
CONTINUOUS
 10
5.2609564743
 20
2.4090979341
 11
5.2610403727
 21
2.4091948407
  0
LINE
  5
2BC
100
AcDbEntity
  8
0
100
AcDbLine
 62
7
  6
CONTINUOUS
 10
5.2460402497
 20
2.3776921553
 11
5.2589860949
 21
2.3906380077
  0
LINE
  5
2BD
100
AcDbEntity
  8
0
100
AcDbLine
 62
7
  6
CONTINUOUS
 10
4.8059320765
 20
2.4307449843
 11
4.7936242711
 21
2.4236363764
  0
LINE
  5
2BE
100
AcDbEntity
  8
0
100
AcDbLine
 62
7
  6
CONTINUOUS
 10
4.8059320765
 20
2.4080199843
 11
4.7936242711
 21
2.4009113764
  0
LINE
  5
2BF
100
AcDbEntity
  8
0
100
AcDbLine
 62
7
  6
CONTINUOUS
 10
4.8059320765
 20
2.3852949843
 11
4.8028215634
 21
2.3834984203
  0
LINE
  5
2C0
100
AcDbEntity
  8
ALL_FEATURES
100
AcDbLine
 62
7
  6
CONTINUOUS
 10
5.0852203527
 20
2.5252930373
 11
5.2064445755
 21
2.595281875
  0
LINE
  5
2C1
100
AcDbEntity
  8
0
100
AcDbLine
 62
7
  6
CONTINUOUS
 10
5.2486486689
 20
2.4247143263
 11
5.2609564743
 21
2.4318229341
  0
LINE
  5
2C2
100
AcDbEntity
  8
0
100
AcDbLine
 62
7
  6
CONTINUOUS
 10
5.2486486689
 20
2.4019893263
 11
5.2609564743
 21
2.4090979341
  0
LINE
  5
2C3
100
AcDbEntity
  8
0
100
AcDbLine
 62
7
  6
CONTINUOUS
 10
4.8147940869
 20
6.3359421553
 11
5.2397866585
 21
6.3359421553
  0
LINE
  5
2C4
100
AcDbEntity
  8
ALL_ASSEMBLY_MEMBERS
100
AcDbLine
 62
7
  6
CONTINUOUS
 10
4.9762442834
 20
6.7032615895
 11
4.9766303007
 21
6.7032617445
  0
LINE
  5
2C5
100
AcDbEntity
  8
ALL_ASSEMBLY_MEMBERS
100
AcDbLine
 62
7
  6
CONTINUOUS
 10
5.0783364619
 20
6.7032615895
 11
5.077950465
 21
6.7032617445
  0
ARC
  5
2C6
100
AcDbEntity
  8
0
100
AcDbCircle
 62
7
  6
CONTINUOUS
 10
4.7119401611
 20
4.171814825
 40
1.0107235447
100
AcDbArc
 50
278.1608721479
 51
279.040756764
  0
ARC
  5
2C7
100
AcDbEntity
  8
ALL_FEATURES
100
AcDbCircle
 62
7
  6
CONTINUOUS
 10
4.8272099194
 20
3.7115420104
 40
0.085
100
AcDbArc
 50
90.0
 51
119.1354094311
  0
ARC
  5
2C8
100
AcDbEntity
  8
ALL_FEATURES
100
AcDbCircle
 62
7
  6
CONTINUOUS
 10
4.8010403727
 20
3.7584911032
 40
0.03125
100
AcDbArc
 50
119.1354094311
 51
129.7918194996
  0
ARC
  5
2C9
100
AcDbEntity
  8
ALL_FEATURES
100
AcDbCircle
 62
7
  6
CONTINUOUS
 10
4.8010403727
 20
3.7201348509
 40
0.03125
100
AcDbArc
 50
230.2081805004
 51
238.6677485024
  0
ARC
  5
2CA
100
AcDbEntity
  8
0
100
AcDbCircle
 62
7
  6
CONTINUOUS
 10
4.727290374
 20
3.0436921553
 40
0.025
100
AcDbArc
 50
359.9812865106
 51
90.0
  0
ARC
  5
2CB
100
AcDbEntity
  8
0
100
AcDbCircle
 62
7
  6
CONTINUOUS
 10
4.9682380704
 20
3.1661809328
 40
0.015
100
AcDbArc
 50
48.2766211061
 51
60.7614797195
  0
ARC
  5
2CC
100
AcDbEntity
  8
0
100
AcDbCircle
 62
7
  6
CONTINUOUS
 10
4.7660403727
 20
2.6237196949
 40
0.01375
100
AcDbArc
 50
180.0
 51
260.0
  0
ARC
  5
2CD
100
AcDbEntity
  8
0
100
AcDbCircle
 62
7
  6
CONTINUOUS
 10
4.8097903727
 20
2.4566921553
 40
0.01
100
AcDbArc
 50
270.0
 51
360.0
  0
ARC
  5
2CE
100
AcDbEntity
  8
0
100
AcDbCircle
 62
7
  6
CONTINUOUS
 10
4.685207189
 20
3.1266462461
 40
0.00875
100
AcDbArc
 50
90.0
 51
265.0
  0
ARC
  5
2CF
100
AcDbEntity
  8
0
100
AcDbCircle
 62
7
  6
CONTINUOUS
 10
4.6572903727
 20
3.1561921553
 40
0.005
100
AcDbArc
 50
90.0
 51
180.0
  0
ARC
  5
2D0
100
AcDbEntity
  8
0
100
AcDbCircle
 62
7
  6
CONTINUOUS
 10
4.5659291383
 20
5.2887605162
 40
2.1372166352
100
AcDbArc
 50
276.5254108864
 51
276.8798817278
  0
ARC
  5
2D1
100
AcDbEntity
  8
0
100
AcDbCircle
 62
7
  6
CONTINUOUS
 10
4.5953601927
 20
5.0426044881
 40
1.889307587
100
AcDbArc
 50
276.8879929161
 51
277.0208427855
  0
ARC
  5
2D2
100
AcDbEntity
  8
0
100
AcDbCircle
 62
7
  6
CONTINUOUS
 10
4.611440625
 20
4.9118971354
 40
1.7576147927
100
AcDbArc
 50
277.0213824421
 51
277.2530723819
  0
ARC
  5
2D3
100
AcDbEntity
  8
ALL_ASSEMBLY_MEMBERS
100
AcDbCircle
 62
7
  6
CONTINUOUS
 10
4.7847877065
 20
6.7505544022
 40
0.0599973032
100
AcDbArc
 50
180.0011332672
 51
261.616690243
  0
ARC
  5
2D4
100
AcDbEntity
  8
ALL_ASSEMBLY_MEMBERS
100
AcDbCircle
 62
7
  6
CONTINUOUS
 10
4.7847877065
 20
6.7506323786
 40
0.0599973032
100
AcDbArc
 50
98.3833631115
 51
261.616690243
  0
ARC
  5
2D5
100
AcDbEntity
  8
ALL_ASSEMBLY_MEMBERS
100
AcDbCircle
 62
7
  6
CONTINUOUS
 10
4.7847930389
 20
6.7506323784
 40
0.0599973032
100
AcDbArc
 50
278.3833097085
 51
81.6166369918
  0
ARC
  5
2D6
100
AcDbEntity
  8
0
100
AcDbCircle
 62
7
  6
CONTINUOUS
 10
5.3635955062
 20
4.3155696318
 40
1.1559972586
100
AcDbArc
 50
261.709255675
 51
261.9273784745
  0
ARC
  5
2D7
100
AcDbEntity
  8
0
100
AcDbCircle
 62
7
  6
CONTINUOUS
 10
5.3320666049
 20
4.1025961112
 40
0.9407032787
100
AcDbArc
 50
260.9328803758
 51
261.739063242
  0
ARC
  5
2D8
100
AcDbEntity
  8
0
100
AcDbCircle
 62
7
  6
CONTINUOUS
 10
5.2352891068
 20
3.5990416535
 40
0.4342417087
100
AcDbArc
 50
263.969703365
 51
264.3036762167
  0
ARC
  5
2D9
100
AcDbEntity
  8
0
100
AcDbCircle
 62
7
  6
CONTINUOUS
 10
5.2340515897
 20
3.5873121811
 40
0.4224471351
100
AcDbArc
 50
263.6252753289
 51
263.9694914322
  0
ARC
  5
2DA
100
AcDbEntity
  8
ALL_FEATURES
100
AcDbCircle
 62
7
  6
CONTINUOUS
 10
5.0272903727
 20
2.7761921553
 40
0.2575
100
AcDbArc
 50
256.9988391103
 51
283.0011608897
  0
ARC
  5
2DB
100
AcDbEntity
  8
ALL_FEATURES
100
AcDbCircle
 62
7
  6
CONTINUOUS
 10
5.0272903727
 20
2.7761921553
 40
0.2414648528
100
AcDbArc
 50
230.0854651137
 51
309.9145348863
  0
ARC
  5
2DC
100
AcDbEntity
  8
0
100
AcDbCircle
 62
7
  6
CONTINUOUS
 10
5.136614895
 20
3.3750976496
 40
0.2097385568
100
AcDbArc
 50
269.3986872385
 51
270.5849700411
  0
ARC
  5
2DD
100
AcDbEntity
  8
ALL_FEATURES
100
AcDbCircle
 62
7
  6
CONTINUOUS
 10
5.2273708259
 20
3.7115420104
 40
0.085
100
AcDbArc
 50
60.8645905689
 51
90.0
  0
ARC
  5
2DE
100
AcDbEntity
  8
0
100
AcDbCircle
 62
7
  6
CONTINUOUS
 10
5.0272903727
 20
3.1340235671
 40
0.0630028161
100
AcDbArc
 50
55.9147461727
 51
124.0852559821
  0
ARC
  5
2DF
100
AcDbEntity
  8
ALL_FEATURES
100
AcDbCircle
 62
7
  6
CONTINUOUS
 10
5.2535403727
 20
3.7584911032
 40
0.03125
100
AcDbArc
 50
50.2081805004
 51
60.8645905689
  0
ARC
  5
2E0
100
AcDbEntity
  8
ALL_FEATURES
100
AcDbCircle
 62
7
  6
CONTINUOUS
 10
5.2535403727
 20
3.7201348509
 40
0.03125
100
AcDbArc
 50
301.3322514976
 51
309.7918194996
  0
ARC
  5
2E1
100
AcDbEntity
  8
0
100
AcDbCircle
 62
7
  6
CONTINUOUS
 10
5.3272903713
 20
3.0436921553
 40
0.025
100
AcDbArc
 50
90.0
 51
180.0187134894
  0
ARC
  5
2E2
100
AcDbEntity
  8
0
100
AcDbCircle
 62
7
  6
CONTINUOUS
 10
5.086342675
 20
3.1661809328
 40
0.015
100
AcDbArc
 50
119.2387908747
 51
131.7237603342
  0
ARC
  5
2E3
100
AcDbEntity
  8
0
100
AcDbCircle
 62
7
  6
CONTINUOUS
 10
5.2885403727
 20
2.6237196949
 40
0.01375
100
AcDbArc
 50
280.0
 51
360.0
  0
ARC
  5
2E4
100
AcDbEntity
  8
0
100
AcDbCircle
 62
7
  6
CONTINUOUS
 10
5.0272903727
 20
2.5776542712
 40
0.01375
100
AcDbArc
 50
260.0
 51
280.0
  0
ARC
  5
2E5
100
AcDbEntity
  8
0
100
AcDbCircle
 62
7
  6
CONTINUOUS
 10
5.2447903727
 20
2.4566921553
 40
0.01
100
AcDbArc
 50
180.0
 51
252.0002123599
  0
ARC
  5
2E6
100
AcDbEntity
  8
0
100
AcDbCircle
 62
7
  6
CONTINUOUS
 10
5.3693735563
 20
3.1266462461
 40
0.00875
100
AcDbArc
 50
275.0
 51
90.0
  0
ARC
  5
2E7
100
AcDbEntity
  8
0
100
AcDbCircle
 62
7
  6
CONTINUOUS
 10
5.3972903727
 20
3.1561921553
 40
0.005
100
AcDbArc
 50
0.0
 51
90.0
  0
ARC
  5
2E8
100
AcDbEntity
  8
0
100
AcDbCircle
 62
7
  6
CONTINUOUS
 10
5.4786597353
 20
5.203595649
 40
2.0514680072
100
AcDbArc
 50
263.0497102584
 51
263.4815577888
  0
ARC
  5
2E9
100
AcDbEntity
  8
ALL_ASSEMBLY_MEMBERS
100
AcDbCircle
 62
7
  6
CONTINUOUS
 10
5.0272910252
 20
6.749439234
 40
0.3975283209
100
AcDbArc
 50
262.036510448
 51
266.7552455516
  0
ARC
  5
2EA
100
AcDbEntity
  8
ALL_ASSEMBLY_MEMBERS
100
AcDbCircle
 62
7
  6
CONTINUOUS
 10
5.0272897202
 20
6.749439234
 40
0.3975283209
100
AcDbArc
 50
273.2447544484
 51
277.963489552
  0
ARC
  5
2EB
100
AcDbEntity
  8
ALL_ASSEMBLY_MEMBERS
100
AcDbCircle
 62
7
  6
CONTINUOUS
 10
5.0272899671
 20
6.7499291802
 40
0.3879814748
100
AcDbArc
 50
268.1536632566
 51
271.8463367434
  0
ARC
  5
2EC
100
AcDbEntity
  8
ALL_ASSEMBLY_MEMBERS
100
AcDbCircle
 62
7
  6
CONTINUOUS
 10
5.0272987838
 20
6.7498816158
 40
0.3879323219
100
AcDbArc
 50
281.8997363422
 51
336.0443735743
  0
ARC
  5
2ED
100
AcDbEntity
  8
ALL_ASSEMBLY_MEMBERS
100
AcDbCircle
 62
7
  6
CONTINUOUS
 10
5.0272819562
 20
6.7498816201
 40
0.3879323219
100
AcDbArc
 50
203.9556273295
 51
258.1002645616
  0
ARC
  5
2EE
100
AcDbEntity
  8
ALL_ASSEMBLY_MEMBERS
100
AcDbCircle
 62
7
  6
CONTINUOUS
 10
5.0272844357
 20
6.7507763843
 40
0.0697334415
100
AcDbArc
 50
180.0313865343
 51
222.9513761054
  0
ARC
  5
2EF
100
AcDbEntity
  8
ALL_ASSEMBLY_MEMBERS
100
AcDbCircle
 62
7
  6
CONTINUOUS
 10
5.0272963114
 20
6.7507763837
 40
0.0697334398
100
AcDbArc
 50
317.0486233304
 51
359.9648762654
  0
ARC
  5
2F0
100
AcDbEntity
  8
ALL_ASSEMBLY_MEMBERS
100
AcDbCircle
 62
7
  6
CONTINUOUS
 10
5.0273045542
 20
6.7507735157
 40
0.0697252068
100
AcDbArc
 50
0.281185882
 51
3.7233357526
  0
ARC
  5
2F1
100
AcDbEntity
  8
ALL_ASSEMBLY_MEMBERS
100
AcDbCircle
 62
7
  6
CONTINUOUS
 10
5.0272758887
 20
6.7507735301
 40
0.0697249044
100
AcDbArc
 50
176.2749136374
 51
179.7188216132
  0
CIRCLE
  5
2F2
100
AcDbEntity
  8
ALL_ASSEMBLY_MEMBERS
100
AcDbCircle
 62
7
  6
CONTINUOUS
 10
5.0272903727
 20
6.7511151429
 40
0.0697149821
  0
ARC
  5
2F3
100
AcDbEntity
  8
ALL_ASSEMBLY_MEMBERS
100
AcDbCircle
 62
7
  6
CONTINUOUS
 10
5.0274739829
 20
6.7507759718
 40
0.0695557681
100
AcDbArc
 50
359.9651258347
 51
0.2798476443
  0
ARC
  5
2F4
100
AcDbEntity
  8
ALL_ASSEMBLY_MEMBERS
100
AcDbCircle
 62
7
  6
CONTINUOUS
 10
5.0271064076
 20
6.7507759902
 40
0.0695554133
100
AcDbArc
 50
179.7201628863
 51
180.0311421837
  0
ARC
  5
2F5
100
AcDbEntity
  8
ALL_ASSEMBLY_MEMBERS
100
AcDbCircle
 62
7
  6
CONTINUOUS
 10
5.0272903727
 20
6.7545894609
 40
0.0623965411
100
AcDbArc
 50
0.0031724588
 51
179.9968275358
  0
ARC
  5
2F6
100
AcDbEntity
  8
ALL_ASSEMBLY_MEMBERS
100
AcDbCircle
 62
7
  6
CONTINUOUS
 10
5.0272903727
 20
6.7545963706
 40
0.0623965411
100
AcDbArc
 50
180.0031724588
 51
359.9968275359
  0
ARC
  5
2F7
100
AcDbEntity
  8
ALL_ASSEMBLY_MEMBERS
100
AcDbCircle
 62
7
  6
CONTINUOUS
 10
5.0272904139
 20
6.7546154012
 40
0.0613527851
100
AcDbArc
 50
180.0034941736
 51
359.9965058217
  0
ARC
  5
2F8
100
AcDbEntity
  8
ALL_ASSEMBLY_MEMBERS
100
AcDbCircle
 62
7
  6
CONTINUOUS
 10
5.0272903316
 20
6.7546079182
 40
0.0613527823
100
AcDbArc
 50
0.003494114
 51
179.9965058813
  0
ARC
  5
2F9
100
AcDbEntity
  8
ALL_ASSEMBLY_MEMBERS
100
AcDbCircle
 62
7
  6
CONTINUOUS
 10
5.2697930389
 20
6.750554402
 40
0.0599973032
100
AcDbArc
 50
278.3833097085
 51
359.9988668526
  0
ARC
  5
2FA
100
AcDbEntity
  8
ALL_ASSEMBLY_MEMBERS
100
AcDbCircle
 62
7
  6
CONTINUOUS
 10
5.2697877065
 20
6.7506323786
 40
0.0599973032
100
AcDbArc
 50
98.3833631114
 51
261.616690243
  0
ARC
  5
2FB
100
AcDbEntity
  8
ALL_ASSEMBLY_MEMBERS
100
AcDbCircle
 62
7
  6
CONTINUOUS
 10
5.2697930389
 20
6.7506323784
 40
0.0599973032
100
AcDbArc
 50
278.3833097085
 51
81.6166369918
  0
SPLINE
  5
2FC
100
AcDbEntity
  8
ALL_FEATURES
100
AcDbSpline
 62
7
  6
CONTINUOUS
 70
0
 71
3
 72
47
 73
43
 74
0
 42
0.0000001
 43
0.0000001
 44
0.0000000001
 40
0.0
 40
0.0
 40
0.0
 40
0.0
 40
0.0088073459
 40
0.0176023783
 40
0.0263101254
 40
0.034913708
 40
0.0434219949
 40
0.0518215951
 40
0.0683423867
 40
0.0845753985
 40
0.1005943845
 40
0.1321635261
 40
0.1633510884
 40
0.1943022165
 40
0.2251002291
 40
0.2557955675
 40
0.2864205504
 40
0.3169966646
 40
0.3475382078
 40
0.3780555211
 40
0.4390413355
 40
0.4999995137
 40
0.5609577493
 40
0.6219437228
 40
0.6524612286
 40
0.6830028498
 40
0.7135791447
 40
0.744204289
 40
0.7748997426
 40
0.8056978729
 40
0.8366490949
 40
0.8678367216
 40
0.899405896
 40
0.9154248769
 40
0.9316578263
 40
0.9481785665
 40
0.9565780681
 40
0.9650862277
 40
0.9736897481
 40
0.9823975527
 40
0.9911926401
 40
1.0
 40
1.0
 40
1.0
 40
1.0
 10
5.2156103926
 20
3.7201348509
 30
0.0
 10
5.2156103926
 20
3.7196979631
 30
0.0
 10
5.2155537645
 20
3.7188239718
 30
0.0
 10
5.2153146429
 20
3.7175380952
 30
0.0
 10
5.2149318567
 20
3.7162980182
 30
0.0
 10
5.2144232179
 20
3.715120165
 30
0.0
 10
5.2138123077
 20
3.7140099464
 30
0.0
 10
5.2128925464
 20
3.7126282124
 30
0.0
 10
5.2115712342
 20
3.7110630257
 30
0.0
 10
5.2098014588
 20
3.7094073003
 30
0.0
 10
5.2072907095
 20
3.707472801
 30
0.0
 10
5.2039327497
 20
3.7054502887
 30
0.0
 10
5.1997098736
 20
3.703493436
 30
0.0
 10
5.1953800507
 20
3.7018987759
 30
0.0
 10
5.1909826964
 20
3.7005896056
 30
0.0
 10
5.1865403682
 20
3.6995119341
 30
0.0
 10
5.1820674057
 20
3.6986269272
 30
0.0
 10
5.1775731427
 20
3.6979058841
 30
0.0
 10
5.1730639825
 20
3.6973266509
 30
0.0
 10
5.16703966
 20
3.6967216031
 30
0.0
 10
5.1594888662
 20
3.6962458365
 30
0.0
 10
5.1504154426
 20
3.6960616822
 30
0.0
 10
5.1413420082
 20
3.696245819
 30
0.0
 10
5.1337912011
 20
3.6967216497
 30
0.0
 10
5.1277668441
 20
3.6973265772
 30
0.0
 10
5.123257675
 20
3.6979059174
 30
0.0
 10
5.1187633816
 20
3.6986268963
 30
0.0
 10
5.114290397
 20
3.6995119147
 30
0.0
 10
5.1098480546
 20
3.7005896087
 30
0.0
 10
5.1054506837
 20
3.7018987795
 30
0.0
 10
5.1011208479
 20
3.7034934446
 30
0.0
 10
5.0968979641
 20
3.7054503032
 30
0.0
 10
5.0935400011
 20
3.7074728199
 30
0.0
 10
5.0910292586
 20
3.7094073251
 30
0.0
 10
5.0892594908
 20
3.7110630503
 30
0.0
 10
5.0879381924
 20
3.7126282341
 30
0.0
 10
5.0870184323
 20
3.7140099521
 30
0.0
 10
5.086407526
 20
3.7151201566
 30
0.0
 10
5.0858988899
 20
3.7162980042
 30
0.0
 10
5.0855161117
 20
3.7175380863
 30
0.0
 10
5.0852769844
 20
3.7188239676
 30
0.0
 10
5.0852203527
 20
3.7196979624
 30
0.0
 10
5.0852203527
 20
3.7201348509
 30
0.0
  0
SPLINE
  5
2FD
100
AcDbEntity
  8
ALL_FEATURES
100
AcDbSpline
 62
7
  6
CONTINUOUS
 70
0
 71
3
 72
47
 73
43
 74
0
 42
0.0000001
 43
0.0000001
 44
0.0000000001
 40
0.0
 40
0.0
 40
0.0
 40
0.0
 40
0.0088073671
 40
0.0176025274
 40
0.026310444
 40
0.0349139879
 40
0.0434222324
 40
0.0518218706
 40
0.0683426043
 40
0.0845756227
 40
0.1005946197
 40
0.1321637862
 40
0.1633513773
 40
0.1943025269
 40
0.2251005434
 40
0.2557958722
 40
0.2864208558
 40
0.3169969614
 40
0.3475384671
 40
0.3780557651
 40
0.4390415048
 40
0.4999996116
 40
0.5609577763
 40
0.6219436696
 40
0.6524611217
 40
0.6830026905
 40
0.7135789288
 40
0.7442040319
 40
0.774899445
 40
0.8056975455
 40
0.8366487635
 40
0.8678364034
 40
0.8994055953
 40
0.9154245887
 40
0.9316575588
 40
0.9481782529
 40
0.9565778149
 40
0.9650859612
 40
0.9736894575
 40
0.9823974192
 40
0.9911926221
 40
1.0
 40
1.0
 40
1.0
 40
1.0
 10
4.9693603926
 20
3.7201348509
 30
0.0
 10
4.9693603926
 20
3.719697962
 30
0.0
 10
4.9693037563
 20
3.7188239633
 30
0.0
 10
4.9690646207
 20
3.7175380744
 30
0.0
 10
4.9686818517
 20
3.7162979789
 30
0.0
 10
4.9681732097
 20
3.7151201212
 30
0.0
 10
4.9675622858
 20
3.7140099125
 30
0.0
 10
4.9666425175
 20
3.7126281876
 30
0.0
 10
4.9653212119
 20
3.7110629967
 30
0.0
 10
4.9635514333
 20
3.7094072769
 30
0.0
 10
4.9610406777
 20
3.7074727829
 30
0.0
 10
4.9576827141
 20
3.705450271
 30
0.0
 10
4.9534598326
 20
3.7034934211
 30
0.0
 10
4.9491300058
 20
3.7018987642
 30
0.0
 10
4.9447326504
 20
3.7005895956
 30
0.0
 10
4.9402903244
 20
3.6995119169
 30
0.0
 10
4.9358173614
 20
3.6986269158
 30
0.0
 10
4.9313230983
 20
3.6979058897
 30
0.0
 10
4.9268139442
 20
3.6973266333
 30
0.0
 10
4.9207896251
 20
3.6967216138
 30
0.0
 10
4.9132388411
 20
3.696245833
 30
0.0
 10
4.9041654279
 20
3.6960616827
 30
0.0
 10
4.895092005
 20
3.6962458192
 30
0.0
 10
4.8875412078
 20
3.6967216469
 30
0.0
 10
4.8815168608
 20
3.6973265791
 30
0.0
 10
4.8770076991
 20
3.6979059138
 30
0.0
 10
4.8725134137
 20
3.6986268945
 30
0.0
 10
4.8680404342
 20
3.6995119027
 30
0.0
 10
4.8635980977
 20
3.7005895976
 30
0.0
 10
4.8592007306
 20
3.7018987674
 30
0.0
 10
4.8548708943
 20
3.7034934277
 30
0.0
 10
4.8506480071
 20
3.7054502821
 30
0.0
 10
4.8472900411
 20
3.7074727974
 30
0.0
 10
4.8447792906
 20
3.7094072958
 30
0.0
 10
4.8430095179
 20
3.7110630156
 30
0.0
 10
4.8416882229
 20
3.7126282041
 30
0.0
 10
4.8407684555
 20
3.7140099168
 30
0.0
 10
4.8401575346
 20
3.7151201146
 30
0.0
 10
4.8396488947
 20
3.716297968
 30
0.0
 10
4.8392661319
 20
3.7175380674
 30
0.0
 10
4.8390269918
 20
3.7188239601
 30
0.0
 10
4.8389703527
 20
3.7196979615
 30
0.0
 10
4.8389703527
 20
3.7201348509
 30
0.0
  0
SPLINE
  5
2FE
100
AcDbEntity
  8
ALL_FEATURES
100
AcDbSpline
 62
7
  6
CONTINUOUS
 70
0
 71
3
 72
42
 73
38
 74
0
 42
0.0000001
 43
0.0000001
 44
0.0000000001
 40
0.0
 40
0.0
 40
0.0
 40
0.0
 40
0.0175562641
 40
0.0348197167
 40
0.0516871089
 40
0.0681966871
 40
0.0844255735
 40
0.1004423321
 40
0.116298897
 40
0.132033067
 40
0.1632293795
 40
0.1941903987
 40
0.2249989814
 40
0.2557053615
 40
0.2863416359
 40
0.3169290552
 40
0.3474821502
 40
0.3780111656
 40
0.4390205071
 40
0.5000023512
 40
0.5609842495
 40
0.6219937094
 40
0.6830701762
 40
0.7136577017
 40
0.7442940814
 40
0.7750005573
 40
0.8058092046
 40
0.8367702487
 40
0.8679665663
 40
0.8837007317
 40
0.8995572879
 40
0.9155740366
 40
0.931802915
 40
0.9483125072
 40
0.9651799517
 40
0.9824435684
 40
1.0
 40
1.0
 40
1.0
 40
1.0
 10
4.8389703527
 20
3.7584911032
 30
0.0
 10
4.8389703527
 20
3.7593618797
 30
0.0
 10
4.8391889003
 20
3.7610958834
 30
0.0
 10
4.8400939393
 20
3.7635140641
 30
0.0
 10
4.8414113349
 20
3.7656669286
 30
0.0
 10
4.8430008682
 20
3.7675543124
 30
0.0
 10
4.8447697768
 20
3.769209719
 30
0.0
 10
4.8466607049
 20
3.7706692554
 30
0.0
 10
4.8486376023
 20
3.7719641916
 30
0.0
 10
4.8513486699
 20
3.7734999963
 30
0.0
 10
4.8548594956
 20
3.7751277947
 30
0.0
 10
4.8591893852
 20
3.7767234639
 30
0.0
 10
4.8635876756
 20
3.7780335962
 30
0.0
 10
4.8680309395
 20
3.77911195
 30
0.0
 10
4.8725049793
 20
3.7799974403
 30
0.0
 10
4.877000336
 20
3.7807190122
 30
0.0
 10
4.8815106466
 20
3.7812986355
 30
0.0
 10
4.8875365698
 20
3.7819039343
 30
0.0
 10
4.8950894078
 20
3.7823799936
 30
0.0
 10
4.9041652464
 20
3.7825642009
 30
0.0
 10
4.913241327
 20
3.7823801068
 30
0.0
 10
4.9223061859
 20
3.7818083193
 30
0.0
 10
4.929835278
 20
3.7809588702
 30
0.0
 10
4.9358256588
 20
3.7799974896
 30
0.0
 10
4.9402997263
 20
3.7791119607
 30
0.0
 10
4.9447430011
 20
3.7780336198
 30
0.0
 10
4.9491413021
 20
3.7767234846
 30
0.0
 10
4.953471196
 20
3.7751278154
 30
0.0
 10
4.9569820259
 20
3.7735000229
 30
0.0
 10
4.9596930946
 20
3.771964221
 30
0.0
 10
4.9616699928
 20
3.7706692881
 30
0.0
 10
4.9635609227
 20
3.7692097564
 30
0.0
 10
4.9653298358
 20
3.7675543549
 30
0.0
 10
4.9669193762
 20
3.7656669734
 30
0.0
 10
4.968236787
 20
3.7635141046
 30
0.0
 10
4.9691418382
 20
3.7610959079
 30
0.0
 10
4.9693603926
 20
3.7593618881
 30
0.0
 10
4.9693603926
 20
3.7584911032
 30
0.0
  0
SPLINE
  5
2FF
100
AcDbEntity
  8
ALL_FEATURES
100
AcDbSpline
 62
7
  6
CONTINUOUS
 70
0
 71
3
 72
42
 73
38
 74
0
 42
0.0000001
 43
0.0000001
 44
0.0000000001
 40
0.0
 40
0.0
 40
0.0
 40
0.0
 40
0.017556354
 40
0.0348198778
 40
0.0516872971
 40
0.0681968933
 40
0.0844257844
 40
0.1004425393
 40
0.1162990949
 40
0.1320332582
 40
0.1632295791
 40
0.1941906055
 40
0.2249991952
 40
0.2557055793
 40
0.286341849
 40
0.3169292568
 40
0.3474823409
 40
0.3780113436
 40
0.4390206338
 40
0.5000024333
 40
0.5609842883
 40
0.6219936986
 40
0.683070093
 40
0.7136575831
 40
0.7442939304
 40
0.7750003815
 40
0.8058090129
 40
0.8367700501
 40
0.8679663713
 40
0.8837005309
 40
0.8995570795
 40
0.9155738255
 40
0.9318027079
 40
0.9483123165
 40
0.9651797877
 40
0.9824434781
 40
1.0
 40
1.0
 40
1.0
 40
1.0
 10
5.0852203527
 20
3.7584911032
 30
0.0
 10
5.0852203527
 20
3.7593618842
 30
0.0
 10
5.085438904
 20
3.7610958957
 30
0.0
 10
5.0863439488
 20
3.7635140842
 30
0.0
 10
5.087661352
 20
3.7656669509
 30
0.0
 10
5.0892508895
 20
3.7675543343
 30
0.0
 10
5.0910198014
 20
3.7692097388
 30
0.0
 10
5.0929107309
 20
3.7706692726
 30
0.0
 10
5.0948876282
 20
3.7719642071
 30
0.0
 10
5.0975986955
 20
3.7735000116
 30
0.0
 10
5.1011095243
 20
3.7751278042
 30
0.0
 10
5.1054394141
 20
3.7767234755
 30
0.0
 10
5.109837706
 20
3.7780336063
 30
0.0
 10
5.1142809711
 20
3.7791119567
 30
0.0
 10
5.1187550103
 20
3.779997446
 30
0.0
 10
5.1232503654
 20
3.7807190194
 30
0.0
 10
5.1277606743
 20
3.7812986429
 30
0.0
 10
5.1337865949
 20
3.7819039298
 30
0.0
 10
5.1413394265
 20
3.7823800019
 30
0.0
 10
5.1504152587
 20
3.7825641961
 30
0.0
 10
5.1594913321
 20
3.7823801048
 30
0.0
 10
5.1685561833
 20
3.7818083221
 30
0.0
 10
5.1760852671
 20
3.7809588697
 30
0.0
 10
5.1820756414
 20
3.7799974933
 30
0.0
 10
5.1865497044
 20
3.7791119656
 30
0.0
 10
5.1909929761
 20
3.7780336274
 30
0.0
 10
5.1953912754
 20
3.7767234948
 30
0.0
 10
5.1997211678
 20
3.7751278247
 30
0.0
 10
5.2032320001
 20
3.7735000383
 30
0.0
 10
5.2059430684
 20
3.7719642367
 30
0.0
 10
5.2079199666
 20
3.7706693054
 30
0.0
 10
5.2098108981
 20
3.7692097763
 30
0.0
 10
5.2115798144
 20
3.7675543769
 30
0.0
 10
5.2131693589
 20
3.765666996
 30
0.0
 10
5.2144867774
 20
3.763514125
 30
0.0
 10
5.2153918344
 20
3.7610959204
 30
0.0
 10
5.2156103926
 20
3.7593618925
 30
0.0
 10
5.2156103926
 20
3.7584911032
 30
0.0
  0
SPLINE
  5
300
100
AcDbEntity
  8
0
100
AcDbSpline
 62
7
  6
CONTINUOUS
 70
0
 71
3
 72
10
 73
6
 74
0
 42
0.0000001
 43
0.0000001
 44
0.0000000001
 40
0.0
 40
0.0
 40
0.0
 40
0.0
 40
0.3553305938
 40
0.665503034
 40
1.0
 40
1.0
 40
1.0
 40
1.0
 10
4.9258977432
 20
3.1803789364
 30
0.0
 10
4.9295855736
 20
3.1808488351
 30
0.0
 10
4.9364873384
 20
3.1817714552
 30
0.0
 10
4.9468344044
 20
3.1833234866
 30
0.0
 10
4.9534823415
 20
3.1844701465
 30
0.0
 10
4.9569193943
 20
3.185129231
 30
0.0
  0
SPLINE
  5
301
100
AcDbEntity
  8
0
100
AcDbSpline
 62
7
  6
CONTINUOUS
 70
0
 71
3
 72
17
 73
13
 74
0
 42
0.0000001
 43
0.0000001
 44
0.0000000001
 40
0.0
 40
0.0
 40
0.0
 40
0.0
 40
0.2040228358
 40
0.3850001321
 40
0.5424365261
 40
0.6760463936
 40
0.7861237102
 40
0.8740527671
 40
0.910653163
 40
0.9431327068
 40
0.9724693234
 40
1.0
 40
1.0
 40
1.0
 40
1.0
 10
5.0036573518
 20
3.1803789364
 30
0.0
 10
5.0039796926
 20
3.1804610809
 30
0.0
 10
5.004585736
 20
3.1806251331
 30
0.0
 10
5.0054300251
 20
3.1808894235
 30
0.0
 10
5.006152343
 20
3.1811561068
 30
0.0
 10
5.0067497955
 20
3.1814241306
 30
0.0
 10
5.0072200364
 20
3.1816926681
 30
0.0
 10
5.0075237646
 20
3.1819297119
 30
0.0
 10
5.0076931278
 20
3.1821227168
 30
0.0
 10
5.0077793292
 20
3.1822590466
 30
0.0
 10
5.0078319757
 20
3.1823960482
 30
0.0
 10
5.007843963
 20
3.1824891289
 30
0.0
 10
5.007843912
 20
3.1825340155
 30
0.0
  0
SPLINE
  5
302
100
AcDbEntity
  8
0
100
AcDbSpline
 62
7
  6
CONTINUOUS
 70
0
 71
3
 72
16
 73
12
 74
0
 42
0.0000001
 43
0.0000001
 44
0.0000000001
 40
0.0
 40
0.0
 40
0.0
 40
0.0
 40
0.2151455668
 40
0.4052715376
 40
0.5695368713
 40
0.7071876913
 40
0.8178525012
 40
0.9019045756
 40
0.9343796941
 40
0.9609694672
 40
1.0
 40
1.0
 40
1.0
 40
1.0
 10
4.8919739033
 20
3.1713264704
 30
0.0
 10
4.8922949813
 20
3.1714063766
 30
0.0
 10
4.8928983944
 20
3.171562659
 30
0.0
 10
4.893740727
 20
3.1718032019
 30
0.0
 10
4.8944614942
 20
3.1720341237
 30
0.0
 10
4.8950572107
 20
3.1722535126
 30
0.0
 10
4.8955249453
 20
3.1724605843
 30
0.0
 10
4.8958306196
 20
3.1726318993
 30
0.0
 10
4.8960050907
 20
3.1727679533
 30
0.0
 10
4.896109975
 20
3.1728747238
 30
0.0
 10
4.8961605659
 20
3.1729726664
 30
0.0
 10
4.8961604407
 20
3.1730326912
 30
0.0
  0
SPLINE
  5
303
100
AcDbEntity
  8
0
100
AcDbSpline
 62
7
  6
CONTINUOUS
 70
0
 71
3
 72
43
 73
39
 74
0
 42
0.0000001
 43
0.0000001
 44
0.0000000001
 40
0.0
 40
0.0
 40
0.0
 40
0.0
 40
0.0025561504
 40
0.0055359328
 40
0.0092707495
 40
0.013929786
 40
0.0195969023
 40
0.0263130959
 40
0.0340906804
 40
0.0429290738
 40
0.0637549142
 40
0.0886786232
 40
0.1174874317
 40
0.1499375663
 40
0.1857281275
 40
0.2245178596
 40
0.2659437163
 40
0.3095974842
 40
0.4018892236
 40
0.4978142512
 40
0.5936689031
 40
0.6857912852
 40
0.7293573888
 40
0.7707180021
 40
0.8094859194
 40
0.845320576
 40
0.8779003148
 40
0.9069456423
 40
0.9322276025
 40
0.9535505577
 40
0.9626942008
 40
0.9708168362
 40
0.9779204274
 40
0.9840203768
 40
0.989158848
 40
0.9934160797
 40
0.9969408343
 40
1.0
 40
1.0
 40
1.0
 40
1.0
 10
4.9022903727
 20
3.1672028281
 30
0.0
 10
4.9022903727
 20
3.1671484398
 30
0.0
 10
4.9023209478
 20
3.1670296315
 30
0.0
 10
4.9024461539
 20
3.1668726522
 30
0.0
 10
4.9026410835
 20
3.1667267854
 30
0.0
 10
4.9029071634
 20
3.1665881325
 30
0.0
 10
4.9032452898
 20
3.1664558737
 30
0.0
 10
4.9036557414
 20
3.1663301835
 30
0.0
 10
4.9041378935
 20
3.1662111293
 30
0.0
 10
4.9049188723
 20
3.1660529136
 30
0.0
 10
4.9060681882
 20
3.1658806599
 30
0.0
 10
4.9076459229
 20
3.16571246
 30
0.0
 10
4.9094747569
 20
3.1655750191
 30
0.0
 10
4.9115371891
 20
3.1654698499
 30
0.0
 10
4.9138135004
 20
3.1653978469
 30
0.0
 10
4.916281606
 20
3.1653596089
 30
0.0
 10
4.9189173006
 20
3.1653556251
 30
0.0
 10
4.9226911593
 20
3.1653967505
 30
0.0
 10
4.9276232303
 20
3.1655355439
 30
0.0
 10
4.9336608615
 20
3.1658277366
 30
0.0
 10
4.9396877995
 20
3.1662413415
 30
0.0
 10
4.9445949391
 20
3.166685004
 30
0.0
 10
4.9483395385
 20
3.1670975119
 30
0.0
 10
4.9509513156
 20
3.1674232181
 30
0.0
 10
4.9533945123
 20
3.167768852
 30
0.0
 10
4.955646246
 20
3.1681313753
 30
0.0
 10
4.9576856641
 20
3.1685080138
 30
0.0
 10
4.9594940982
 20
3.1688955757
 30
0.0
 10
4.9610550255
 20
3.1692901306
 30
0.0
 10
4.9621901984
 20
3.1696372105
 30
0.0
 10
4.9629606649
 20
3.1699216739
 30
0.0
 10
4.963438501
 20
3.1701236186
 30
0.0
 10
4.9638456465
 20
3.1703247322
 30
0.0
 10
4.9641813464
 20
3.1705248073
 30
0.0
 10
4.9644455569
 20
3.1707234812
 30
0.0
 10
4.9646385464
 20
3.1709213896
 30
0.0
 10
4.9647602202
 20
3.1711205914
 30
0.0
 10
4.9647903727
 20
3.1712613793
 30
0.0
 10
4.9647903727
 20
3.1713264704
 30
0.0
  0
SPLINE
  5
304
100
AcDbEntity
  8
0
100
AcDbSpline
 62
7
  6
CONTINUOUS
 70
0
 71
3
 72
13
 73
9
 74
0
 42
0.0000001
 43
0.0000001
 44
0.0000000001
 40
0.0
 40
0.0
 40
0.0
 40
0.0
 40
0.0846723347
 40
0.184598538
 40
0.298165324
 40
0.4236120337
 40
0.7016123601
 40
1.0
 40
1.0
 40
1.0
 40
1.0
 10
5.0002270788
 20
3.1672028281
 30
0.0
 10
5.000977123
 20
3.1670443376
 30
0.0
 10
5.0026240092
 20
3.1667541949
 30
0.0
 10
5.0053001645
 20
3.1663964499
 30
0.0
 10
5.0083534675
 20
3.1660852021
 30
0.0
 10
5.0130209315
 20
3.1657256884
 30
0.0
 10
5.0193700566
 20
3.1654349703
 30
0.0
 10
5.0245888302
 20
3.165358822
 30
0.0
 10
5.0272903727
 20
3.165358822
 30
0.0
  0
SPLINE
  5
305
100
AcDbEntity
  8
0
100
AcDbSpline
 62
7
  6
CONTINUOUS
 70
0
 71
3
 72
16
 73
12
 74
0
 42
0.0000001
 43
0.0000001
 44
0.0000000001
 40
0.0
 40
0.0
 40
0.0
 40
0.0
 40
0.0485294526
 40
0.1017204086
 40
0.2200510431
 40
0.3504208869
 40
0.487708205
 40
0.6265357848
 40
0.7615395029
 40
0.887595208
 40
1.0
 40
1.0
 40
1.0
 40
1.0
 10
4.9570041066
 20
3.1683866263
 30
0.0
 10
4.9562854468
 20
3.1684416516
 30
0.0
 10
4.954777226
 20
3.1685331179
 30
0.0
 10
4.9515108603
 20
3.1686500449
 30
0.0
 10
4.9470259289
 20
3.168663265
 30
0.0
 10
4.9412950013
 20
3.1684915787
 30
0.0
 10
4.9352672702
 20
3.1681418925
 30
0.0
 10
4.9291816638
 20
3.1676367189
 30
0.0
 10
4.9232754713
 20
3.1670064669
 30
0.0
 10
4.9177752395
 20
3.1662859899
 30
0.0
 10
4.9142765023
 20
3.1657320762
 30
0.0
 10
4.9126327277
 20
3.165440441
 30
0.0
  0
SPLINE
  5
306
100
AcDbEntity
  8
0
100
AcDbSpline
 62
7
  6
CONTINUOUS
 70
0
 71
3
 72
13
 73
9
 74
0
 42
0.0000001
 43
0.0000001
 44
0.0000000001
 40
0.0
 40
0.0
 40
0.0
 40
0.0
 40
0.2856132402
 40
0.5563735535
 40
0.6817910344
 40
0.7984743578
 40
0.9049546269
 40
1.0
 40
1.0
 40
1.0
 40
1.0
 10
5.0272903727
 20
3.1686479066
 30
0.0
 10
5.0249246812
 20
3.1686479066
 30
0.0
 10
5.0203159243
 20
3.168564805
 30
0.0
 10
5.0146757196
 20
3.1682542735
 30
0.0
 10
5.0104435372
 20
3.1678850527
 30
0.0
 10
5.0075734525
 20
3.167567939
 30
0.0
 10
5.004961928
 20
3.1672096633
 30
0.0
 10
5.0033156278
 20
3.1669315595
 30
0.0
 10
5.0025422839
 20
3.1667842631
 30
0.0
  0
SPLINE
  5
307
100
AcDbEntity
  8
0
100
AcDbSpline
 62
7
  6
CONTINUOUS
 70
0
 71
3
 72
32
 73
28
 74
0
 42
0.0000001
 43
0.0000001
 44
0.0000000001
 40
0.0
 40
0.0
 40
0.0
 40
0.0
 40
0.0237164692
 40
0.0502701616
 40
0.1111757235
 40
0.1811930795
 40
0.2586140145
 40
0.3414383759
 40
0.4274978196
 40
0.514516992
 40
0.6001675729
 40
0.6821534317
 40
0.7582668821
 40
0.7934783805
 40
0.8264716612
 40
0.8570373242
 40
0.8849705019
 40
0.9100914063
 40
0.9322562545
 40
0.9513311463
 40
0.9596785836
 40
0.9672241582
 40
0.973964738
 40
0.9799005543
 40
0.9850373794
 40
0.9893918118
 40
1.0
 40
1.0
 40
1.0
 40
1.0
 10
5.0509233935
 20
3.1803789364
 30
0.0
 10
5.0513741886
 20
3.180264057
 30
0.0
 10
5.0523347482
 20
3.1800402196
 30
0.0
 10
5.0544726056
 20
3.1796088242
 30
0.0
 10
5.0575220583
 20
3.1791103809
 30
0.0
 10
5.0615750761
 20
3.1785833083
 30
0.0
 10
5.0660676234
 20
3.1781134857
 30
0.0
 10
5.0708821901
 20
3.1777083937
 30
0.0
 10
5.0758908914
 20
3.1773746168
 30
0.0
 10
5.0809595671
 20
3.1771170602
 30
0.0
 10
5.0859517136
 20
3.1769392629
 30
0.0
 10
5.0907321467
 20
3.1768435744
 30
0.0
 10
5.0945242094
 20
3.1768326192
 30
0.0
 10
5.097354852
 20
3.1768692518
 30
0.0
 10
5.09929171
 20
3.1769171818
 30
0.0
 10
5.1010850925
 20
3.1769858987
 30
0.0
 10
5.1027229618
 20
3.1770751609
 30
0.0
 10
5.1041944558
 20
3.1771845819
 30
0.0
 10
5.1054898853
 20
3.1773135201
 30
0.0
 10
5.1064543624
 20
3.1774415356
 30
0.0
 10
5.1071306677
 20
3.1775565705
 30
0.0
 10
5.1075659981
 20
3.1776435075
 30
0.0
 10
5.1079523866
 20
3.1777351755
 30
0.0
 10
5.1082875725
 20
3.1778304255
 30
0.0
 10
5.1085763319
 20
3.1779323065
 30
0.0
 10
5.1089240801
 20
3.1780843634
 30
0.0
 10
5.1092361893
 20
3.1783032305
 30
0.0
 10
5.1092365245
 20
3.1785113117
 30
0.0
  0
LINE
  5
308
100
AcDbEntity
  8
0
100
AcDbLine
 62
7
  6
CONTINUOUS
 10
5.1286830021
 20
3.1803789364
 11
5.1597058639
 21
3.1768629699
  0
SPLINE
  5
309
100
AcDbEntity
  8
0
100
AcDbSpline
 62
7
  6
CONTINUOUS
 70
0
 71
3
 72
11
 73
7
 74
0
 42
0.0000001
 43
0.0000001
 44
0.0000000001
 40
0.0
 40
0.0
 40
0.0
 40
0.0
 40
0.238915907
 40
0.4950557185
 40
0.7537556392
 40
1.0
 40
1.0
 40
1.0
 40
1.0
 10
5.1054153727
 20
3.1672028281
 30
0.0
 10
5.1077133269
 20
3.1669224803
 30
0.0
 10
5.1124860331
 20
3.1664317864
 30
0.0
 10
5.1197699752
 20
3.1658868889
 30
0.0
 10
5.127136058
 20
3.1655188274
 30
0.0
 10
5.1320278772
 20
3.1653951746
 30
0.0
 10
5.1344137528
 20
3.1653706433
 30
0.0
  0
SPLINE
  5
30A
100
AcDbEntity
  8
0
100
AcDbSpline
 62
7
  6
CONTINUOUS
 70
0
 71
3
 72
22
 73
18
 74
0
 42
0.0000001
 43
0.0000001
 44
0.0000000001
 40
0.0
 40
0.0
 40
0.0
 40
0.0
 40
0.2142252213
 40
0.4066887089
 40
0.5746963312
 40
0.6487882896
 40
0.7159709042
 40
0.7760421867
 40
0.8288260412
 40
0.8742449265
 40
0.9123127279
 40
0.9431504543
 40
0.9671222776
 40
0.976831284
 40
0.9852935547
 40
0.99285634
 40
1.0
 40
1.0
 40
1.0
 40
1.0
 10
5.1387562157
 20
3.165370024
 30
0.0
 10
5.1397510044
 20
3.1653809312
 30
0.0
 10
5.1416394321
 20
3.1654173736
 30
0.0
 10
5.1443063055
 20
3.1655252821
 30
0.0
 10
5.146320251
 20
3.1656605289
 30
0.0
 10
5.1477500309
 20
3.1657980948
 30
0.0
 10
5.1486786079
 20
3.1659086526
 30
0.0
 10
5.1495058929
 20
3.1660305186
 30
0.0
 10
5.1502290097
 20
3.1661634208
 30
0.0
 10
5.1508456463
 20
3.1663068008
 30
0.0
 10
5.1513546331
 20
3.166460032
 30
0.0
 10
5.1517547641
 20
3.1666224753
 30
0.0
 10
5.1520153692
 20
3.1667752249
 30
0.0
 10
5.1521610972
 20
3.1669069673
 30
0.0
 10
5.1522347635
 20
3.1670021094
 30
0.0
 10
5.152279963
 20
3.1671009987
 30
0.0
 10
5.1522901165
 20
3.1671696694
 30
0.0
 10
5.152290146
 20
3.1672028441
 30
0.0
  0
SPLINE
  5
30B
100
AcDbEntity
  8
0
100
AcDbSpline
 62
7
  6
CONTINUOUS
 70
0
 71
3
 72
25
 73
21
 74
0
 42
0.0000001
 43
0.0000001
 44
0.0000000001
 40
0.0
 40
0.0
 40
0.0
 40
0.0
 40
0.1985002831
 40
0.3870761513
 40
0.5593030673
 40
0.7091933989
 40
0.8314843756
 40
0.880916403
 40
0.9025193428
 40
0.9219833224
 40
0.9392652709
 40
0.9543414942
 40
0.9672000479
 40
0.9778376897
 40
0.9862692163
 40
0.992554219
 40
0.9949501045
 40
0.996911771
 40
0.9985386834
 40
1.0
 40
1.0
 40
1.0
 40
1.0
 10
5.1921880531
 20
3.1669442561
 30
0.0
 10
5.1940908448
 20
3.1667544267
 30
0.0
 10
5.1978037277
 20
3.1664081492
 30
0.0
 10
5.2031746735
 20
3.1659779333
 30
0.0
 10
5.2080839068
 20
3.1656536543
 30
0.0
 10
5.2123600582
 20
3.1654426514
 30
0.0
 10
5.2154575912
 20
3.1653567991
 30
0.0
 10
5.2173201513
 20
3.1653579097
 30
0.0
 10
5.2181918058
 20
3.1653760652
 30
0.0
 10
5.2187535569
 20
3.1653966856
 30
0.0
 10
5.2192520222
 20
3.1654248798
 30
0.0
 10
5.2196862248
 20
3.1654605214
 30
0.0
 10
5.2200553852
 20
3.1655034501
 30
0.0
 10
5.2203591336
 20
3.1655533412
 30
0.0
 10
5.2205967974
 20
3.1656100537
 30
0.0
 10
5.220752797
 20
3.165666383
 30
0.0
 10
5.2208414699
 20
3.165718523
 30
0.0
 10
5.2208855807
 20
3.1657563013
 30
0.0
 10
5.2209134308
 20
3.1657972
 30
0.0
 10
5.2209198433
 20
3.1658272375
 30
0.0
 10
5.2209198448
 20
3.165841315
 30
0.0
  0
SPLINE
  5
30C
100
AcDbEntity
  8
0
100
AcDbSpline
 62
7
  6
CONTINUOUS
 70
0
 71
3
 72
14
 73
10
 74
0
 42
0.0000001
 43
0.0000001
 44
0.0000000001
 40
0.0
 40
0.0
 40
0.0
 40
0.0
 40
0.3021807176
 40
0.4463250388
 40
0.5823028256
 40
0.7077302627
 40
0.8203614682
 40
0.91830907
 40
1.0
 40
1.0
 40
1.0
 40
1.0
 10
5.0272903727
 20
3.165358822
 30
0.0
 10
5.0300818097
 20
3.165358822
 30
0.0
 10
5.0342052731
 20
3.1654203858
 30
0.0
 10
5.0395802612
 20
3.1656359382
 30
0.0
 10
5.0433203836
 20
3.1658559311
 30
0.0
 10
5.0467647567
 20
3.1661331801
 30
0.0
 10
5.0498515015
 20
3.1664639604
 30
0.0
 10
5.0525251806
 20
3.1668427888
 30
0.0
 10
5.0541567818
 20
3.1671520511
 30
0.0
 10
5.0548920878
 20
3.1673217385
 30
0.0
  0
SPLINE
  5
30D
100
AcDbEntity
  8
0
100
AcDbSpline
 62
7
  6
CONTINUOUS
 70
0
 71
3
 72
15
 73
11
 74
0
 42
0.0000001
 43
0.0000001
 44
0.0000000001
 40
0.0
 40
0.0
 40
0.0
 40
0.0
 40
0.2034668576
 40
0.3833110297
 40
0.5393837256
 40
0.671882301
 40
0.7814475705
 40
0.8696559384
 40
0.9401249315
 40
1.0
 40
1.0
 40
1.0
 40
1.0
 10
5.0548920878
 20
3.1673217385
 30
0.0
 10
5.0551743642
 20
3.1673868798
 30
0.0
 10
5.0557042905
 20
3.1675179913
 30
0.0
 10
5.0564415861
 20
3.1677338749
 30
0.0
 10
5.0570708306
 20
3.1679562206
 30
0.0
 10
5.0575905416
 20
3.1681842479
 30
0.0
 10
5.0580003105
 20
3.1684174895
 30
0.0
 10
5.0583002861
 20
3.1686573915
 30
0.0
 10
5.0584921919
 20
3.1689086169
 30
0.0
 10
5.0585400792
 20
3.1690954049
 30
0.0
 10
5.0585401598
 20
3.1691806547
 30
0.0
  0
SPLINE
  5
30E
100
AcDbEntity
  8
0
100
AcDbSpline
 62
7
  6
CONTINUOUS
 70
0
 71
3
 72
16
 73
12
 74
0
 42
0.0000001
 43
0.0000001
 44
0.0000000001
 40
0.0
 40
0.0
 40
0.0
 40
0.0
 40
0.1170524635
 40
0.2462467066
 40
0.3828744665
 40
0.5219087735
 40
0.6581358363
 40
0.7863722184
 40
0.9017445791
 40
0.9532435777
 40
1.0
 40
1.0
 40
1.0
 40
1.0
 10
5.0974478358
 20
3.1768770012
 30
0.0
 10
5.0957615352
 20
3.1771637968
 30
0.0
 10
5.092205359
 20
3.1777166061
 30
0.0
 10
5.0866589463
 20
3.1784554031
 30
0.0
 10
5.080778861
 20
3.1791129739
 30
0.0
 10
5.0747827522
 20
3.1796446025
 30
0.0
 10
5.0688964913
 20
3.1800057997
 30
0.0
 10
5.0633469152
 20
3.1801611663
 30
0.0
 10
5.0590329497
 20
3.1801058286
 30
0.0
 10
5.0559152979
 20
3.179938367
 30
0.0
 10
5.054484193
 20
3.1798180809
 30
0.0
 10
5.0538045474
 20
3.1797478701
 30
0.0
  0
SPLINE
  5
30F
100
AcDbEntity
  8
0
100
AcDbSpline
 62
7
  6
CONTINUOUS
 70
0
 71
3
 72
12
 73
8
 74
0
 42
0.0000001
 43
0.0000001
 44
0.0000000001
 40
0.0
 40
0.0
 40
0.0
 40
0.0
 40
0.2441591335
 40
0.505728298
 40
0.764494731
 40
0.8863859231
 40
1.0
 40
1.0
 40
1.0
 40
1.0
 10
5.1366653727
 20
3.1662822218
 30
0.0
 10
5.1339716643
 20
3.1666692652
 30
0.0
 10
5.1283758447
 20
3.1673593607
 30
0.0
 10
5.11988804
 20
3.1681252494
 30
0.0
 10
5.1127388554
 20
3.1685224025
 30
0.0
 10
5.1072309208
 20
3.1686529284
 30
0.0
 10
5.104605633
 20
3.1686516573
 30
0.0
 10
5.1033394485
 20
3.1686324172
 30
0.0
  0
LINE
  5
310
100
AcDbEntity
  8
0
100
AcDbLine
 62
7
  6
CONTINUOUS
 10
5.1033394485
 20
3.1686324172
 11
5.0975746959
 21
3.1683864132
  0
SPLINE
  5
311
100
AcDbEntity
  8
0
100
AcDbSpline
 62
7
  6
CONTINUOUS
 70
0
 71
3
 72
13
 73
9
 74
0
 42
0.0000001
 43
0.0000001
 44
0.0000000001
 40
0.0
 40
0.0
 40
0.0
 40
0.0
 40
0.0950817781
 40
0.2015686709
 40
0.318233001
 40
0.4436652359
 40
0.7143949161
 40
1.0
 40
1.0
 40
1.0
 40
1.0
 10
5.0520367871
 20
3.1667845206
 30
0.0
 10
5.0512632005
 20
3.1669318682
 30
0.0
 10
5.0496166694
 20
3.1672100683
 30
0.0
 10
5.0470051037
 20
3.1675681919
 30
0.0
 10
5.0441351966
 20
3.1678852954
 30
0.0
 10
5.0399035743
 20
3.1682542908
 30
0.0
 10
5.0342639599
 20
3.1685648686
 30
0.0
 10
5.0296558355
 20
3.1686479066
 30
0.0
 10
5.0272903727
 20
3.1686479066
 30
0.0
  0
SPLINE
  5
312
100
AcDbEntity
  8
0
100
AcDbSpline
 62
7
  6
CONTINUOUS
 70
0
 71
3
 72
22
 73
18
 74
0
 42
0.0000001
 43
0.0000001
 44
0.0000000001
 40
0.0
 40
0.0
 40
0.0
 40
0.0
 40
0.0094559499
 40
0.0167895888
 40
0.026157956
 40
0.0376311734
 40
0.051231809
 40
0.0669606291
 40
0.0848069987
 40
0.1267330896
 40
0.1766813696
 40
0.2342679494
 40
0.2990189041
 40
0.4478014171
 40
0.6180691118
 40
0.8041790105
 40
1.0
 40
1.0
 40
1.0
 40
1.0
 10
5.1584204217
 20
3.1730326773
 30
0.0
 10
5.1584204124
 20
3.172939808
 30
0.0
 10
5.1585379603
 20
3.1727917981
 30
0.0
 10
5.1587395211
 20
3.1726423051
 30
0.0
 10
5.158981041
 20
3.1725020388
 30
0.0
 10
5.1592860089
 20
3.1723569232
 30
0.0
 10
5.1596569738
 20
3.1722042977
 30
0.0
 10
5.1600923646
 20
3.1720458077
 30
0.0
 10
5.1607969631
 20
3.1718143328
 30
0.0
 10
5.1618334149
 20
3.1715181589
 30
0.0
 10
5.1632575742
 20
3.1711618248
 30
0.0
 10
5.1649090656
 20
3.1707928226
 30
0.0
 10
5.1675188703
 20
3.1702638734
 30
0.0
 10
5.1712312463
 20
3.169607458
 30
0.0
 10
5.1761355366
 20
3.1688555324
 30
0.0
 10
5.1815106888
 20
3.1681326337
 30
0.0
 10
5.1852357453
 20
3.167690595
 30
0.0
 10
5.1871470592
 20
3.1674770385
 30
0.0
  0
SPLINE
  5
313
100
AcDbEntity
  8
0
100
AcDbSpline
 62
7
  6
CONTINUOUS
 70
0
 71
3
 72
21
 73
17
 74
0
 42
0.0000001
 43
0.0000001
 44
0.0000000001
 40
0.0
 40
0.0
 40
0.0
 40
0.0
 40
0.0078329103
 40
0.0162589485
 40
0.0256791232
 40
0.0363781411
 40
0.0622686814
 40
0.0948139843
 40
0.1343598051
 40
0.1810170321
 40
0.2347214424
 40
0.2953399973
 40
0.436596123
 40
0.6029102827
 40
0.7918764729
 40
1.0
 40
1.0
 40
1.0
 40
1.0
 10
5.089790584
 20
3.1713264742
 30
0.0
 10
5.0897905524
 20
3.171283417
 30
0.0
 10
5.0898027277
 20
3.1711936927
 30
0.0
 10
5.0898554883
 20
3.1710615866
 30
0.0
 10
5.089941758
 20
3.1709295395
 30
0.0
 10
5.0901116399
 20
3.1707411639
 30
0.0
 10
5.0904154113
 20
3.1705085174
 30
0.0
 10
5.090884553
 20
3.170242452
 30
0.0
 10
5.0914804276
 20
3.1699740942
 30
0.0
 10
5.0922011859
 20
3.1697048186
 30
0.0
 10
5.0930443909
 20
3.169435475
 30
0.0
 10
5.094398057
 20
3.169058568
 30
0.0
 10
5.0963718921
 20
3.1686066825
 30
0.0
 10
5.099055092
 20
3.1681040068
 30
0.0
 10
5.1021154771
 20
3.1676265668
 30
0.0
 10
5.1042797443
 20
3.1673413735
 30
0.0
 10
5.1054153727
 20
3.1672028281
 30
0.0
  0
LINE
  5
314
100
AcDbEntity
  8
0
100
AcDbLine
 62
7
  6
CONTINUOUS
 10
5.1419436697
 20
3.1654411928
 11
5.1366653727
 21
3.1662822218
  0
SPLINE
  5
315
100
AcDbEntity
  8
0
100
AcDbSpline
 62
7
  6
CONTINUOUS
 70
0
 71
3
 72
17
 73
13
 74
0
 42
0.0000001
 43
0.0000001
 44
0.0000000001
 40
0.0
 40
0.0
 40
0.0
 40
0.0
 40
0.0279719719
 40
0.0574372195
 40
0.0898159445
 40
0.1261736608
 40
0.2134436822
 40
0.3229155195
 40
0.4561634944
 40
0.6136251403
 40
0.7950611509
 40
1.0
 40
1.0
 40
1.0
 40
1.0
 10
4.9960405837
 20
3.1691806577
 30
0.0
 10
4.9960405412
 20
3.1691356672
 30
0.0
 10
4.9960522795
 20
3.1690428973
 30
0.0
 10
4.9961046741
 20
3.1689070342
 30
0.0
 10
4.9961907676
 20
3.1687735398
 30
0.0
 10
4.9963599239
 20
3.1685870546
 30
0.0
 10
4.9966637981
 20
3.1683623783
 30
0.0
 10
4.9971338629
 20
3.1681140025
 30
0.0
 10
4.9977311275
 20
3.1678717559
 30
0.0
 10
4.9984535517
 20
3.167636377
 30
0.0
 10
4.9992984154
 20
3.1674086577
 30
0.0
 10
4.9999045738
 20
3.1672709761
 30
0.0
 10
5.0002270788
 20
3.1672028281
 30
0.0
  0
LINE
  5
316
100
AcDbEntity
  8
0
100
AcDbLine
 62
7
  6
CONTINUOUS
 10
4.833343295
 20
3.1683464581
 11
4.8554153727
 21
3.1713264704
  0
LINE
  5
317
100
AcDbEntity
  8
0
100
AcDbLine
 62
7
  6
CONTINUOUS
 10
4.89487532
 20
3.1768630147
 11
4.9258977432
 21
3.1803789364
  0
SPLINE
  5
318
100
AcDbEntity
  8
0
100
AcDbSpline
 62
7
  6
CONTINUOUS
 70
0
 71
3
 72
32
 73
28
 74
0
 42
0.0000001
 43
0.0000001
 44
0.0000000001
 40
0.0
 40
0.0
 40
0.0
 40
0.0
 40
0.0012991315
 40
0.0021005961
 40
0.0030566319
 40
0.0055123783
 40
0.0087652432
 40
0.0128522012
 40
0.017788428
 40
0.023574443
 40
0.0302053402
 40
0.0459709293
 40
0.0650125236
 40
0.0872100983
 40
0.1124119029
 40
0.1711615886
 40
0.239668162
 40
0.3160758492
 40
0.3983140289
 40
0.4841660419
 40
0.5713470372
 40
0.6575550682
 40
0.7405460459
 40
0.8181738046
 40
0.8884384032
 40
0.9495902592
 40
1.0
 40
1.0
 40
1.0
 40
1.0
 10
4.8336607792
 20
3.1658413076
 30
0.0
 10
4.8336608497
 20
3.1658158349
 30
0.0
 10
4.8336784993
 20
3.1657745968
 30
0.0
 10
4.8337215014
 20
3.1657328035
 30
0.0
 10
4.8337899511
 20
3.165685809
 30
0.0
 10
4.8339109851
 20
3.165634286
 30
0.0
 10
4.8340957447
 20
3.165581323
 30
0.0
 10
4.8343319301
 20
3.1655337497
 30
0.0
 10
4.8346192928
 20
3.1654915766
 30
0.0
 10
4.8349576415
 20
3.1654549989
 30
0.0
 10
4.8355085542
 20
3.1654113256
 30
0.0
 10
4.8363204413
 20
3.1653748689
 30
0.0
 10
4.8374380811
 20
3.1653559855
 30
0.0
 10
4.8387408912
 20
3.1653605536
 30
0.0
 10
4.8408218926
 20
3.1654002201
 30
0.0
 10
4.8438092853
 20
3.1655144837
 30
0.0
 10
4.8477966658
 20
3.1657349487
 30
0.0
 10
4.8522400553
 20
3.1660425926
 30
0.0
 10
4.8570183272
 20
3.1664318861
 30
0.0
 10
4.8620021411
 20
3.166895641
 30
0.0
 10
4.8670577145
 20
3.1674247947
 30
0.0
 10
4.8720507929
 20
3.1680087385
 30
0.0
 10
4.8768499367
 20
3.1686349479
 30
0.0
 10
4.8813296607
 20
3.1692891623
 30
0.0
 10
4.8853743045
 20
3.1699554807
 30
0.0
 10
4.8888779624
 20
3.170616393
 30
0.0
 10
4.89101475
 20
3.1710877675
 30
0.0
 10
4.8919739033
 20
3.1713264704
 30
0.0
  0
LINE
  5
319
100
AcDbEntity
  8
0
100
AcDbLine
 62
7
  6
CONTINUOUS
 10
5.2012609631
 20
3.1710272962
 11
5.2304153727
 21
3.1672028281
  0
SPLINE
  5
31A
100
AcDbEntity
  8
0
100
AcDbSpline
 62
7
  6
CONTINUOUS
 70
0
 71
3
 72
10
 73
6
 74
0
 42
0.0000001
 43
0.0000001
 44
0.0000000001
 40
0.0
 40
0.0
 40
0.0
 40
0.0
 40
0.3346863283
 40
0.6447905524
 40
1.0
 40
1.0
 40
1.0
 40
1.0
 10
5.097663825
 20
3.1851287557
 30
0.0
 10
5.1011025729
 20
3.1844694831
 30
0.0
 10
5.1077512165
 20
3.1833226591
 30
0.0
 10
5.1180974782
 20
3.1817709167
 30
0.0
 10
5.124996725
 20
3.1808486372
 30
0.0
 10
5.1286830021
 20
3.1803789364
 30
0.0
  0
SPLINE
  5
31B
100
AcDbEntity
  8
0
100
AcDbSpline
 62
7
  6
CONTINUOUS
 70
0
 71
3
 72
17
 73
13
 74
0
 42
0.0000001
 43
0.0000001
 44
0.0000000001
 40
0.0
 40
0.0
 40
0.0
 40
0.0
 40
0.027530573
 40
0.0568670758
 40
0.0893464869
 40
0.1259467413
 40
0.2138755318
 40
0.3239526747
 40
0.4575625412
 40
0.614999124
 40
0.7959767485
 40
1.0
 40
1.0
 40
1.0
 40
1.0
 10
5.0467368335
 20
3.1825340155
 30
0.0
 10
5.0467367828
 20
3.1824891291
 30
0.0
 10
5.0467487701
 20
3.1823960488
 30
0.0
 10
5.0468014158
 20
3.1822590475
 30
0.0
 10
5.0468876165
 20
3.182122718
 30
0.0
 10
5.0470569787
 20
3.1819297135
 30
0.0
 10
5.0473607059
 20
3.1816926699
 30
0.0
 10
5.047830946
 20
3.1814241325
 30
0.0
 10
5.0484283985
 20
3.1811561084
 30
0.0
 10
5.0491507171
 20
3.1808894246
 30
0.0
 10
5.0499950076
 20
3.1806251336
 30
0.0
 10
5.0506010521
 20
3.1804610811
 30
0.0
 10
5.0509233935
 20
3.1803789364
 30
0.0
  0
SPLINE
  5
31C
100
AcDbEntity
  8
0
100
AcDbSpline
 62
7
  6
CONTINUOUS
 70
0
 71
3
 72
16
 73
12
 74
0
 42
0.0000001
 43
0.0000001
 44
0.0000000001
 40
0.0
 40
0.0
 40
0.0
 40
0.0
 40
0.0467578349
 40
0.098258398
 40
0.2136321391
 40
0.341868317
 40
0.4780939149
 40
0.6171261175
 40
0.7537522371
 40
0.8829462519
 40
1.0
 40
1.0
 40
1.0
 40
1.0
 10
5.0007758927
 20
3.1797479033
 30
0.0
 10
5.000096241
 20
3.1798181144
 30
0.0
 10
4.9986651218
 20
3.1799383865
 30
0.0
 10
4.9955474719
 20
3.1801058297
 30
0.0
 10
4.9912335581
 20
3.1801611573
 30
0.0
 10
4.985684104
 20
3.180005799
 30
0.0
 10
4.9797980238
 20
3.179644603
 30
0.0
 10
4.9738021182
 20
3.1791129945
 30
0.0
 10
4.9679222146
 20
3.1784554533
 30
0.0
 10
4.9623759269
 20
3.1777166827
 30
0.0
 10
4.9588198096
 20
3.1771638924
 30
0.0
 10
4.9571335252
 20
3.1768771059
 30
0.0
  0
SPLINE
  5
31D
100
AcDbEntity
  8
0
100
AcDbSpline
 62
7
  6
CONTINUOUS
 70
0
 71
3
 72
32
 73
28
 74
0
 42
0.0000001
 43
0.0000001
 44
0.0000000001
 40
0.0
 40
0.0
 40
0.0
 40
0.0
 40
0.0106084819
 40
0.0149629302
 40
0.0200998086
 40
0.0260357942
 40
0.0327766066
 40
0.0403224208
 40
0.0486700473
 40
0.0677451608
 40
0.089910596
 40
0.1150320464
 40
0.1429654791
 40
0.1735317131
 40
0.2065254732
 40
0.2417371494
 40
0.3178512432
 40
0.3998371775
 40
0.4854875321
 40
0.5725061855
 40
0.6585647966
 40
0.7413882444
 40
0.8188082331
 40
0.8888248242
 40
0.9497298845
 40
0.9762835177
 40
1.0
 40
1.0
 40
1.0
 40
1.0
 10
4.9453442181
 20
3.1785113115
 30
0.0
 10
4.9453445554
 20
3.1783032246
 30
0.0
 10
4.9456566796
 20
3.178084363
 30
0.0
 10
4.9460044317
 20
3.1779322989
 30
0.0
 10
4.9462931958
 20
3.1778304164
 30
0.0
 10
4.9466283909
 20
3.1777351663
 30
0.0
 10
4.9470147923
 20
3.1776434983
 30
0.0
 10
4.9474501359
 20
3.1775565612
 30
0.0
 10
4.9481264542
 20
3.1774415263
 30
0.0
 10
4.9490909505
 20
3.1773135073
 30
0.0
 10
4.9503864071
 20
3.1771845727
 30
0.0
 10
4.9518579284
 20
3.1770751528
 30
0.0
 10
4.9534958246
 20
3.1769858893
 30
0.0
 10
4.9552892328
 20
3.1769171761
 30
0.0
 10
4.9572261149
 20
3.1768692483
 30
0.0
 10
4.960056783
 20
3.1768326169
 30
0.0
 10
4.9638488633
 20
3.1768435783
 30
0.0
 10
4.9686293058
 20
3.1769392708
 30
0.0
 10
4.973621439
 20
3.1771170708
 30
0.0
 10
4.9786900835
 20
3.1773746307
 30
0.0
 10
4.9836987401
 20
3.1777084085
 30
0.0
 10
4.9885132541
 20
3.1781134969
 30
0.0
 10
4.9930057496
 20
3.1785833188
 30
0.0
 10
4.9970587241
 20
3.1791103865
 30
0.0
 10
5.0001081511
 20
3.1796088258
 30
0.0
 10
5.0022459978
 20
3.1800402196
 30
0.0
 10
5.0032065565
 20
3.1802640569
 30
0.0
 10
5.0036573518
 20
3.1803789364
 30
0.0
  0
SPLINE
  5
31E
100
AcDbEntity
  8
0
100
AcDbSpline
 62
7
  6
CONTINUOUS
 70
0
 71
3
 72
25
 73
21
 74
0
 42
0.0000001
 43
0.0000001
 44
0.0000000001
 40
0.0
 40
0.0
 40
0.0
 40
0.0
 40
0.0031671074
 40
0.0053216983
 40
0.0079590186
 40
0.0148159102
 40
0.0238850502
 40
0.035199262
 40
0.0487589726
 40
0.0645508729
 40
0.0825533011
 40
0.125014658
 40
0.1757343216
 40
0.2342552582
 40
0.3000016506
 40
0.3723539047
 40
0.4506249675
 40
0.6218466761
 40
0.8073478321
 40
1.0
 40
1.0
 40
1.0
 40
1.0
 10
5.2209198448
 20
3.165841315
 30
0.0
 10
5.2209198482
 20
3.1658749372
 30
0.0
 10
5.2208913265
 20
3.1659297504
 30
0.0
 10
5.2208319835
 20
3.1659889785
 30
0.0
 10
5.220733091
 20
3.1660643041
 30
0.0
 10
5.2205594371
 20
3.1661586913
 30
0.0
 10
5.2202935372
 20
3.1662728513
 30
0.0
 10
5.2199541718
 20
3.1663945079
 30
0.0
 10
5.2195421554
 20
3.1665236484
 30
0.0
 10
5.2190581636
 20
3.1666597775
 30
0.0
 10
5.2182741036
 20
3.1668614573
 30
0.0
 10
5.2171233416
 20
3.1671248149
 30
0.0
 10
5.2155459239
 20
3.1674497897
 30
0.0
 10
5.2137206395
 20
3.1677955103
 30
0.0
 10
5.2116652476
 20
3.1681594287
 30
0.0
 10
5.2093997156
 20
3.1685384726
 30
0.0
 10
5.2060255248
 20
3.1690760813
 30
0.0
 10
5.2014580035
 20
3.1697572706
 30
0.0
 10
5.1956810943
 20
3.1705589625
 30
0.0
 10
5.1916996898
 20
3.1710739245
 30
0.0
 10
5.1896701359
 20
3.1713264704
 30
0.0
  0
SPLINE
  5
31F
100
AcDbEntity
  8
0
100
AcDbSpline
 62
7
  6
CONTINUOUS
 70
0
 71
3
 72
20
 73
16
 74
0
 42
0.0000001
 43
0.0000001
 44
0.0000000001
 40
0.0
 40
0.0
 40
0.0
 40
0.0
 40
0.0320446778
 40
0.0437269913
 40
0.0571151948
 40
0.0892175233
 40
0.1286143414
 40
0.1753460233
 40
0.229295643
 40
0.2902912105
 40
0.3581366556
 40
0.4325913455
 40
0.6001670046
 40
0.790492593
 40
1.0
 40
1.0
 40
1.0
 40
1.0
 10
5.152290146
 20
3.1672028441
 30
0.0
 10
5.1522903022
 20
3.1673779985
 30
0.0
 10
5.1521087591
 20
3.1675931359
 30
0.0
 10
5.1518660541
 20
3.1677802065
 30
0.0
 10
5.1516024569
 20
3.167951525
 30
0.0
 10
5.1511896862
 20
3.1681634855
 30
0.0
 10
5.1505929182
 20
3.1684133278
 30
0.0
 10
5.1498710163
 20
3.1686690357
 30
0.0
 10
5.1490265897
 20
3.1689303108
 30
0.0
 10
5.148063249
 20
3.1691957502
 30
0.0
 10
5.1469848792
 20
3.1694642723
 30
0.0
 10
5.1453331849
 20
3.1698398433
 30
0.0
 10
5.1430154012
 20
3.1703031377
 30
0.0
 10
5.1399595218
 20
3.170834006
 30
0.0
 10
5.1377988876
 20
3.1711636022
 30
0.0
 10
5.1366653727
 20
3.1713264704
 30
0.0
  0
SPLINE
  5
320
100
AcDbEntity
  8
0
100
AcDbSpline
 62
7
  6
CONTINUOUS
 70
0
 71
3
 72
17
 73
13
 74
0
 42
0.0000001
 43
0.0000001
 44
0.0000000001
 40
0.0
 40
0.0
 40
0.0
 40
0.0
 40
0.0277731589
 40
0.0572859606
 40
0.0898850524
 40
0.1265587203
 40
0.2145278043
 40
0.3245418046
 40
0.4580192162
 40
0.6153120305
 40
0.7961375463
 40
1.0
 40
1.0
 40
1.0
 40
1.0
 10
5.0585401598
 20
3.1691806547
 30
0.0
 10
5.0585402026
 20
3.1692259289
 30
0.0
 10
5.0585282703
 20
3.1693196748
 30
0.0
 10
5.0584757419
 20
3.1694576374
 30
0.0
 10
5.0583895865
 20
3.169594688
 30
0.0
 10
5.0582203523
 20
3.1697882666
 30
0.0
 10
5.0579166937
 20
3.1700254997
 30
0.0
 10
5.0574465054
 20
3.1702934667
 30
0.0
 10
5.0568491879
 20
3.170560204
 30
0.0
 10
5.0561268957
 20
3.170824605
 30
0.0
 10
5.0552824314
 20
3.1710853694
 30
0.0
 10
5.0546761548
 20
3.1712462133
 30
0.0
 10
5.0543536665
 20
3.1713264704
 30
0.0
  0
SPLINE
  5
321
100
AcDbEntity
  8
0
100
AcDbSpline
 62
7
  6
CONTINUOUS
 70
0
 71
3
 72
31
 73
27
 74
0
 42
0.0000001
 43
0.0000001
 44
0.0000000001
 40
0.0
 40
0.0
 40
0.0
 40
0.0
 40
0.0500789683
 40
0.1108091004
 40
0.1805855355
 40
0.2576729662
 40
0.3400856291
 40
0.4256897324
 40
0.5122493962
 40
0.5974583284
 40
0.6790228365
 40
0.7547325945
 40
0.8225667926
 40
0.8529815187
 40
0.8808012031
 40
0.9058632276
 40
0.9280440346
 40
0.9472332395
 40
0.9633681723
 40
0.9764545151
 40
0.9818817974
 40
0.9865964519
 40
0.9906517462
 40
0.9941345522
 40
0.997182635
 40
1.0
 40
1.0
 40
1.0
 40
1.0
 10
5.1050499813
 20
3.1803789364
 30
0.0
 10
5.1040908761
 20
3.1806233523
 30
0.0
 10
5.1019526455
 20
3.181100814
 30
0.0
 10
5.0984455002
 20
3.181764454
 30
0.0
 10
5.0943964311
 20
3.1824290263
 30
0.0
 10
5.089911087
 20
3.1830752014
 30
0.0
 10
5.0851044875
 20
3.1836799151
 30
0.0
 10
5.0801015926
 20
3.1842177957
 30
0.0
 10
5.0750339319
 20
3.1846618984
 30
0.0
 10
5.0700370099
 20
3.1849851015
 30
0.0
 10
5.0652472793
 20
3.1851659638
 30
0.0
 10
5.0607974664
 20
3.1851900031
 30
0.0
 10
5.0573600049
 20
3.1850759653
 30
0.0
 10
5.0548743328
 20
3.184900259
 30
0.0
 10
5.053235767
 20
3.1847386939
 30
0.0
 10
5.0517645834
 20
3.1845452555
 30
0.0
 10
5.0504700627
 20
3.184323776
 30
0.0
 10
5.0493597844
 20
3.1840778767
 30
0.0
 10
5.0484403078
 20
3.1838109766
 30
0.0
 10
5.0478005939
 20
3.1835615325
 30
0.0
 10
5.0473939627
 20
3.1833473381
 30
0.0
 10
5.0471588366
 20
3.1831932026
 30
0.0
 10
5.0469739564
 20
3.1830355045
 30
0.0
 10
5.0468393388
 20
3.1828735328
 30
0.0
 10
5.0467560973
 20
3.1827062764
 30
0.0
 10
5.0467368965
 20
3.1825896977
 30
0.0
 10
5.0467368335
 20
3.1825340155
 30
0.0
  0
SPLINE
  5
322
100
AcDbEntity
  8
0
100
AcDbSpline
 62
7
  6
CONTINUOUS
 70
0
 71
3
 72
13
 73
9
 74
0
 42
0.0000001
 43
0.0000001
 44
0.0000000001
 40
0.0
 40
0.0
 40
0.0
 40
0.0
 40
0.0849958418
 40
0.1850950762
 40
0.298706502
 40
0.4241057648
 40
0.7018733445
 40
1.0
 40
1.0
 40
1.0
 40
1.0
 10
5.0543536665
 20
3.1713264704
 30
0.0
 10
5.053605379
 20
3.1715126956
 30
0.0
 10
5.0519618103
 20
3.1718618699
 30
0.0
 10
5.0492882231
 20
3.1723076977
 30
0.0
 10
5.046237307
 20
3.1727081138
 30
0.0
 10
5.0415725841
 20
3.1731836464
 30
0.0
 10
5.0352203748
 20
3.173584711
 30
0.0
 10
5.0299950827
 20
3.1736921553
 30
0.0
 10
5.0272903727
 20
3.1736921553
 30
0.0
  0
SPLINE
  5
323
100
AcDbEntity
  8
0
100
AcDbSpline
 62
7
  6
CONTINUOUS
 70
0
 71
3
 72
32
 73
28
 74
0
 42
0.0000001
 43
0.0000001
 44
0.0000000001
 40
0.0
 40
0.0
 40
0.0
 40
0.0
 40
0.0016889657
 40
0.0037082394
 40
0.0063328598
 40
0.009691392
 40
0.0138440455
 40
0.0188197758
 40
0.0246276526
 40
0.0312682549
 40
0.0470302431
 40
0.0660537151
 40
0.0882289237
 40
0.1134088827
 40
0.1414379281
 40
0.1721231522
 40
0.2052489641
 40
0.2405951284
 40
0.3169520109
 40
0.3991141954
 40
0.484871179
 40
0.5719540676
 40
0.741011356
 40
0.8185953921
 40
0.8888004467
 40
0.9498295453
 40
1.0
 40
1.0
 40
1.0
 40
1.0
 10
4.8961604407
 20
3.1730326912
 30
0.0
 10
4.8961603715
 20
3.173065864
 30
0.0
 10
4.8961382676
 20
3.1731394084
 30
0.0
 10
4.8960493403
 20
3.1732302754
 30
0.0
 10
4.8959132641
 20
3.1733105904
 30
0.0
 10
4.8957273592
 20
3.173383403
 30
0.0
 10
4.8954907855
 20
3.1734490427
 30
0.0
 10
4.8952030766
 20
3.1735072759
 30
0.0
 10
4.8948645157
 20
3.17355797
 30
0.0
 10
4.8943136612
 20
3.1736186555
 30
0.0
 10
4.8935012236
 20
3.1736696999
 30
0.0
 10
4.8923826132
 20
3.1736961167
 30
0.0
 10
4.8910787431
 20
3.1736896116
 30
0.0
 10
4.8895985599
 20
3.1736503093
 30
0.0
 10
4.8879523116
 20
3.1735780646
 30
0.0
 10
4.8861514495
 20
3.1734738289
 30
0.0
 10
4.8842085473
 20
3.1733388949
 30
0.0
 10
4.8813728514
 20
3.1731137721
 30
0.0
 10
4.8775810852
 20
3.1727640602
 30
0.0
 10
4.8728093689
 20
3.1722633983
 30
0.0
 10
4.8678336708
 20
3.1716905013
 30
0.0
 10
4.861169401
 20
3.170864677
 30
0.0
 10
4.8546736701
 20
3.1699850705
 30
0.0
 10
4.8485179418
 20
3.1690709005
 30
0.0
 10
4.8444673253
 20
3.1684267934
 30
0.0
 10
4.8409563858
 20
3.167819628
 30
0.0
 10
4.8388114234
 20
3.167406552
 30
0.0
 10
4.8378473156
 20
3.1672028281
 30
0.0
  0
SPLINE
  5
324
100
AcDbEntity
  8
0
100
AcDbSpline
 62
7
  6
CONTINUOUS
 70
0
 71
3
 72
42
 73
38
 74
0
 42
0.0000001
 43
0.0000001
 44
0.0000000001
 40
0.0
 40
0.0
 40
0.0
 40
0.0
 40
0.0029983166
 40
0.0063694698
 40
0.0104191394
 40
0.0153243911
 40
0.0211824281
 40
0.0280454944
 40
0.0359347231
 40
0.044856064
 40
0.0657796489
 40
0.0907359426
 40
0.1195339898
 40
0.151946824
 40
0.1876860668
 40
0.2264183849
 40
0.2677863911
 40
0.3113834827
 40
0.403563717
 40
0.4993770417
 40
0.5951273024
 40
0.6871788112
 40
0.7720958059
 40
0.8108871132
 40
0.8467592921
 40
0.8793837856
 40
0.9084695964
 40
0.933771327
 40
0.9550710089
 40
0.9641770885
 40
0.9722385001
 40
0.9792502262
 40
0.9852181644
 40
0.9901723009
 40
0.9941767623
 40
0.9973630447
 40
1.0
 40
1.0
 40
1.0
 40
1.0
 10
4.9647903727
 20
3.1713264704
 30
0.0
 10
4.9647903727
 20
3.1713903917
 30
0.0
 10
4.9647613131
 20
3.1715272379
 30
0.0
 10
4.9646385518
 20
3.1717163533
 30
0.0
 10
4.9644439384
 20
3.1718955703
 30
0.0
 10
4.9641779971
 20
3.1720677395
 30
0.0
 10
4.9638401652
 20
3.1722336791
 30
0.0
 10
4.9634302967
 20
3.1723931026
 30
0.0
 10
4.9629489607
 20
3.1725457487
 30
0.0
 10
4.9621707209
 20
3.1727504507
 30
0.0
 10
4.9610237165
 20
3.1729777173
 30
0.0
 10
4.9594473184
 20
3.1732036659
 30
0.0
 10
4.957619506
 20
3.1733912899
 30
0.0
 10
4.9555574606
 20
3.1735365863
 30
0.0
 10
4.9532807828
 20
3.1736370835
 30
0.0
 10
4.9508116039
 20
3.1736909449
 30
0.0
 10
4.9481743474
 20
3.1736966272
 30
0.0
 10
4.9443980578
 20
3.173639387
 30
0.0
 10
4.9394637676
 20
3.1734460747
 30
0.0
 10
4.9334270936
 20
3.1730486089
 30
0.0
 10
4.9274045329
 20
3.1725056858
 30
0.0
 10
4.9216271459
 20
3.1718488868
 30
0.0
 10
4.9170701388
 20
3.1712185427
 30
0.0
 10
4.9137111074
 20
3.1706781403
 30
0.0
 10
4.9114590139
 20
3.1702778006
 30
0.0
 10
4.9094180023
 20
3.1698743138
 30
0.0
 10
4.9076069566
 20
3.1694717509
 30
0.0
 10
4.9060428418
 20
3.1690742526
 30
0.0
 10
4.9049040215
 20
3.1687351727
 30
0.0
 10
4.9041299413
 20
3.168463886
 30
0.0
 10
4.903650345
 20
3.1682744845
 30
0.0
 10
4.9032417181
 20
3.1680888212
 30
0.0
 10
4.9029048932
 20
3.1679070969
 30
0.0
 10
4.9026398828
 20
3.1677296825
 30
0.0
 10
4.9024463171
 20
3.1675558948
 30
0.0
 10
4.9023227334
 20
3.1673835506
 30
0.0
 10
4.9022903727
 20
3.1672590455
 30
0.0
 10
4.9022903727
 20
3.1672028281
 30
0.0
  0
SPLINE
  5
325
100
AcDbEntity
  8
0
100
AcDbSpline
 62
7
  6
CONTINUOUS
 70
0
 71
3
 72
28
 73
24
 74
0
 42
0.0000001
 43
0.0000001
 44
0.0000000001
 40
0.0
 40
0.0
 40
0.0
 40
0.0
 40
0.1592011567
 40
0.3298496648
 40
0.4159282114
 40
0.500547473
 40
0.5822467275
 40
0.6596119288
 40
0.7313242849
 40
0.7961589879
 40
0.8530707787
 40
0.8782659195
 40
0.9011661972
 40
0.9217013239
 40
0.9398083501
 40
0.955449393
 40
0.968632321
 40
0.9794076706
 40
0.9879123226
 40
0.9914186271
 40
0.9945202154
 40
0.9973303746
 40
1.0
 40
1.0
 40
1.0
 40
1.0
 10
5.1366653727
 20
3.1713264704
 30
0.0
 10
5.1341678621
 20
3.1716853234
 30
0.0
 10
5.1289792118
 20
3.1723323916
 30
0.0
 10
5.1224149208
 20
3.1729478145
 30
0.0
 10
5.1170177803
 20
3.1733232074
 30
0.0
 10
5.1130227928
 20
3.1735318052
 30
0.0
 10
5.1091625806
 20
3.1736607903
 30
0.0
 10
5.1055050123
 20
3.1737061575
 30
0.0
 10
5.1021145686
 20
3.1736673161
 30
0.0
 10
5.0990504632
 20
3.1735451769
 30
0.0
 10
5.0967272936
 20
3.1733724583
 30
0.0
 10
5.095072919
 20
3.1731899448
 30
0.0
 10
5.0939952623
 20
3.1730411561
 30
0.0
 10
5.0930337266
 20
3.1728761897
 30
0.0
 10
5.0921921145
 20
3.1726961845
 30
0.0
 10
5.0914736067
 20
3.1725023279
 30
0.0
 10
5.0908799414
 20
3.1722961125
 30
0.0
 10
5.0904125771
 20
3.1720790233
 30
0.0
 10
5.0901093543
 20
3.1718773042
 30
0.0
 10
5.0899404723
 20
3.1717062153
 30
0.0
 10
5.0898547536
 20
3.1715828748
 30
0.0
 10
5.0898023985
 20
3.1714560285
 30
0.0
 10
5.089790615
 20
3.1713687848
 30
0.0
 10
5.089790584
 20
3.1713264742
 30
0.0
  0
SPLINE
  5
326
100
AcDbEntity
  8
0
100
AcDbSpline
 62
7
  6
CONTINUOUS
 70
0
 71
3
 72
28
 73
24
 74
0
 42
0.0000001
 43
0.0000001
 44
0.0000000001
 40
0.0
 40
0.0
 40
0.0
 40
0.0
 40
0.193756814
 40
0.3802902655
 40
0.4685196613
 40
0.5522759414
 40
0.6307469334
 40
0.7031331878
 40
0.7687271536
 40
0.8268953331
 40
0.8770664647
 40
0.8990187845
 40
0.9188169489
 40
0.9364162519
 40
0.9517894123
 40
0.9649319071
 40
0.9758539068
 40
0.9845936565
 40
0.991254928
 40
0.9938908016
 40
0.9961452782
 40
0.9981288419
 40
1.0
 40
1.0
 40
1.0
 40
1.0
 10
5.1896701359
 20
3.1713264704
 30
0.0
 10
5.187648507
 20
3.1715780302
 30
0.0
 10
5.1836782113
 20
3.1720526703
 30
0.0
 10
5.1787804982
 20
3.1725827268
 30
0.0
 10
5.1750285131
 20
3.1729469266
 30
0.0
 10
5.1724053342
 20
3.1731789169
 30
0.0
 10
5.1699460274
 20
3.1733716865
 30
0.0
 10
5.1676750876
 20
3.1735218996
 30
0.0
 10
5.1656153181
 20
3.1736273269
 30
0.0
 10
5.1637873683
 20
3.1736865175
 30
0.0
 10
5.1624172495
 20
3.1736970529
 30
0.0
 10
5.1614508776
 20
3.173678597
 30
0.0
 10
5.1608273015
 20
3.1736535126
 30
0.0
 10
5.1602736021
 20
3.1736166929
 30
0.0
 10
5.1597910247
 20
3.1735683204
 30
0.0
 10
5.1593805122
 20
3.1735088467
 30
0.0
 10
5.1590423878
 20
3.1734387526
 30
0.0
 10
5.1587772387
 20
3.173358504
 30
0.0
 10
5.1586037329
 20
3.1732780967
 30
0.0
 10
5.1585062702
 20
3.1732047861
 30
0.0
 10
5.1584572821
 20
3.1731508578
 30
0.0
 10
5.1584270835
 20
3.173093186
 30
0.0
 10
5.1584204237
 20
3.1730523512
 30
0.0
 10
5.1584204217
 20
3.1730326773
 30
0.0
  0
SPLINE
  5
327
100
AcDbEntity
  8
0
100
AcDbSpline
 62
7
  6
CONTINUOUS
 70
0
 71
3
 72
25
 73
21
 74
0
 42
0.0000001
 43
0.0000001
 44
0.0000000001
 40
0.0
 40
0.0
 40
0.0
 40
0.0
 40
0.1907990942
 40
0.3742753708
 40
0.4610050789
 40
0.5433290445
 40
0.6204917634
 40
0.6917690558
 40
0.7565533672
 40
0.814284829
 40
0.8645108456
 40
0.9068847303
 40
0.9250518701
 40
0.9411967261
 40
0.9553350298
 40
0.9675076676
 40
0.9778007925
 40
0.9863922618
 40
0.993608897
 40
1.0
 40
1.0
 40
1.0
 40
1.0
 10
5.0272903727
 20
3.1736921553
 30
0.0
 10
5.0252483415
 20
3.1736921553
 30
0.0
 10
5.0212423888
 20
3.1736296468
 30
0.0
 10
5.0163130458
 20
3.1733958736
 30
0.0
 10
5.0125501779
 20
3.1731176066
 30
0.0
 10
5.009926137
 20
3.1728742234
 30
0.0
 10
5.007471861
 20
3.1725964745
 30
0.0
 10
5.0052105248
 20
3.1722880876
 30
0.0
 10
5.0031632909
 20
3.1719538136
 30
0.0
 10
5.0013486186
 20
3.1715982012
 30
0.0
 10
4.9997829257
 20
3.1712258159
 30
0.0
 10
4.9986446337
 20
3.170891161
 30
0.0
 10
4.9978725028
 20
3.170612181
 30
0.0
 10
4.9973937891
 20
3.1704122187
 30
0.0
 10
4.9969858653
 20
3.1702112132
 30
0.0
 10
4.9966493287
 20
3.1700095406
 30
0.0
 10
4.9963844306
 20
3.1698071829
 30
0.0
 10
4.9961911158
 20
3.1696032219
 30
0.0
 10
4.9960699192
 20
3.1693955109
 30
0.0
 10
4.9960406482
 20
3.1692490585
 30
0.0
 10
4.9960405837
 20
3.1691806577
 30
0.0
  0
SPLINE
  5
328
100
AcDbEntity
  8
0
100
AcDbSpline
 62
7
  6
CONTINUOUS
 70
0
 71
3
 72
17
 73
13
 74
0
 42
0.0000001
 43
0.0000001
 44
0.0000000001
 40
0.0
 40
0.0
 40
0.0
 40
0.0
 40
0.0217470375
 40
0.0461735323
 40
0.074833212
 40
0.1086768158
 40
0.1938516568
 40
0.304086005
 40
0.4401519453
 40
0.6019141934
 40
0.7887732353
 40
1.0
 40
1.0
 40
1.0
 40
1.0
 10
5.1092365245
 20
3.1785113117
 30
0.0
 10
5.1092365795
 20
3.1785454584
 30
0.0
 10
5.1092236545
 20
3.1786183155
 30
0.0
 10
5.1091696807
 20
3.1787240022
 30
0.0
 10
5.1090829127
 20
3.1788303079
 30
0.0
 10
5.1089103038
 20
3.1789860599
 30
0.0
 10
5.1086047439
 20
3.1791800048
 30
0.0
 10
5.1081360528
 20
3.1794071677
 30
0.0
 10
5.1075396581
 20
3.1796427699
 30
0.0
 10
5.1068183867
 20
3.1798861603
 30
0.0
 10
5.1059754782
 20
3.180136238
 30
0.0
 10
5.1053713736
 20
3.1802970336
 30
0.0
 10
5.1050499813
 20
3.1803789364
 30
0.0
  0
SPLINE
  5
329
100
AcDbEntity
  8
0
100
AcDbSpline
 62
7
  6
CONTINUOUS
 70
0
 71
3
 72
17
 73
13
 74
0
 42
0.0000001
 43
0.0000001
 44
0.0000000001
 40
0.0
 40
0.0
 40
0.0
 40
0.0
 40
0.2112252055
 40
0.3980832592
 40
0.5598453324
 40
0.6959120598
 40
0.8061470276
 40
0.8913222663
 40
0.9251661086
 40
0.9538260847
 40
0.9782528883
 40
1.0
 40
1.0
 40
1.0
 40
1.0
 10
4.9495307641
 20
3.1803789364
 30
0.0
 10
4.9492093741
 20
3.1802970342
 30
0.0
 10
4.9486052732
 20
3.1801362396
 30
0.0
 10
4.9477623686
 20
3.1798861632
 30
0.0
 10
4.9470410976
 20
3.179642773
 30
0.0
 10
4.9464447006
 20
3.1794071712
 30
0.0
 10
4.9459760065
 20
3.1791800075
 30
0.0
 10
4.9456704451
 20
3.1789860613
 30
0.0
 10
4.9454978346
 20
3.1788303088
 30
0.0
 10
4.9454110654
 20
3.1787240025
 30
0.0
 10
4.9453570885
 20
3.1786183162
 30
0.0
 10
4.9453441627
 20
3.1785454583
 30
0.0
 10
4.9453442181
 20
3.1785113115
 30
0.0
  0
SPLINE
  5
32A
100
AcDbEntity
  8
0
100
AcDbSpline
 62
7
  6
CONTINUOUS
 70
0
 71
3
 72
31
 73
27
 74
0
 42
0.0000001
 43
0.0000001
 44
0.0000000001
 40
0.0
 40
0.0
 40
0.0
 40
0.0
 40
0.0028173912
 40
0.0058655164
 40
0.0093483779
 40
0.0134037326
 40
0.0181184424
 40
0.0235458176
 40
0.0366325491
 40
0.0527679418
 40
0.0719575654
 40
0.0941391668
 40
0.1192019731
 40
0.1470221792
 40
0.1774378016
 40
0.245273017
 40
0.320983497
 40
0.4025475569
 40
0.4877554864
 40
0.5743137056
 40
0.659916381
 40
0.7423279635
 40
0.8194147577
 40
0.8891909228
 40
0.9499209932
 40
1.0
 40
1.0
 40
1.0
 40
1.0
 10
5.007843912
 20
3.1825340155
 30
0.0
 10
5.0078438488
 20
3.1825896982
 30
0.0
 10
5.0078246467
 20
3.1827062782
 30
0.0
 10
5.0077414024
 20
3.1828735359
 30
0.0
 10
5.0076067817
 20
3.183035509
 30
0.0
 10
5.0074218983
 20
3.1831932086
 30
0.0
 10
5.0071867687
 20
3.1833473463
 30
0.0
 10
5.0067801273
 20
3.1835615442
 30
0.0
 10
5.0061403942
 20
3.1838109902
 30
0.0
 10
5.0052208926
 20
3.184077894
 30
0.0
 10
5.0041105815
 20
3.1843237979
 30
0.0
 10
5.0028160201
 20
3.1845452737
 30
0.0
 10
5.0013447949
 20
3.1847387129
 30
0.0
 10
4.9997061861
 20
3.184900285
 30
0.0
 10
4.997220464
 20
3.1850759654
 30
0.0
 10
4.9937829515
 20
3.1851900264
 30
0.0
 10
4.9893331129
 20
3.1851659418
 30
0.0
 10
4.984543397
 20
3.1849850886
 30
0.0
 10
4.9795465327
 20
3.1846618774
 30
0.0
 10
4.9744789492
 20
3.1842177739
 30
0.0
 10
4.9694761322
 20
3.1836799004
 30
0.0
 10
4.9646695948
 20
3.1830751921
 30
0.0
 10
4.9601842897
 20
3.1824290224
 30
0.0
 10
4.9561352396
 20
3.1817644529
 30
0.0
 10
4.9526281001
 20
3.1811008141
 30
0.0
 10
4.95048987
 20
3.1806233525
 30
0.0
 10
4.9495307641
 20
3.1803789364
 30
0.0
  0
SPLINE
  5
32B
100
AcDbEntity
  8
0
100
AcDbSpline
 62
7
  6
CONTINUOUS
 70
0
 71
3
 72
16
 73
12
 74
0
 42
0.0000001
 43
0.0000001
 44
0.0000000001
 40
0.0
 40
0.0
 40
0.0
 40
0.0
 40
0.4143566992
 40
0.5813512683
 40
0.7203793545
 40
0.8309204843
 40
0.8755420968
 40
0.9131430417
 40
0.9438754937
 40
0.9680590154
 40
1.0
 40
1.0
 40
1.0
 40
1.0
 10
4.8378473156
 20
3.1672028281
 30
0.0
 10
4.8372439244
 20
3.1670753266
 30
0.0
 10
4.8363990766
 20
3.166887277
 30
0.0
 10
4.835361266
 20
3.1666174456
 30
0.0
 10
4.8347664429
 20
3.1664420966
 30
0.0
 10
4.8343524167
 20
3.1662987496
 30
0.0
 10
4.8340877366
 20
3.1661873851
 30
0.0
 10
4.8339368342
 20
3.1661137339
 30
0.0
 10
4.8338176923
 20
3.1660424046
 30
0.0
 10
4.8337171341
 20
3.1659653235
 30
0.0
 10
4.8336606476
 20
3.1658888473
 30
0.0
 10
4.8336607792
 20
3.1658413076
 30
0.0
  0
LINE
  5
32C
100
AcDbEntity
  8
0
100
AcDbLine
 62
7
  6
CONTINUOUS
 10
5.0429445538
 20
3.1353962326
 11
5.0442805808
 21
3.1357974848
  0
LINE
  5
32D
100
AcDbEntity
  8
0
100
AcDbLine
 62
7
  6
CONTINUOUS
 10
5.0442805808
 20
3.1357974848
 11
5.0444070249
 21
3.1358635113
  0
LINE
  5
32E
100
AcDbEntity
  8
0
100
AcDbLine
 62
7
  6
CONTINUOUS
 10
5.0061024794
 20
3.1353962351
 11
5.0134461666
 21
3.1361921624
  0
SPLINE
  5
32F
100
AcDbEntity
  8
0
100
AcDbSpline
 62
7
  6
CONTINUOUS
 70
0
 71
3
 72
47
 73
43
 74
0
 42
0.0000001
 43
0.0000001
 44
0.0000000001
 40
0.0
 40
0.0
 40
0.0
 40
0.0
 40
0.0311842547
 40
0.0467882293
 40
0.0623901148
 40
0.093583364
 40
0.1247849087
 40
0.1403936752
 40
0.1560045218
 40
0.1716176961
 40
0.1872334087
 40
0.2184638223
 40
0.2497056484
 40
0.2809591278
 40
0.3122241183
 40
0.3434998481
 40
0.3747852531
 40
0.4060789627
 40
0.4373791274
 40
0.4530356882
 40
0.4686930881
 40
0.5
 40
0.5313069119
 40
0.5469643118
 40
0.5626208726
 40
0.5939210373
 40
0.6252147469
 40
0.6565001519
 40
0.6877758817
 40
0.7190408722
 40
0.7502943516
 40
0.7815361777
 40
0.8127665913
 40
0.8283823039
 40
0.8439954782
 40
0.8596063248
 40
0.8752150913
 40
0.906416636
 40
0.9376098852
 40
0.9532117707
 40
0.9688157453
 40
1.0
 40
1.0
 40
1.0
 40
1.0
 10
5.4335403727
 20
6.7498062923
 30
0.0
 10
5.4335403727
 20
6.7365693166
 30
0.0
 10
5.4325583793
 20
6.7166907769
 30
0.0
 10
5.4293051523
 20
6.690400573
 30
0.0
 10
5.4247581363
 20
6.6642968554
 30
0.0
 10
5.4166715171
 20
6.6321334449
 30
0.0
 10
5.40545788
 20
6.6009187724
 30
0.0
 10
5.3946832166
 20
6.5767023609
 30
0.0
 10
5.3857135541
 20
6.5589522814
 30
0.0
 10
5.3758814365
 20
6.5416616049
 30
0.0
 10
5.3616541229
 20
6.5192794357
 30
0.0
 10
5.3418253917
 20
6.4926453092
 30
0.0
 10
5.3150087764
 20
6.4631726585
 30
0.0
 10
5.2854212037
 20
6.436458236
 30
0.0
 10
5.2533478963
 20
6.4127623225
 30
0.0
 10
5.219097493
 20
6.3923129514
 30
0.0
 10
5.183000164
 20
6.3753056088
 30
0.0
 10
5.1454053666
 20
6.3619047088
 30
0.0
 10
5.1131217683
 20
6.3538507764
 30
0.0
 10
5.0869230853
 20
6.3493214738
 30
0.0
 10
5.0605310826
 20
6.3460794328
 30
0.0
 10
5.0272903727
 20
6.3444507598
 30
0.0
 10
4.9940496627
 20
6.3460794328
 30
0.0
 10
4.9676576601
 20
6.3493214738
 30
0.0
 10
4.941458977
 20
6.3538507764
 30
0.0
 10
4.9091753788
 20
6.3619047088
 30
0.0
 10
4.8715805813
 20
6.3753056088
 30
0.0
 10
4.8354832523
 20
6.3923129514
 30
0.0
 10
4.801232849
 20
6.4127623225
 30
0.0
 10
4.7691595416
 20
6.436458236
 30
0.0
 10
4.7395719689
 20
6.4631726585
 30
0.0
 10
4.7127553537
 20
6.4926453092
 30
0.0
 10
4.6929266224
 20
6.5192794357
 30
0.0
 10
4.6786993089
 20
6.5416616049
 30
0.0
 10
4.6688671913
 20
6.5589522814
 30
0.0
 10
4.6598975287
 20
6.5767023609
 30
0.0
 10
4.6491228654
 20
6.6009187724
 30
0.0
 10
4.6379092283
 20
6.6321334449
 30
0.0
 10
4.629822609
 20
6.6642968554
 30
0.0
 10
4.6252755931
 20
6.690400573
 30
0.0
 10
4.622022366
 20
6.7166907769
 30
0.0
 10
4.6210403727
 20
6.7365693166
 30
0.0
 10
4.6210403727
 20
6.7498062923
 30
0.0
  0
SPLINE
  5
330
100
AcDbEntity
  8
ALL_ASSEMBLY_MEMBERS
100
AcDbSpline
 62
7
  6
CONTINUOUS
 70
0
 71
3
 72
13
 73
9
 74
0
 42
0.0000001
 43
0.0000001
 44
0.0000000001
 40
0.0
 40
0.0
 40
0.0
 40
0.0
 40
0.3021335194
 40
0.5814681913
 40
0.7067037463
 40
0.8195409812
 40
0.9179789622
 40
1.0
 40
1.0
 40
1.0
 40
1.0
 10
4.6525498559
 20
6.6168226163
 30
0.0
 10
4.6529010145
 20
6.6158300661
 30
0.0
 10
4.653641614
 20
6.6139422148
 30
0.0
 10
4.6546957376
 20
6.6117137836
 30
0.0
 10
4.655569174
 20
6.610135863
 30
0.0
 10
4.6561871478
 20
6.6091384959
 30
0.0
 10
4.6567786046
 20
6.6083042543
 30
0.0
 10
4.6571843301
 20
6.6078218491
 30
0.0
 10
4.6573835665
 20
6.6076169194
 30
0.0
  0
SPLINE
  5
331
100
AcDbEntity
  8
ALL_ASSEMBLY_MEMBERS
100
AcDbSpline
 62
7
  6
CONTINUOUS
 70
0
 71
3
 72
33
 73
29
 74
0
 42
0.0000001
 43
0.0000001
 44
0.0000000001
 40
0.0
 40
0.0
 40
0.0
 40
0.0
 40
0.0312531385
 40
0.0625099015
 40
0.0937637712
 40
0.1250182817
 40
0.1874995121
 40
0.2499806944
 40
0.2812352411
 40
0.3124898385
 40
0.3437444805
 40
0.3749991799
 40
0.4062539577
 40
0.437508811
 40
0.4999909187
 40
0.5624734131
 40
0.5937287439
 40
0.6249841807
 40
0.6562397111
 40
0.6874953444
 40
0.7187510791
 40
0.7500068932
 40
0.81249093
 40
0.8749753
 40
0.9062314284
 40
0.9374869187
 40
0.9687452944
 40
1.0
 40
1.0
 40
1.0
 40
1.0
 10
4.6525498559
 20
6.6168226163
 30
0.0
 10
4.6499115686
 20
6.6242797399
 30
0.0
 10
4.6450790453
 20
6.6393564082
 30
0.0
 10
4.6391933009
 20
6.6623599462
 30
0.0
 10
4.6346910162
 20
6.6856758157
 30
0.0
 10
4.6305549251
 20
6.7170545071
 30
0.0
 10
4.6289097945
 20
6.7566586737
 30
0.0
 10
4.6319989024
 20
6.7961764071
 30
0.0
 10
4.6372772087
 20
6.8273835326
 30
0.0
 10
4.6426271563
 20
6.8505190614
 30
0.0
 10
4.6493484109
 20
6.8732933111
 30
0.0
 10
4.6574166486
 20
6.8956259618
 30
0.0
 10
4.6668038016
 20
6.9174379437
 30
0.0
 10
4.6810280736
 20
6.9457122762
 30
0.0
 10
4.7019372582
 20
6.9793879396
 30
0.0
 10
4.7267128522
 20
7.0103302018
 30
0.0
 10
4.7486256335
 20
7.0331692504
 30
0.0
 10
4.7660590757
 20
7.0492931426
 30
0.0
 10
4.7844232845
 20
7.0643473564
 30
0.0
 10
4.8036530738
 20
7.0782790622
 30
0.0
 10
4.8236808306
 20
7.0910385425
 30
0.0
 10
4.8513423912
 20
7.1064225411
 30
0.0
 10
4.8875692694
 20
7.1225145198
 30
0.0
 10
4.9254565017
 20
7.1341723749
 30
0.0
 10
4.9564196243
 20
7.1407386972
 30
0.0
 10
4.979903308
 20
7.1442707136
 30
0.0
 10
5.0035539396
 20
7.1463943848
 30
0.0
 10
5.0193799031
 20
7.1468671611
 30
0.0
 10
5.0272903727
 20
7.1468671611
 30
0.0
  0
SPLINE
  5
332
100
AcDbEntity
  8
ALL_ASSEMBLY_MEMBERS
100
AcDbSpline
 62
7
  6
CONTINUOUS
 70
0
 71
3
 72
19
 73
15
 74
0
 42
0.0000001
 43
0.0000001
 44
0.0000000001
 40
0.0
 40
0.0
 40
0.0
 40
0.0
 40
0.1866375518
 40
0.3663417975
 40
0.5316645784
 40
0.6768124354
 40
0.740373942
 40
0.7972648988
 40
0.8471837842
 40
0.8900402526
 40
0.9259098984
 40
0.9552460222
 40
0.9792069314
 40
1.0
 40
1.0
 40
1.0
 40
1.0
 10
5.0047903727
 20
6.352548208
 30
0.0
 10
5.0054448917
 20
6.3525111023
 30
0.0
 10
5.0067316085
 20
6.3524695882
 30
0.0
 10
5.0085996571
 20
6.3525020783
 30
0.0
 10
5.0103177516
 20
6.3526275336
 30
0.0
 10
5.011620477
 20
6.3528085954
 30
0.0
 10
5.0125341254
 20
6.3529989374
 30
0.0
 10
5.0131130445
 20
6.3531518648
 30
0.0
 10
5.013611827
 20
6.3533194669
 30
0.0
 10
5.0140270075
 20
6.3534995999
 30
0.0
 10
5.0143563522
 20
6.3536907441
 30
0.0
 10
5.0145983404
 20
6.3538928556
 30
0.0
 10
5.0147525573
 20
6.3541075892
 30
0.0
 10
5.0147903727
 20
6.3542659319
 30
0.0
 10
5.0147903727
 20
6.3543389681
 30
0.0
  0
SPLINE
  5
333
100
AcDbEntity
  8
ALL_ASSEMBLY_MEMBERS
100
AcDbSpline
 62
7
  6
CONTINUOUS
 70
0
 71
3
 72
13
 73
9
 74
0
 42
0.0000001
 43
0.0000001
 44
0.0000000001
 40
0.0
 40
0.0
 40
0.0
 40
0.0
 40
0.0784158484
 40
0.1738425299
 40
0.2848700389
 40
0.4096852556
 40
0.6920800557
 40
1.0
 40
1.0
 40
1.0
 40
1.0
 10
4.9629447995
 20
6.3585659126
 30
0.0
 10
4.9631514144
 20
6.358416382
 30
0.0
 10
4.9636370229
 20
6.3581232712
 30
0.0
 10
4.9644728074
 20
6.3577217147
 30
0.0
 10
4.9654754119
 20
6.3573249626
 30
0.0
 10
4.9670754184
 20
6.35679275
 30
0.0
 10
4.9693323292
 20
6.3562179805
 30
0.0
 10
4.9712247875
 20
6.3558832084
 30
0.0
 10
4.972216638
 20
6.3557444566
 30
0.0
  0
SPLINE
  5
334
100
AcDbEntity
  8
ALL_ASSEMBLY_MEMBERS
100
AcDbSpline
 62
7
  6
CONTINUOUS
 70
0
 71
3
 72
19
 73
15
 74
0
 42
0.0000001
 43
0.0000001
 44
0.0000000001
 40
0.0
 40
0.0
 40
0.0
 40
0.0
 40
0.0207930686
 40
0.0447539778
 40
0.0740901016
 40
0.1099597474
 40
0.1528162158
 40
0.2027351012
 40
0.259626058
 40
0.3231875646
 40
0.4683354216
 40
0.6336582025
 40
0.8133624482
 40
1.0
 40
1.0
 40
1.0
 40
1.0
 10
5.0397903727
 20
6.3543389681
 30
0.0
 10
5.0397903727
 20
6.3542659319
 30
0.0
 10
5.0398281881
 20
6.3541075892
 30
0.0
 10
5.0399824049
 20
6.3538928556
 30
0.0
 10
5.0402243931
 20
6.3536907441
 30
0.0
 10
5.0405537378
 20
6.3534995999
 30
0.0
 10
5.0409689184
 20
6.3533194669
 30
0.0
 10
5.0414677008
 20
6.3531518648
 30
0.0
 10
5.04204662
 20
6.3529989374
 30
0.0
 10
5.0429602684
 20
6.3528085954
 30
0.0
 10
5.0442629937
 20
6.3526275336
 30
0.0
 10
5.0459810882
 20
6.3525020783
 30
0.0
 10
5.0478491368
 20
6.3524695882
 30
0.0
 10
5.0491358536
 20
6.3525111023
 30
0.0
 10
5.0497903727
 20
6.352548208
 30
0.0
  0
SPLINE
  5
335
100
AcDbEntity
  8
ALL_ASSEMBLY_MEMBERS
100
AcDbSpline
 62
7
  6
CONTINUOUS
 70
0
 71
3
 72
33
 73
29
 74
0
 42
0.0000001
 43
0.0000001
 44
0.0000000001
 40
0.0
 40
0.0
 40
0.0
 40
0.0
 40
0.0312531385
 40
0.0625099015
 40
0.0937637712
 40
0.1250182817
 40
0.1874995121
 40
0.2499806944
 40
0.2812352411
 40
0.3124898385
 40
0.3437444805
 40
0.3749991799
 40
0.4062539577
 40
0.437508811
 40
0.4999909187
 40
0.5624734131
 40
0.5937287439
 40
0.6249841807
 40
0.6562397111
 40
0.6874953444
 40
0.7187510791
 40
0.7500068932
 40
0.81249093
 40
0.8749753
 40
0.9062314284
 40
0.9374869187
 40
0.9687452944
 40
1.0
 40
1.0
 40
1.0
 40
1.0
 10
5.4020308894
 20
6.6168226163
 30
0.0
 10
5.4046691768
 20
6.6242797399
 30
0.0
 10
5.4095017
 20
6.6393564082
 30
0.0
 10
5.4153874445
 20
6.6623599462
 30
0.0
 10
5.4198897291
 20
6.6856758157
 30
0.0
 10
5.4240258202
 20
6.7170545071
 30
0.0
 10
5.4256709509
 20
6.7566586737
 30
0.0
 10
5.422581843
 20
6.7961764071
 30
0.0
 10
5.4173035366
 20
6.8273835326
 30
0.0
 10
5.4119535891
 20
6.8505190614
 30
0.0
 10
5.4052323345
 20
6.8732933111
 30
0.0
 10
5.3971640968
 20
6.8956259618
 30
0.0
 10
5.3877769437
 20
6.9174379437
 30
0.0
 10
5.3735526717
 20
6.9457122762
 30
0.0
 10
5.3526434871
 20
6.9793879396
 30
0.0
 10
5.3278678932
 20
7.0103302018
 30
0.0
 10
5.3059551119
 20
7.0331692504
 30
0.0
 10
5.2885216697
 20
7.0492931426
 30
0.0
 10
5.2701574608
 20
7.0643473564
 30
0.0
 10
5.2509276715
 20
7.0782790622
 30
0.0
 10
5.2308999148
 20
7.0910385425
 30
0.0
 10
5.2032383541
 20
7.1064225411
 30
0.0
 10
5.167011476
 20
7.1225145198
 30
0.0
 10
5.1291242436
 20
7.1341723749
 30
0.0
 10
5.098161121
 20
7.1407386972
 30
0.0
 10
5.0746774373
 20
7.1442707136
 30
0.0
 10
5.0510268057
 20
7.1463943848
 30
0.0
 10
5.0352008422
 20
7.1468671611
 30
0.0
 10
5.0272903727
 20
7.1468671611
 30
0.0
  0
SPLINE
  5
336
100
AcDbEntity
  8
ALL_ASSEMBLY_MEMBERS
100
AcDbSpline
 62
7
  6
CONTINUOUS
 70
0
 71
3
 72
13
 73
9
 74
0
 42
0.0000001
 43
0.0000001
 44
0.0000000001
 40
0.0
 40
0.0
 40
0.0
 40
0.0
 40
0.0820210378
 40
0.1804590188
 40
0.2932962537
 40
0.4185318087
 40
0.6978664806
 40
1.0
 40
1.0
 40
1.0
 40
1.0
 10
5.3971971788
 20
6.6076169194
 30
0.0
 10
5.3973964153
 20
6.6078218491
 30
0.0
 10
5.3978021408
 20
6.6083042543
 30
0.0
 10
5.3983935975
 20
6.6091384959
 30
0.0
 10
5.3990115713
 20
6.610135863
 30
0.0
 10
5.3998850078
 20
6.6117137836
 30
0.0
 10
5.4009391314
 20
6.6139422148
 30
0.0
 10
5.4016797309
 20
6.6158300661
 30
0.0
 10
5.4020308894
 20
6.6168226163
 30
0.0
  0
SPLINE
  5
337
100
AcDbEntity
  8
ALL_ASSEMBLY_MEMBERS
100
AcDbSpline
 62
7
  6
CONTINUOUS
 70
0
 71
3
 72
13
 73
9
 74
0
 42
0.0000001
 43
0.0000001
 44
0.0000000001
 40
0.0
 40
0.0
 40
0.0
 40
0.0
 40
0.3079199443
 40
0.5903147444
 40
0.7151299611
 40
0.8261574701
 40
0.9215841516
 40
1.0
 40
1.0
 40
1.0
 40
1.0
 10
5.0823641073
 20
6.3557444566
 30
0.0
 10
5.0833559578
 20
6.3558832084
 30
0.0
 10
5.0852484161
 20
6.3562179805
 30
0.0
 10
5.087505327
 20
6.35679275
 30
0.0
 10
5.0891053334
 20
6.3573249626
 30
0.0
 10
5.090107938
 20
6.3577217147
 30
0.0
 10
5.0909437225
 20
6.3581232712
 30
0.0
 10
5.0914293309
 20
6.358416382
 30
0.0
 10
5.0916359459
 20
6.3585659126
 30
0.0
  0
SPLINE
  5
338
100
AcDbEntity
  8
ALL_ASSEMBLY_MEMBERS
100
AcDbSpline
 62
7
  6
CONTINUOUS
 70
0
 71
3
 72
28
 73
24
 74
0
 42
0.0000001
 43
0.0000001
 44
0.0000000001
 40
0.0
 40
0.0
 40
0.0
 40
0.0
 40
0.062662443
 40
0.1252909992
 40
0.1878669349
 40
0.2503750161
 40
0.312816299
 40
0.3751988859
 40
0.4375388667
 40
0.499858033
 40
0.5621824578
 40
0.6245322121
 40
0.6869201776
 40
0.7181701229
 40
0.7494350657
 40
0.7807164733
 40
0.8120143231
 40
0.8433265854
 40
0.8746505472
 40
0.9059831023
 40
0.9373212988
 40
0.9686611109
 40
1.0
 40
1.0
 40
1.0
 40
1.0
 10
4.7105617285
 20
6.7505307162
 30
0.0
 10
4.7105625321
 20
6.7454427498
 30
0.0
 10
4.7115743489
 20
6.7352407496
 30
0.0
 10
4.716073542
 20
6.7205652533
 30
0.0
 10
4.7233633966
 20
6.7070655457
 30
0.0
 10
4.7331491232
 20
6.6952716693
 30
0.0
 10
4.7450378732
 20
6.6856272389
 30
0.0
 10
4.7585642135
 20
6.6784891631
 30
0.0
 10
4.7732084955
 20
6.6741146466
 30
0.0
 10
4.7884172869
 20
6.6726577793
 30
0.0
 10
4.8036221209
 20
6.6741689749
 30
0.0
 10
4.8182511916
 20
6.6785911068
 30
0.0
 10
4.8295122988
 20
6.6845778112
 30
0.0
 10
4.8376865981
 20
6.6906031113
 30
0.0
 10
4.8433560209
 20
6.6957074675
 30
0.0
 10
4.8485002474
 20
6.7013451429
 30
0.0
 10
4.853068542
 20
6.7074639039
 30
0.0
 10
4.8570152787
 20
6.7140048782
 30
0.0
 10
4.8603002245
 20
6.7209051916
 30
0.0
 10
4.8628900825
 20
6.7280975108
 30
0.0
 10
4.8647587032
 20
6.7355115456
 30
0.0
 10
4.8658875022
 20
6.7430734126
 30
0.0
 10
4.866139166
 20
6.7481662793
 30
0.0
 10
4.8661391836
 20
6.7507108851
 30
0.0
  0
SPLINE
  5
339
100
AcDbEntity
  8
ALL_ASSEMBLY_MEMBERS
100
AcDbSpline
 62
7
  6
CONTINUOUS
 70
0
 71
3
 72
32
 73
28
 74
0
 42
0.0000001
 43
0.0000001
 44
0.0000000001
 40
0.0
 40
0.0
 40
0.0
 40
0.0
 40
0.0313262895
 40
0.0626457045
 40
0.0939562169
 40
0.1252546169
 40
0.1565390963
 40
0.1878079646
 40
0.2190600788
 40
0.2502950463
 40
0.2815141198
 40
0.3127201346
 40
0.3750309676
 40
0.4373250014
 40
0.4996200364
 40
0.5619373259
 40
0.6243003721
 40
0.6555414186
 40
0.6867992646
 40
0.7180746524
 40
0.7493675136
 40
0.8119275726
 40
0.874545591
 40
0.9059037552
 40
0.9372707418
 40
0.9686486044
 40
1.0
 40
1.0
 40
1.0
 40
1.0
 10
4.8661391836
 20
6.7507108851
 30
0.0
 10
4.8661391724
 20
6.7532551404
 30
0.0
 10
4.8658875967
 20
6.7583466774
 30
0.0
 10
4.8647589045
 20
6.7659056317
 30
0.0
 10
4.8628903683
 20
6.7733149046
 30
0.0
 10
4.8603005765
 20
6.7805006768
 30
0.0
 10
4.8570156838
 20
6.7873927616
 30
0.0
 10
4.8530689341
 20
6.7939239294
 30
0.0
 10
4.8485005745
 20
6.8000314633
 30
0.0
 10
4.8433562565
 20
6.8056566578
 30
0.0
 10
4.8376866368
 20
6.8107473208
 30
0.0
 10
4.829511647
 20
6.8167534106
 30
0.0
 10
4.818248728
 20
6.8227138056
 30
0.0
 10
4.8036188142
 20
6.8271014575
 30
0.0
 10
4.7884129293
 20
6.8285766809
 30
0.0
 10
4.7732064115
 20
6.8270855374
 30
0.0
 10
4.7609967609
 20
6.8234090298
 30
0.0
 10
4.7518041927
 20
6.8190956166
 30
0.0
 10
4.7452456304
 20
6.8151991519
 30
0.0
 10
4.7390964909
 20
6.8106770301
 30
0.0
 10
4.7315254679
 20
6.8038773505
 30
0.0
 10
4.723362281
 20
6.794023776
 30
0.0
 10
4.7172866339
 20
6.7827555819
 30
0.0
 10
4.7138247339
 20
6.7731675412
 30
0.0
 10
4.7119473024
 20
6.7657452222
 30
0.0
 10
4.710815682
 20
6.7581752743
 30
0.0
 10
4.7105620673
 20
6.7530770105
 30
0.0
 10
4.7105617285
 20
6.7505307162
 30
0.0
  0
SPLINE
  5
33A
100
AcDbEntity
  8
ALL_ASSEMBLY_MEMBERS
100
AcDbSpline
 62
7
  6
CONTINUOUS
 70
0
 71
3
 72
44
 73
40
 74
0
 42
0.0000001
 43
0.0000001
 44
0.0000000001
 40
0.0
 40
0.0
 40
0.0
 40
0.0
 40
0.0312346466
 40
0.046857489
 40
0.0624807718
 40
0.0937190158
 40
0.1249587346
 40
0.1405840937
 40
0.1562101284
 40
0.1718369099
 40
0.1874644551
 40
0.2187122914
 40
0.2499630901
 40
0.2812173624
 40
0.3124726695
 40
0.3437277537
 40
0.3749827491
 40
0.4062375882
 40
0.43749228
 40
0.4687469764
 40
0.5000018065
 40
0.5312565401
 40
0.562511282
 40
0.5937662241
 40
0.6250211578
 40
0.6562761289
 40
0.6875314197
 40
0.7187870415
 40
0.7500412276
 40
0.7812927421
 40
0.8125413847
 40
0.8437872583
 40
0.8594136984
 40
0.8750394081
 40
0.9062797655
 40
0.9375185196
 40
0.9531420254
 40
0.9687650413
 40
1.0
 40
1.0
 40
1.0
 40
1.0
 10
5.0272903727
 20
6.3693203718
 30
0.0
 10
5.0397446958
 20
6.3693203718
 30
0.0
 10
5.0584453507
 20
6.3702386365
 30
0.0
 10
5.0831783963
 20
6.3732880463
 30
0.0
 10
5.1077356897
 20
6.3775466568
 30
0.0
 10
5.1379964365
 20
6.3851220869
 30
0.0
 10
5.1673700569
 20
6.3956279238
 30
0.0
 10
5.1901591253
 20
6.4057249234
 30
0.0
 10
5.2068636947
 20
6.4141293971
 30
0.0
 10
5.2231367214
 20
6.4233435466
 30
0.0
 10
5.2442016699
 20
6.4366766366
 30
0.0
 10
5.2692710545
 20
6.4552602771
 30
0.0
 10
5.2970184198
 20
6.4803984145
 30
0.0
 10
5.3221708864
 20
6.5081392685
 30
0.0
 10
5.3444834977
 20
6.5382131771
 30
0.0
 10
5.3637407432
 20
6.5703298978
 30
0.0
 10
5.3797559357
 20
6.604179921
 30
0.0
 10
5.39237482
 20
6.6394369932
 30
0.0
 10
5.4014767634
 20
6.675761113
 30
0.0
 10
5.4069736592
 20
6.7128026336
 30
0.0
 10
5.4088114726
 20
6.7502046826
 30
0.0
 10
5.4069738011
 20
6.7876067173
 30
0.0
 10
5.4014783932
 20
6.8246485219
 30
0.0
 10
5.3923771485
 20
6.8609730251
 30
0.0
 10
5.3797580946
 20
6.8962301674
 30
0.0
 10
5.3637436501
 20
6.9300806274
 30
0.0
 10
5.3444875051
 20
6.9621982344
 30
0.0
 10
5.322174625
 20
6.9922723441
 30
0.0
 10
5.2970226118
 20
7.0200134434
 30
0.0
 10
5.2692738719
 20
7.0451535877
 30
0.0
 10
5.2391986945
 20
7.0674498284
 30
0.0
 10
5.2124308849
 20
7.0834863252
 30
0.0
 10
5.1901617094
 20
7.0946900669
 30
0.0
 10
5.1673719511
 20
7.1047879127
 30
0.0
 10
5.1379979143
 20
7.1152937968
 30
0.0
 10
5.1077366294
 20
7.1228695415
 30
0.0
 10
5.0831789909
 20
7.1271282458
 30
0.0
 10
5.05844567
 20
7.130177745
 30
0.0
 10
5.0397448203
 20
7.1310960163
 30
0.0
 10
5.0272903727
 20
7.1310960163
 30
0.0
  0
SPLINE
  5
33B
100
AcDbEntity
  8
ALL_ASSEMBLY_MEMBERS
100
AcDbSpline
 62
7
  6
CONTINUOUS
 70
0
 71
3
 72
44
 73
40
 74
0
 42
0.0000001
 43
0.0000001
 44
0.0000000001
 40
0.0
 40
0.0
 40
0.0
 40
0.0
 40
0.0312346466
 40
0.046857489
 40
0.0624807718
 40
0.0937190158
 40
0.1249587346
 40
0.1405840937
 40
0.1562101284
 40
0.1718369098
 40
0.187464455
 40
0.2187122913
 40
0.24996309
 40
0.2812173623
 40
0.3124726694
 40
0.3437277537
 40
0.3749827491
 40
0.4062375882
 40
0.43749228
 40
0.4687469764
 40
0.5000018065
 40
0.5312565401
 40
0.562511282
 40
0.5937662242
 40
0.6250211579
 40
0.656276129
 40
0.6875314197
 40
0.7187870415
 40
0.7500412276
 40
0.7812927422
 40
0.8125413847
 40
0.8437872583
 40
0.8594136984
 40
0.8750394081
 40
0.9062797655
 40
0.9375185196
 40
0.9531420254
 40
0.9687650413
 40
1.0
 40
1.0
 40
1.0
 40
1.0
 10
5.0272903727
 20
7.1310960163
 30
0.0
 10
5.0148360495
 20
7.1310960163
 30
0.0
 10
4.9961353946
 20
7.1301777517
 30
0.0
 10
4.971402349
 20
7.1271283419
 30
0.0
 10
4.9468450556
 20
7.1228697313
 30
0.0
 10
4.9165843089
 20
7.1152943013
 30
0.0
 10
4.8872106884
 20
7.1047884643
 30
0.0
 10
4.86442162
 20
7.0946914648
 30
0.0
 10
4.8477170506
 20
7.0862869911
 30
0.0
 10
4.8314440239
 20
7.0770728417
 30
0.0
 10
4.8103790754
 20
7.0637397516
 30
0.0
 10
4.7853096909
 20
7.0451561111
 30
0.0
 10
4.7575623255
 20
7.0200179739
 30
0.0
 10
4.732409859
 20
6.9922771198
 30
0.0
 10
4.7100972477
 20
6.9622032111
 30
0.0
 10
4.6908400021
 20
6.9300864904
 30
0.0
 10
4.6748248096
 20
6.8962364672
 30
0.0
 10
4.6622059253
 20
6.860979395
 30
0.0
 10
4.6531039819
 20
6.8246552752
 30
0.0
 10
4.6476070862
 20
6.7876137545
 30
0.0
 10
4.6457692727
 20
6.7502117055
 30
0.0
 10
4.6476069443
 20
6.7128096708
 30
0.0
 10
4.6531023521
 20
6.6757678662
 30
0.0
 10
4.6622035969
 20
6.639443363
 30
0.0
 10
4.6748226507
 20
6.6041862207
 30
0.0
 10
4.6908370953
 20
6.5703357607
 30
0.0
 10
4.7100932402
 20
6.5382181537
 30
0.0
 10
4.7324061204
 20
6.5081440441
 30
0.0
 10
4.7575581335
 20
6.4804029447
 30
0.0
 10
4.7853068734
 20
6.4552628005
 30
0.0
 10
4.8153820509
 20
6.4329665598
 30
0.0
 10
4.8421498605
 20
6.416930063
 30
0.0
 10
4.8644190359
 20
6.4057263213
 30
0.0
 10
4.8872087942
 20
6.3956284755
 30
0.0
 10
4.916582831
 20
6.3851225913
 30
0.0
 10
4.946844116
 20
6.3775468466
 30
0.0
 10
4.9714017545
 20
6.3732881424
 30
0.0
 10
4.9961350753
 20
6.3702386432
 30
0.0
 10
5.0148359251
 20
6.3693203718
 30
0.0
 10
5.0272903727
 20
6.3693203718
 30
0.0
  0
SPLINE
  5
33C
100
AcDbEntity
  8
ALL_ASSEMBLY_MEMBERS
100
AcDbSpline
 62
7
  6
CONTINUOUS
 70
0
 71
3
 72
43
 73
39
 74
0
 42
0.0000001
 43
0.0000001
 44
0.0000000001
 40
0.0
 40
0.0
 40
0.0
 40
0.0
 40
0.0312349406
 40
0.0468579301
 40
0.0624813599
 40
0.093719898
 40
0.124959911
 40
0.1405854172
 40
0.1562115987
 40
0.1874568066
 40
0.2187049362
 40
0.2499560294
 40
0.2812105968
 40
0.3124661965
 40
0.343721576
 40
0.3749768655
 40
0.4062319985
 40
0.4374869847
 40
0.4687419753
 40
0.4999970997
 40
0.5312521274
 40
0.5625071636
 40
0.5937624
 40
0.6250176279
 40
0.6562728933
 40
0.6875284783
 40
0.7187843943
 40
0.7500388747
 40
0.7812906833
 40
0.81253962
 40
0.8437857877
 40
0.859412375
 40
0.8750382317
 40
0.9062788833
 40
0.9375179315
 40
0.9531415843
 40
0.9687647473
 40
1.0
 40
1.0
 40
1.0
 40
1.0
 10
5.0272903727
 20
6.3965455651
 30
0.0
 10
5.0388631921
 20
6.3965455651
 30
0.0
 10
5.0562402338
 20
6.3973988404
 30
0.0
 10
5.0792227024
 20
6.4002324163
 30
0.0
 10
5.1020418504
 20
6.4041896049
 30
0.0
 10
5.1301608201
 20
6.4112288867
 30
0.0
 10
5.157455247
 20
6.4209910199
 30
0.0
 10
5.1786316502
 20
6.4303736013
 30
0.0
 10
5.1993240309
 20
6.4407841498
 30
0.0
 10
5.2241967049
 20
6.455684905
 30
0.0
 10
5.2521427264
 20
6.4764021117
 30
0.0
 10
5.2779276426
 20
6.4997618418
 30
0.0
 10
5.3012994652
 20
6.5255389849
 30
0.0
 10
5.3220329337
 20
6.5534843464
 30
0.0
 10
5.3399271296
 20
6.5833278718
 30
0.0
 10
5.3548087998
 20
6.6147820265
 30
0.0
 10
5.3665345345
 20
6.6475436385
 30
0.0
 10
5.3749922527
 20
6.6812967762
 30
0.0
 10
5.3801000833
 20
6.7157165376
 30
0.0
 10
5.3818078219
 20
6.7504713093
 30
0.0
 10
5.3801002197
 20
6.7852260681
 30
0.0
 10
5.3749937695
 20
6.819646093
 30
0.0
 10
5.3665367025
 20
6.853399587
 30
0.0
 10
5.3548108109
 20
6.8861612662
 30
0.0
 10
5.3399298514
 20
6.9176158265
 30
0.0
 10
5.3220366368
 20
6.9474601843
 30
0.0
 10
5.3013030334
 20
6.975405677
 30
0.0
 10
5.2779312504
 20
7.0011832884
 30
0.0
 10
5.2521465375
 20
7.0245440409
 30
0.0
 10
5.2242000493
 20
7.0452621781
 30
0.0
 10
5.1993268351
 20
7.0601636261
 30
0.0
 10
5.178633849
 20
7.0705743804
 30
0.0
 10
5.1574571264
 20
7.0799575138
 30
0.0
 10
5.1301621524
 20
7.0897198022
 30
0.0
 10
5.1020427291
 20
7.0967593444
 30
0.0
 10
5.079223254
 20
7.1007166222
 30
0.0
 10
5.0562405312
 20
7.1035502804
 30
0.0
 10
5.0388633078
 20
7.1044035604
 30
0.0
 10
5.0272903727
 20
7.1044035604
 30
0.0
  0
SPLINE
  5
33D
100
AcDbEntity
  8
ALL_ASSEMBLY_MEMBERS
100
AcDbSpline
 62
7
  6
CONTINUOUS
 70
0
 71
3
 72
28
 73
24
 74
0
 42
0.0000001
 43
0.0000001
 44
0.0000000001
 40
0.0
 40
0.0
 40
0.0
 40
0.0
 40
0.0313385488
 40
0.0626780414
 40
0.0940159136
 40
0.1253480941
 40
0.1566716663
 40
0.1879836486
 40
0.2192814413
 40
0.2505631272
 40
0.2818284413
 40
0.3130787951
 40
0.3754676975
 40
0.4378186064
 40
0.5001442287
 40
0.5624645869
 40
0.6248057424
 40
0.6871895532
 40
0.7496320095
 40
0.8121412686
 40
0.8747188142
 40
0.9373453534
 40
1.0
 40
1.0
 40
1.0
 40
1.0
 10
5.1884415617
 20
6.7507108851
 30
0.0
 10
5.1884415784
 20
6.7481663074
 30
0.0
 10
5.1886932385
 20
6.7430734953
 30
0.0
 10
5.1898220125
 20
6.7355117071
 30
0.0
 10
5.1916905945
 20
6.7280977494
 30
0.0
 10
5.1942803959
 20
6.7209055064
 30
0.0
 10
5.1975652523
 20
6.7140052458
 30
0.0
 10
5.2015119369
 20
6.7074643095
 30
0.0
 10
5.2060802
 20
6.7013455351
 30
0.0
 10
5.2112243964
 20
6.6957077671
 30
0.0
 10
5.2168938813
 20
6.6906033526
 30
0.0
 10
5.2250682416
 20
6.6845779043
 30
0.0
 10
5.2363295334
 20
6.6785911038
 30
0.0
 10
5.2509588623
 20
6.6741689029
 30
0.0
 10
5.2661639949
 20
6.6726577609
 30
0.0
 10
5.2813730646
 20
6.6741147882
 30
0.0
 10
5.296017571
 20
6.6784895808
 30
0.0
 10
5.309544056
 20
6.6856280136
 30
0.0
 10
5.3214328214
 20
6.6952728879
 30
0.0
 10
5.3312184989
 20
6.707067226
 30
0.0
 10
5.3385079494
 20
6.7205672408
 30
0.0
 10
5.3430064841
 20
6.7352421944
 30
0.0
 10
5.3440183537
 20
6.7454433837
 30
0.0
 10
5.3440190168
 20
6.7505307162
 30
0.0
  0
SPLINE
  5
33E
100
AcDbEntity
  8
ALL_ASSEMBLY_MEMBERS
100
AcDbSpline
 62
7
  6
CONTINUOUS
 70
0
 71
3
 72
32
 73
28
 74
0
 42
0.0000001
 43
0.0000001
 44
0.0000000001
 40
0.0
 40
0.0
 40
0.0
 40
0.0
 40
0.0313540114
 40
0.0627372524
 40
0.094106839
 40
0.1254646229
 40
0.1880809855
 40
0.2506398776
 40
0.2819320898
 40
0.3132069127
 40
0.3444641047
 40
0.375704554
 40
0.4380664102
 40
0.5003824921
 40
0.5626763155
 40
0.6249691822
 40
0.6872790651
 40
0.7184846617
 40
0.7497033544
 40
0.7809380322
 40
0.8121901729
 40
0.8434592873
 40
0.8747441248
 40
0.9060428732
 40
0.9373536854
 40
0.9686733951
 40
1.0
 40
1.0
 40
1.0
 40
1.0
 10
5.3440190168
 20
6.7505307162
 30
0.0
 10
5.3440186094
 20
6.7530772232
 30
0.0
 10
5.3437646737
 20
6.7581761117
 30
0.0
 10
5.3426332426
 20
6.7657469563
 30
0.0
 10
5.3407554172
 20
6.7731698309
 30
0.0
 10
5.3372931608
 20
6.7827577892
 30
0.0
 10
5.331217244
 20
6.7940255294
 30
0.0
 10
5.3230540492
 20
6.8038787321
 30
0.0
 10
5.3154829546
 20
6.8106780415
 30
0.0
 10
5.3093338865
 20
6.8152000033
 30
0.0
 10
5.302775352
 20
6.8190962287
 30
0.0
 10
5.2935829136
 20
6.8234094477
 30
0.0
 10
5.2813734374
 20
6.8270856917
 30
0.0
 10
5.2661672041
 20
6.8285766666
 30
0.0
 10
5.2509616227
 20
6.8271013733
 30
0.0
 10
5.236331976
 20
6.8227137787
 30
0.0
 10
5.2250692489
 20
6.8167534735
 30
0.0
 10
5.2168943305
 20
6.8107475241
 30
0.0
 10
5.2112247761
 20
6.8056569202
 30
0.0
 10
5.206080438
 20
6.8000318157
 30
0.0
 10
5.2015120531
 20
6.7939242991
 30
0.0
 10
5.1975652593
 20
6.7873930984
 30
0.0
 10
5.194280284
 20
6.7805009663
 30
0.0
 10
5.1916904399
 20
6.7733151241
 30
0.0
 10
5.1898218683
 20
6.7659057803
 30
0.0
 10
5.188693153
 20
6.7583467534
 30
0.0
 10
5.1884415738
 20
6.7532551662
 30
0.0
 10
5.1884415617
 20
6.7507108851
 30
0.0
  0
SPLINE
  5
33F
100
AcDbEntity
  8
ALL_ASSEMBLY_MEMBERS
100
AcDbSpline
 62
7
  6
CONTINUOUS
 70
0
 71
3
 72
43
 73
39
 74
0
 42
0.0000001
 43
0.0000001
 44
0.0000000001
 40
0.0
 40
0.0
 40
0.0
 40
0.0
 40
0.0312349406
 40
0.0468579301
 40
0.0624813599
 40
0.093719898
 40
0.124959911
 40
0.1405854172
 40
0.1562115987
 40
0.1874568066
 40
0.2187049362
 40
0.2499560293
 40
0.2812105967
 40
0.3124661965
 40
0.343721576
 40
0.3749768655
 40
0.4062319985
 40
0.4374869848
 40
0.4687419753
 40
0.4999970997
 40
0.5312521275
 40
0.5625071636
 40
0.5937624
 40
0.6250176279
 40
0.6562728933
 40
0.6875284783
 40
0.7187843943
 40
0.7500388747
 40
0.7812906833
 40
0.81253962
 40
0.8437857877
 40
0.8594123751
 40
0.8750382317
 40
0.9062788833
 40
0.9375179315
 40
0.9531415843
 40
0.9687647473
 40
1.0
 40
1.0
 40
1.0
 40
1.0
 10
5.0272903727
 20
7.1044035604
 30
0.0
 10
5.0157175532
 20
7.1044035604
 30
0.0
 10
4.9983405115
 20
7.1035502852
 30
0.0
 10
4.9753580429
 20
7.1007167093
 30
0.0
 10
4.952538895
 20
7.0967595206
 30
0.0
 10
4.9244199253
 20
7.0897202388
 30
0.0
 10
4.8971254983
 20
7.0799581057
 30
0.0
 10
4.8759490952
 20
7.0705755243
 30
0.0
 10
4.8552567145
 20
7.0601649758
 30
0.0
 10
4.8303840404
 20
7.0452642206
 30
0.0
 10
4.802438019
 20
7.024547014
 30
0.0
 10
4.7766531027
 20
7.0011872839
 30
0.0
 10
4.7532812801
 20
6.9754101407
 30
0.0
 10
4.7325478117
 20
6.9474647792
 30
0.0
 10
4.7146536158
 20
6.9176212539
 30
0.0
 10
4.6997719455
 20
6.8861670991
 30
0.0
 10
4.6880462108
 20
6.8534054871
 30
0.0
 10
4.6795884927
 20
6.8196523494
 30
0.0
 10
4.6744806621
 20
6.785232588
 30
0.0
 10
4.6727729234
 20
6.7504778163
 30
0.0
 10
4.6744805257
 20
6.7157230575
 30
0.0
 10
4.6795869758
 20
6.6813030325
 30
0.0
 10
4.6880440429
 20
6.6475495386
 30
0.0
 10
4.6997699344
 20
6.6147878594
 30
0.0
 10
4.7146508939
 20
6.583333299
 30
0.0
 10
4.7325441085
 20
6.5534889413
 30
0.0
 10
4.7532777119
 20
6.5255434486
 30
0.0
 10
4.7766494949
 20
6.4997658372
 30
0.0
 10
4.8024342079
 20
6.4764050847
 30
0.0
 10
4.830380696
 20
6.4556869474
 30
0.0
 10
4.8552539102
 20
6.4407854995
 30
0.0
 10
4.8759468964
 20
6.4303747452
 30
0.0
 10
4.8971236189
 20
6.4209916118
 30
0.0
 10
4.9244185929
 20
6.4112293234
 30
0.0
 10
4.9525380162
 20
6.4041897812
 30
0.0
 10
4.9753574913
 20
6.4002325034
 30
0.0
 10
4.9983402141
 20
6.3973988452
 30
0.0
 10
5.0157174376
 20
6.3965455651
 30
0.0
 10
5.0272903727
 20
6.3965455651
 30
0.0
  0
SPLINE
  5
340
100
AcDbEntity
  8
0
100
AcDbSpline
 62
7
  6
CONTINUOUS
 70
0
 71
3
 72
11
 73
7
 74
0
 42
0.0000001
 43
0.0000001
 44
0.0000000001
 40
0.0
 40
0.0
 40
0.0
 40
0.0
 40
0.3331604971
 40
0.5715273792
 40
0.7664671783
 40
1.0
 40
1.0
 40
1.0
 40
1.0
 10
5.2589631347
 20
2.3906999717
 30
0.0
 10
5.2589707749
 20
2.3906955502
 30
0.0
 10
5.2589833486
 20
2.3906871383
 30
0.0
 10
5.2589969763
 20
2.3906708812
 30
0.0
 10
5.258997526
 20
2.390651813
 30
0.0
 10
5.2589900192
 20
2.3906423808
 30
0.0
 10
5.2589856416
 20
2.3906380077
 30
0.0
  0
SPLINE
  5
341
100
AcDbEntity
  8
0
100
AcDbSpline
 62
7
  6
CONTINUOUS
 70
0
 71
3
 72
35
 73
31
 74
0
 42
0.0000001
 43
0.0000001
 44
0.0000000001
 40
0.0
 40
0.0
 40
0.0
 40
0.0
 40
0.1008255325
 40
0.1998680195
 40
0.2963090459
 40
0.3893514991
 40
0.4781975436
 40
0.5620869148
 40
0.6403085292
 40
0.7122007233
 40
0.7771488297
 40
0.8068454621
 40
0.8346062133
 40
0.8603687039
 40
0.8840793651
 40
0.9056911633
 40
0.9251573002
 40
0.9424330538
 40
0.9574852876
 40
0.9702853357
 40
0.9808052036
 40
0.9890227243
 40
0.9922657979
 40
0.9949317238
 40
0.9970220274
 40
0.9978527678
 40
0.9985420769
 40
0.9990924377
 40
0.9995090125
 40
1.0
 40
1.0
 40
1.0
 40
1.0
 10
5.0494541291
 20
2.4295641747
 30
0.0
 10
5.0565698188
 20
2.4296747735
 30
0.0
 10
5.0706753463
 20
2.4298949643
 30
0.0
 10
5.0915870333
 20
2.4302271141
 30
0.0
 10
5.1119493
 20
2.4305591376
 30
0.0
 10
5.1315917767
 20
2.4308910462
 30
0.0
 10
5.1503481936
 20
2.4312228005
 30
0.0
 10
5.1680583463
 20
2.4315543347
 30
0.0
 10
5.1845716327
 20
2.4318855621
 30
0.0
 10
5.19974771
 20
2.4322163724
 30
0.0
 10
5.2114989644
 20
2.4324993283
 30
0.0
 10
5.2201356665
 20
2.4327279334
 30
0.0
 10
5.2260072109
 20
2.4328941358
 30
0.0
 10
5.2314560701
 20
2.4330602537
 30
0.0
 10
5.2364707052
 20
2.4332262618
 30
0.0
 10
5.241040668
 20
2.4333920923
 30
0.0
 10
5.2451561178
 20
2.4335576847
 30
0.0
 10
5.2488081747
 20
2.4337229899
 30
0.0
 10
5.2519891918
 20
2.4338878722
 30
0.0
 10
5.2546926976
 20
2.4340519108
 30
0.0
 10
5.2569127582
 20
2.4342150062
 30
0.0
 10
5.2584578413
 20
2.4343578818
 30
0.0
 10
5.2594478597
 20
2.4344769086
 30
0.0
 10
5.2600066388
 20
2.4345586556
 30
0.0
 10
5.2603945263
 20
2.4346300591
 30
0.0
 10
5.2606425925
 20
2.4346897401
 30
0.0
 10
5.2607824989
 20
2.4347302988
 30
0.0
 10
5.2608934802
 20
2.4347720211
 30
0.0
 10
5.2609820871
 20
2.4348156215
 30
0.0
 10
5.2610403676
 20
2.434867315
 30
0.0
 10
5.261040296
 20
2.4349019702
 30
0.0
  0
LINE
  5
342
100
AcDbEntity
  8
0
100
AcDbLine
 62
7
  6
CONTINUOUS
 10
4.8899512396
 20
2.4466921553
 11
4.8431076852
 21
2.4456814624
  0
LINE
  5
343
100
AcDbEntity
  8
0
100
AcDbLine
 62
7
  6
CONTINUOUS
 10
4.8431076852
 20
2.4456814624
 11
4.8422273006
 21
2.4456592522
  0
SPLINE
  5
344
100
AcDbEntity
  8
0
100
AcDbSpline
 62
7
  6
CONTINUOUS
 70
0
 71
3
 72
25
 73
21
 74
0
 42
0.0000001
 43
0.0000001
 44
0.0000000001
 40
0.0
 40
0.0
 40
0.0
 40
0.0
 40
0.2272751698
 40
0.4274833693
 40
0.5170162156
 40
0.5992806703
 40
0.6741362297
 40
0.741471779
 40
0.8011784153
 40
0.8531482889
 40
0.8972925435
 40
0.9335576717
 40
0.9618997245
 40
0.9822902787
 40
0.9895116425
 40
0.9923873726
 40
0.9947805523
 40
0.9967023468
 40
0.9981746843
 40
1.0
 40
1.0
 40
1.0
 40
1.0
 10
4.8422273006
 20
2.4456592522
 30
0.0
 10
4.8385298053
 20
2.4455656018
 30
0.0
 10
4.8315753774
 20
2.4453807484
 30
0.0
 10
4.8231652207
 20
2.4451277431
 30
0.0
 10
4.8171146595
 20
2.4449227493
 30
0.0
 10
4.8131033423
 20
2.4447748925
 30
0.0
 10
4.8094535264
 20
2.44462717
 30
0.0
 10
4.8061711365
 20
2.4444796571
 30
0.0
 10
4.8032615966
 20
2.4443324275
 30
0.0
 10
4.8007299779
 20
2.4441856465
 30
0.0
 10
4.7985805864
 20
2.4440393551
 30
0.0
 10
4.7968165494
 20
2.443894429
 30
0.0
 10
4.7954407954
 20
2.4437506958
 30
0.0
 10
4.7945382944
 20
2.4436247329
 30
0.0
 10
4.7940521741
 20
2.4435244553
 30
0.0
 10
4.7938557524
 20
2.4434713206
 30
0.0
 10
4.7937447444
 20
2.4434350995
 30
0.0
 10
4.7936570101
 20
2.443397986
 30
0.0
 10
4.7935849708
 20
2.4433580664
 30
0.0
 10
4.7935408931
 20
2.4433120458
 30
0.0
 10
4.7935408928
 20
2.4432823406
 30
0.0
  0
SPLINE
  5
345
100
AcDbEntity
  8
0
100
AcDbSpline
 62
7
  6
CONTINUOUS
 70
0
 71
3
 72
30
 73
26
 74
0
 42
0.0000001
 43
0.0000001
 44
0.0000000001
 40
0.0
 40
0.0
 40
0.0
 40
0.0
 40
0.1964199582
 40
0.2913038422
 40
0.3829529451
 40
0.4706054477
 40
0.5535421624
 40
0.6310841525
 40
0.7026012931
 40
0.7675010365
 40
0.8252580289
 40
0.8753930869
 40
0.897475449
 40
0.9175033106
 40
0.9354367144
 40
0.9512423871
 40
0.9648874943
 40
0.9763420028
 40
0.9855875863
 40
0.9893778631
 40
0.9926112983
 40
0.9952871889
 40
0.9974060515
 40
0.9989722826
 40
1.0
 40
1.0
 40
1.0
 40
1.0
 10
5.0494363531
 20
2.403856769
 30
0.0
 10
5.0632911889
 20
2.4040721124
 30
0.0
 10
5.083838792
 20
2.4043940487
 30
0.0
 10
5.1108507512
 20
2.4048338884
 30
0.0
 10
5.1301905095
 20
2.405159858
 30
0.0
 10
5.1486873289
 20
2.4054856935
 30
0.0
 10
5.1661887997
 20
2.4058113117
 30
0.0
 10
5.1825517926
 20
2.4061366801
 30
0.0
 10
5.1976421003
 20
2.4064616369
 30
0.0
 10
5.2113363312
 20
2.4067860811
 30
0.0
 10
5.2235217046
 20
2.4071097448
 30
0.0
 10
5.2326865799
 20
2.4073889686
 30
0.0
 10
5.2391901051
 20
2.4076159185
 30
0.0
 10
5.2434227844
 20
2.4077786823
 30
0.0
 10
5.247212324
 20
2.4079411926
 30
0.0
 10
5.2505511407
 20
2.4081033528
 30
0.0
 10
5.253432338
 20
2.4082648886
 30
0.0
 10
5.2558499173
 20
2.4084257911
 30
0.0
 10
5.2575720363
 20
2.4085661913
 30
0.0
 10
5.2587139139
 20
2.4086820459
 30
0.0
 10
5.2593934969
 20
2.4087627415
 30
0.0
 10
5.2599540598
 20
2.4088430378
 30
0.0
 10
5.2603962779
 20
2.4089221703
 30
0.0
 10
5.2607188432
 20
2.4090005274
 30
0.0
 10
5.2608933112
 20
2.4090616456
 30
0.0
 10
5.2609560764
 20
2.4090979345
 30
0.0
  0
SPLINE
  5
346
100
AcDbEntity
  8
0
100
AcDbSpline
 62
7
  6
CONTINUOUS
 70
0
 71
3
 72
59
 73
55
 74
0
 42
0.0000001
 43
0.0000001
 44
0.0000000001
 40
0.0
 40
0.0
 40
0.0
 40
0.0
 40
0.0002473232
 40
0.0004568458
 40
0.0007336351
 40
0.0010803963
 40
0.0014984843
 40
0.0025511549
 40
0.0038941728
 40
0.0055278774
 40
0.0096655712
 40
0.0149586282
 40
0.0213980787
 40
0.0289678875
 40
0.0376497323
 40
0.047425027
 40
0.058271417
 40
0.0701615273
 40
0.0830675885
 40
0.0969609942
 40
0.1118078251
 40
0.144217458
 40
0.1799935533
 40
0.218795568
 40
0.2602582893
 40
0.303989148
 40
0.3495745759
 40
0.3965841807
 40
0.4445727139
 40
0.4930871008
 40
0.5898567607
 40
0.6371970154
 40
0.6832418799
 40
0.7275549334
 40
0.7697188781
 40
0.8093329007
 40
0.8460250321
 40
0.8794462076
 40
0.9092824217
 40
0.9227659839
 40
0.935251384
 40
0.9467078667
 40
0.9571076558
 40
0.9664282995
 40
0.9746479716
 40
0.981745596
 40
0.9877060403
 40
0.9925176993
 40
0.9944894161
 40
0.9961701676
 40
0.9975596186
 40
0.9986587031
 40
0.9994698418
 40
1.0
 40
1.0
 40
1.0
 40
1.0
 10
4.8058440165
 20
2.3907291138
 30
0.0
 10
4.805843983
 20
2.3907656434
 30
0.0
 10
4.8059052275
 20
2.3908201447
 30
0.0
 10
4.8059985052
 20
2.3908661881
 30
0.0
 10
4.8061152722
 20
2.390910194
 30
0.0
 10
4.8062625445
 20
2.3909529811
 30
0.0
 10
4.8065238446
 20
2.3910159455
 30
0.0
 10
4.8069326291
 20
2.3910912478
 30
0.0
 10
4.8075216142
 20
2.3911774598
 30
0.0
 10
4.8085649545
 20
2.3913029728
 30
0.0
 10
4.8101924607
 20
2.3914536458
 30
0.0
 10
4.8125302118
 20
2.3916257432
 30
0.0
 10
4.8153759824
 20
2.3917987341
 30
0.0
 10
4.8187229744
 20
2.3919726202
 30
0.0
 10
4.8225632265
 20
2.3921469794
 30
0.0
 10
4.8268878508
 20
2.3923216623
 30
0.0
 10
4.831686674
 20
2.3924965529
 30
0.0
 10
4.8369481826
 20
2.392671639
 30
0.0
 10
4.8426599597
 20
2.3928468616
 30
0.0
 10
4.8488086323
 20
2.3930221647
 30
0.0
 10
4.8578372705
 20
2.3932631122
 30
0.0
 10
4.8700975866
 20
2.3935613626
 30
0.0
 10
4.8858958566
 20
2.3939102144
 30
0.0
 10
4.9030315588
 20
2.3942595152
 30
0.0
 10
4.9213424011
 20
2.3946091226
 30
0.0
 10
4.9406553225
 20
2.394958959
 30
0.0
 10
4.9607876448
 20
2.3953089598
 30
0.0
 10
4.9815489163
 20
2.3956590646
 30
0.0
 10
5.0027428543
 20
2.396009245
 30
0.0
 10
5.0312854427
 20
2.3964757924
 30
0.0
 10
5.0597323106
 20
2.3969397349
 30
0.0
 10
5.0878142753
 20
2.3974100076
 30
0.0
 10
5.1081493135
 20
2.3977600373
 30
0.0
 10
5.127719695
 20
2.3981099378
 30
0.0
 10
5.1463400861
 20
2.3984596059
 30
0.0
 10
5.163834661
 20
2.3988090255
 30
0.0
 10
5.1800376627
 20
2.3991579912
 30
0.0
 10
5.1947961267
 20
2.3995064622
 30
0.0
 10
5.2061268661
 20
2.3998052806
 30
0.0
 10
5.2143657564
 20
2.400047238
 30
0.0
 10
5.2198907328
 20
2.4002223952
 30
0.0
 10
5.2249599935
 20
2.4003973982
 30
0.0
 10
5.229561521
 20
2.4005722412
 30
0.0
 10
5.2336846045
 20
2.4007467944
 30
0.0
 10
5.2373194844
 20
2.4009209521
 30
0.0
 10
5.2404574639
 20
2.4010945008
 30
0.0
 10
5.2430911977
 20
2.4012673307
 30
0.0
 10
5.2449675769
 20
2.4014181018
 30
0.0
 10
5.2462115378
 20
2.4015425499
 30
0.0
 10
5.2469512762
 20
2.401629215
 30
0.0
 10
5.2475609291
 20
2.4017154811
 30
0.0
 10
5.2480413945
 20
2.4018004514
 30
0.0
 10
5.2483912681
 20
2.4018845914
 30
0.0
 10
5.2485803876
 20
2.4019501867
 30
0.0
 10
5.2486482088
 20
2.401989326
 30
0.0
  0
SPLINE
  5
347
100
AcDbEntity
  8
0
100
AcDbSpline
 62
7
  6
CONTINUOUS
 70
0
 71
3
 72
59
 73
55
 74
0
 42
0.0000001
 43
0.0000001
 44
0.0000000001
 40
0.0
 40
0.0
 40
0.0
 40
0.0
 40
0.0005297362
 40
0.0013412911
 40
0.0024413055
 40
0.0038315359
 40
0.0055122923
 40
0.0074832916
 40
0.0122935212
 40
0.0182551649
 40
0.025353707
 40
0.0335718798
 40
0.0428921367
 40
0.0532935247
 40
0.064749677
 40
0.0772336863
 40
0.0907180046
 40
0.1205541211
 40
0.1539759086
 40
0.1906669538
 40
0.2302821194
 40
0.2724448686
 40
0.3167587728
 40
0.3628029768
 40
0.4101435446
 40
0.5069130743
 40
0.5554271445
 40
0.6034160325
 40
0.6504250894
 40
0.6960109773
 40
0.7397414536
 40
0.7812041299
 40
0.8200065497
 40
0.8557816294
 40
0.8881926878
 40
0.9030387936
 40
0.9169311603
 40
0.9298383847
 40
0.9417291493
 40
0.952573988
 40
0.9623492789
 40
0.9710326158
 40
0.9786019174
 40
0.9850399228
 40
0.9903341095
 40
0.994472835
 40
0.9961059471
 40
0.9974480042
 40
0.9985000745
 40
0.9989181876
 40
0.9992651625
 40
0.9995422855
 40
0.999752186
 40
1.0
 40
1.0
 40
1.0
 40
1.0
 10
4.8059322274
 20
2.3852949839
 30
0.0
 10
4.8059999564
 20
2.3853341581
 30
0.0
 10
4.8061890906
 20
2.385399765
 30
0.0
 10
4.8065391043
 20
2.3854838672
 30
0.0
 10
4.807019897
 20
2.3855688145
 30
0.0
 10
4.8076298058
 20
2.3856550692
 30
0.0
 10
4.8083695539
 20
2.3857417449
 30
0.0
 10
4.8096131955
 20
2.3858662168
 30
0.0
 10
4.8114894337
 20
2.3860170301
 30
0.0
 10
4.8141232765
 20
2.3861897943
 30
0.0
 10
4.8172613512
 20
2.3863633276
 30
0.0
 10
4.8208960895
 20
2.3865375331
 30
0.0
 10
4.825019135
 20
2.3867120876
 30
0.0
 10
4.8296207992
 20
2.3868868908
 30
0.0
 10
4.8346900466
 20
2.3870619076
 30
0.0
 10
4.8402148854
 20
2.3872370907
 30
0.0
 10
4.8484536773
 20
2.3874790127
 30
0.0
 10
4.8597846156
 20
2.3877778591
 30
0.0
 10
4.8745430114
 20
2.3881263041
 30
0.0
 10
4.8907461283
 20
2.3884753012
 30
0.0
 10
4.9082405541
 20
2.3888246876
 30
0.0
 10
4.9268610822
 20
2.389174386
 30
0.0
 10
4.9464313364
 20
2.3895242626
 30
0.0
 10
4.9667664701
 20
2.3898743085
 30
0.0
 10
4.9948483941
 20
2.3903445705
 30
0.0
 10
5.0232952723
 20
2.3908085152
 30
0.0
 10
5.0518378772
 20
2.3912750687
 30
0.0
 10
5.0730317624
 20
2.39162524
 30
0.0
 10
5.093793095
 20
2.3919753561
 30
0.0
 10
5.1139253693
 20
2.3923253462
 30
0.0
 10
5.1332383159
 20
2.3926751886
 30
0.0
 10
5.1515491741
 20
2.3930247992
 30
0.0
 10
5.168684798
 20
2.3933740834
 30
0.0
 10
5.1844832043
 20
2.3937229674
 30
0.0
 10
5.1967434876
 20
2.3940211836
 30
0.0
 10
5.2057720852
 20
2.3942621408
 30
0.0
 10
5.2119206748
 20
2.3944374659
 30
0.0
 10
5.2176325735
 20
2.3946126691
 30
0.0
 10
5.2228941278
 20
2.3947877349
 30
0.0
 10
5.2276928217
 20
2.3949626612
 30
0.0
 10
5.2320174409
 20
2.3951373503
 30
0.0
 10
5.2358578439
 20
2.3953116678
 30
0.0
 10
5.2392047717
 20
2.395485554
 30
0.0
 10
5.2420504198
 20
2.395658609
 30
0.0
 10
5.2443882802
 20
2.3958306805
 30
0.0
 10
5.2460160279
 20
2.3959812897
 30
0.0
 10
5.2470592883
 20
2.3961068337
 30
0.0
 10
5.2476479509
 20
2.396193063
 30
0.0
 10
5.2480564995
 20
2.3962683889
 30
0.0
 10
5.2483177483
 20
2.3963313396
 30
0.0
 10
5.2484651054
 20
2.396374132
 30
0.0
 10
5.2485820255
 20
2.3964181261
 30
0.0
 10
5.2486754749
 20
2.3964641987
 30
0.0
 10
5.2487369718
 20
2.3965185941
 30
0.0
 10
5.248737062
 20
2.3965551962
 30
0.0
  0
SPLINE
  5
348
100
AcDbEntity
  8
0
100
AcDbSpline
 62
7
  6
CONTINUOUS
 70
0
 71
3
 72
36
 73
32
 74
0
 42
0.0000001
 43
0.0000001
 44
0.0000000001
 40
0.0
 40
0.0
 40
0.0
 40
0.0
 40
0.0002289173
 40
0.0005922
 40
0.0010975509
 40
0.0017476308
 40
0.0034860962
 40
0.0058122455
 40
0.0087269718
 40
0.0122287876
 40
0.0163156357
 40
0.0209852737
 40
0.0262353579
 40
0.0320634836
 40
0.0454429351
 40
0.0610917639
 40
0.0789716115
 40
0.0990437798
 40
0.1212625965
 40
0.1455727172
 40
0.1719180544
 40
0.2002394786
 40
0.2304669335
 40
0.2963490813
 40
0.3689402691
 40
0.447545162
 40
0.5314112326
 40
0.6197364743
 40
0.71165467
 40
0.8062860554
 40
1.0
 40
1.0
 40
1.0
 40
1.0
 10
5.2589856416
 20
2.3906380077
 30
0.0
 10
5.2589731304
 20
2.3906255097
 30
0.0
 10
5.2589312193
 20
2.3906041923
 30
0.0
 10
5.2588511028
 20
2.390577781
 30
0.0
 10
5.2587365718
 20
2.390550823
 30
0.0
 10
5.2585167811
 20
2.3905104193
 30
0.0
 10
5.2581554314
 20
2.3904627587
 30
0.0
 10
5.2576190502
 20
2.3904083633
 30
0.0
 10
5.2569458281
 20
2.390353616
 30
0.0
 10
5.2561362993
 20
2.3902984506
 30
0.0
 10
5.2551909329
 20
2.390243099
 30
0.0
 10
5.2541103246
 20
2.3901875938
 30
0.0
 10
5.2528950477
 20
2.3901319822
 30
0.0
 10
5.2510072602
 20
2.390054099
 30
0.0
 10
5.2483162381
 20
2.3899583274
 30
0.0
 10
5.2446942048
 20
2.389847531
 30
0.0
 10
5.2405549481
 20
2.3897364097
 30
0.0
 10
5.2359079968
 20
2.3896250375
 30
0.0
 10
5.2307641741
 20
2.3895134871
 30
0.0
 10
5.2251356408
 20
2.3894017634
 30
0.0
 10
5.2190355898
 20
2.389289905
 30
0.0
 10
5.2124783473
 20
2.3891779428
 30
0.0
 10
5.202867107
 20
2.3890240589
 30
0.0
 10
5.1898361237
 20
2.3888334116
 30
0.0
 10
5.173068011
 20
2.3886100965
 30
0.0
 10
5.154910508
 20
2.3883863086
 30
0.0
 10
5.1355374468
 20
2.3881620928
 30
0.0
 10
5.1151358532
 20
2.3879375373
 30
0.0
 10
5.0939025795
 20
2.3877126525
 30
0.0
 10
5.0645282487
 20
2.387410092
 30
0.0
 10
5.0422542894
 20
2.3871866664
 30
0.0
 10
5.0272903725
 20
2.3870362388
 30
0.0
  0
SPLINE
  5
349
100
AcDbEntity
  8
0
100
AcDbSpline
 62
7
  6
CONTINUOUS
 70
0
 71
3
 72
35
 73
31
 74
0
 42
0.0000001
 43
0.0000001
 44
0.0000000001
 40
0.0
 40
0.0
 40
0.0
 40
0.0
 40
0.0004909812
 40
0.0009070188
 40
0.0014565906
 40
0.0021450337
 40
0.0029750108
 40
0.0050647948
 40
0.0077318245
 40
0.0109768756
 40
0.0191975555
 40
0.029715775
 40
0.0425158314
 40
0.0575716661
 40
0.0748491669
 40
0.094313649
 40
0.1159273958
 40
0.1396416998
 40
0.1654051614
 40
0.1931661224
 40
0.2228662832
 40
0.287818679
 40
0.3597155026
 40
0.4379389863
 40
0.5218295679
 40
0.6106736081
 40
0.7037167449
 40
0.8001558031
 40
0.8991882605
 40
1.0
 40
1.0
 40
1.0
 40
1.0
 10
5.2610398827
 20
2.4121769699
 30
0.0
 10
5.261039884
 20
2.4121423047
 30
0.0
 10
5.2609816976
 20
2.4120906486
 30
0.0
 10
5.260893158
 20
2.4120469858
 30
0.0
 10
5.2607823171
 20
2.4120052586
 30
0.0
 10
5.2606425433
 20
2.4119646841
 30
0.0
 10
5.2603945624
 20
2.4119049738
 30
0.0
 10
5.2600065682
 20
2.4118335529
 30
0.0
 10
5.2594474351
 20
2.4117518075
 30
0.0
 10
5.2584566713
 20
2.4116327794
 30
0.0
 10
5.2569108738
 20
2.4114899053
 30
0.0
 10
5.2546900432
 20
2.4113267035
 30
0.0
 10
5.2519855848
 20
2.4111626396
 30
0.0
 10
5.2488032307
 20
2.4109977627
 30
0.0
 10
5.2451498149
 20
2.4108324327
 30
0.0
 10
5.2410329854
 20
2.4106667752
 30
0.0
 10
5.2364613705
 20
2.4105009306
 30
0.0
 10
5.2314447646
 20
2.410334907
 30
0.0
 10
5.2259939278
 20
2.4101687481
 30
0.0
 10
5.2201202871
 20
2.4100024979
 30
0.0
 10
5.2114804228
 20
2.4097738696
 30
0.0
 10
5.1997247595
 20
2.4094908382
 30
0.0
 10
5.1845433611
 20
2.4091599753
 30
0.0
 10
5.1680245699
 20
2.4088286739
 30
0.0
 10
5.1503090209
 20
2.4084970922
 30
0.0
 10
5.1315469777
 20
2.4081652672
 30
0.0
 10
5.1118988328
 20
2.4078333035
 30
0.0
 10
5.0915312484
 20
2.4075012154
 30
0.0
 10
5.0706151008
 20
2.4071690175
 30
0.0
 10
5.0565070183
 20
2.4069487943
 30
0.0
 10
5.0493901651
 20
2.4068381804
 30
0.0
  0
SPLINE
  5
34A
100
AcDbEntity
  8
0
100
AcDbSpline
 62
7
  6
CONTINUOUS
 70
0
 71
3
 72
33
 73
29
 74
0
 42
0.0000001
 43
0.0000001
 44
0.0000000001
 40
0.0
 40
0.0
 40
0.0
 40
0.0
 40
0.1930534473
 40
0.2872237735
 40
0.3786525396
 40
0.4665117563
 40
0.5499751618
 40
0.6282672669
 40
0.7006575715
 40
0.766474039
 40
0.8250922906
 40
0.8515291933
 40
0.8759626168
 40
0.8983364351
 40
0.918599824
 40
0.9367020813
 40
0.9525978629
 40
0.9662530625
 40
0.9776351831
 40
0.9824638472
 40
0.9867134162
 40
0.9903823278
 40
0.9934692413
 40
0.9959731252
 40
0.9978936361
 40
0.9992323243
 40
0.9996859641
 40
1.0
 40
1.0
 40
1.0
 40
1.0
 10
5.0272903725
 20
2.3870362388
 30
0.0
 10
5.0128427867
 20
2.3868910017
 30
0.0
 10
4.9913477574
 20
2.3866745683
 30
0.0
 10
4.9630105443
 20
2.3863803383
 30
0.0
 10
4.9425458184
 20
2.3861613397
 30
0.0
 10
4.9228824577
 20
2.3859422377
 30
0.0
 10
4.9042023228
 20
2.3857230479
 30
0.0
 10
4.8866799812
 20
2.3855038514
 30
0.0
 10
4.8704784639
 20
2.3852846958
 30
0.0
 10
4.8557495024
 20
2.3850657051
 30
0.0
 10
4.8444596741
 20
2.3848775903
 30
0.0
 10
4.8362668535
 20
2.3847251511
 30
0.0
 10
4.8307862956
 20
2.3846148013
 30
0.0
 10
4.8257678703
 20
2.3845044971
 30
0.0
 10
4.8212233984
 20
2.3843942851
 30
0.0
 10
4.8171639038
 20
2.3842842022
 30
0.0
 10
4.8135991682
 20
2.384174327
 30
0.0
 10
4.8105376402
 20
2.3840647561
 30
0.0
 10
4.808304436
 20
2.3839695441
 30
0.0
 10
4.8067751363
 20
2.3838916052
 30
0.0
 10
4.8058227154
 20
2.3838364843
 30
0.0
 10
4.8050008671
 20
2.3837815579
 30
0.0
 10
4.8043100387
 20
2.3837268027
 30
0.0
 10
4.8037503573
 20
2.3836727295
 30
0.0
 10
4.8033225477
 20
2.3836189131
 30
0.0
 10
4.8030480428
 20
2.3835722326
 30
0.0
 10
4.8028959477
 20
2.3835310487
 30
0.0
 10
4.8028419365
 20
2.3835101855
 30
0.0
 10
4.8028215905
 20
2.3834984201
 30
0.0
  0
SPLINE
  5
34B
100
AcDbEntity
  8
0
100
AcDbSpline
 62
7
  6
CONTINUOUS
 70
0
 71
3
 72
31
 73
27
 74
0
 42
0.0000001
 43
0.0000001
 44
0.0000000001
 40
0.0
 40
0.0
 40
0.0
 40
0.0
 40
0.1937713498
 40
0.2879519567
 40
0.3792336184
 40
0.4668064352
 40
0.5498907215
 40
0.6277544713
 40
0.6997142609
 40
0.7651310886
 40
0.8234299556
 40
0.8497451641
 40
0.8740943003
 40
0.8964212408
 40
0.9166763452
 40
0.9348182463
 40
0.9508062546
 40
0.9646033042
 40
0.9761832749
 40
0.9855229292
 40
0.9893460024
 40
0.9926025129
 40
0.9952927473
 40
0.9974181479
 40
0.9989829048
 40
1.0
 40
1.0
 40
1.0
 40
1.0
 10
5.0181389172
 20
2.4063540837
 30
0.0
 10
5.0036315641
 20
2.4061294399
 30
0.0
 10
4.982073075
 20
2.4057945033
 30
0.0
 10
4.9536807088
 20
2.4053388045
 30
0.0
 10
4.9332393556
 20
2.4050003603
 30
0.0
 10
4.9136289812
 20
2.4046620666
 30
0.0
 10
4.8950234573
 20
2.4043239823
 30
0.0
 10
4.877587195
 20
2.4039861666
 30
0.0
 10
4.8614740816
 20
2.4036487818
 30
0.0
 10
4.8468262752
 20
2.4033118768
 30
0.0
 10
4.8355960478
 20
2.4030228803
 30
0.0
 10
4.8274405179
 20
2.4027888794
 30
0.0
 10
4.8219777391
 20
2.402619552
 30
0.0
 10
4.8169689558
 20
2.402450367
 30
0.0
 10
4.8124252376
 20
2.402281345
 30
0.0
 10
4.8083565105
 20
2.4021126129
 30
0.0
 10
4.8047717965
 20
2.4019442594
 30
0.0
 10
4.8016789912
 20
2.401776506
 30
0.0
 10
4.7990848361
 20
2.4016094718
 30
0.0
 10
4.7972377516
 20
2.401463729
 30
0.0
 10
4.7960142149
 20
2.4013433494
 30
0.0
 10
4.7952873877
 20
2.4012595394
 30
0.0
 10
4.7946888364
 20
2.4011761294
 30
0.0
 10
4.794217625
 20
2.4010940346
 30
0.0
 10
4.7938753067
 20
2.4010127282
 30
0.0
 10
4.7936904703
 20
2.4009494014
 30
0.0
 10
4.793624485
 20
2.4009113764
 30
0.0
  0
LINE
  5
34C
100
AcDbEntity
  8
0
100
AcDbLine
 62
7
  6
CONTINUOUS
 10
4.7935407217
 20
2.4205635907
 11
4.7948389805
 21
2.4209386557
  0
SPLINE
  5
34D
100
AcDbEntity
  8
0
100
AcDbSpline
 62
7
  6
CONTINUOUS
 70
0
 71
3
 72
23
 73
19
 74
0
 42
0.0000001
 43
0.0000001
 44
0.0000000001
 40
0.0
 40
0.0
 40
0.0
 40
0.0
 40
0.0059327818
 40
0.013939763
 40
0.0240066705
 40
0.0361132784
 40
0.0502381096
 40
0.0663526633
 40
0.104406935
 40
0.1499654879
 40
0.202642881
 40
0.2620015233
 40
0.3275421061
 40
0.3987151876
 40
0.474927564
 40
0.6398815523
 40
0.8168739674
 40
1.0
 40
1.0
 40
1.0
 40
1.0
 10
4.7948389805
 20
2.4209386557
 30
0.0
 10
4.7952939418
 20
2.421005576
 30
0.0
 10
4.7963679234
 20
2.4211277246
 30
0.0
 10
4.7982217659
 20
2.4212884796
 30
0.0
 10
4.8005555876
 20
2.4214505326
 30
0.0
 10
4.8033643971
 20
2.4216137923
 30
0.0
 10
4.8066426245
 20
2.4217776103
 30
0.0
 10
4.8119310768
 20
2.4220096444
 30
0.0
 10
4.8196559613
 20
2.4222927162
 30
0.0
 10
4.8302149714
 20
2.4226186084
 30
0.0
 10
4.8424259539
 20
2.4229456879
 30
0.0
 10
4.856186224
 20
2.4232736596
 30
0.0
 10
4.8713804687
 20
2.4236021897
 30
0.0
 10
4.8878813342
 20
2.423931148
 30
0.0
 10
4.9120869236
 20
2.4243820769
 30
0.0
 10
4.944494158
 20
2.4249364524
 30
0.0
 10
4.9851879164
 20
2.4255871982
 30
0.0
 10
5.0130977654
 20
2.4260189895
 30
0.0
 10
5.0272903727
 20
2.4262385907
 30
0.0
  0
SPLINE
  5
34E
100
AcDbEntity
  8
0
100
AcDbSpline
 62
7
  6
CONTINUOUS
 70
0
 71
3
 72
59
 73
55
 74
0
 42
0.0000001
 43
0.0000001
 44
0.0000000001
 40
0.0
 40
0.0
 40
0.0
 40
0.0
 40
0.000260434
 40
0.0004794516
 40
0.0007662176
 40
0.0015508872
 40
0.0026227684
 40
0.0039842043
 40
0.0056359668
 40
0.0075781937
 40
0.0098105861
 40
0.0151404168
 40
0.0216124698
 40
0.0292126778
 40
0.0379256275
 40
0.0477296455
 40
0.0586007103
 40
0.070514694
 40
0.0834444089
 40
0.097357559
 40
0.1122213407
 40
0.1446628299
 40
0.1804597563
 40
0.2192772586
 40
0.2607462661
 40
0.3044770455
 40
0.350055519
 40
0.3970516936
 40
0.4450216626
 40
0.4935122474
 40
0.590222945
 40
0.637529468
 40
0.6835385392
 40
0.7278156298
 40
0.7699420648
 40
0.8095213112
 40
0.846177566
 40
0.8795676152
 40
0.9093731354
 40
0.9228442497
 40
0.9353162881
 40
0.9467600092
 40
0.9571502237
 40
0.9664619559
 40
0.9746716274
 40
0.9817619553
 40
0.987717685
 40
0.9925241019
 40
0.9944929378
 40
0.9961715812
 40
0.9975600105
 40
0.9986587945
 40
0.9994699387
 40
1.0
 40
1.0
 40
1.0
 40
1.0
 10
4.8058438529
 20
2.4134603639
 30
0.0
 10
4.8058479001
 20
2.4134986162
 30
0.0
 10
4.8059144231
 20
2.4135503032
 30
0.0
 10
4.8060127438
 20
2.4135973339
 30
0.0
 10
4.8061943159
 20
2.4136623993
 30
0.0
 10
4.8065011881
 20
2.4137365803
 30
0.0
 10
4.8069693733
 20
2.4138223058
 30
0.0
 10
4.8075664894
 20
2.4139081523
 30
0.0
 10
4.8082933567
 20
2.4139948928
 30
0.0
 10
4.8091495076
 20
2.4140818717
 30
0.0
 10
4.8105478789
 20
2.4142055725
 30
0.0
 10
4.8126153377
 20
2.4143562396
 30
0.0
 10
4.8154758024
 20
2.4145293756
 30
0.0
 10
4.8188366909
 20
2.4147031327
 30
0.0
 10
4.8226902412
 20
2.4148773773
 30
0.0
 10
4.8270273126
 20
2.4150519581
 30
0.0
 10
4.8318375033
 20
2.4152267996
 30
0.0
 10
4.8371096254
 20
2.4154017994
 30
0.0
 10
4.8428312821
 20
2.4155768996
 30
0.0
 10
4.8489888046
 20
2.4157521202
 30
0.0
 10
4.8580274727
 20
2.4159929378
 30
0.0
 10
4.8702979442
 20
2.4162909593
 30
0.0
 10
4.8861061103
 20
2.4166396766
 30
0.0
 10
4.9032479174
 20
2.4169887571
 30
0.0
 10
4.9215617607
 20
2.4173381957
 30
0.0
 10
4.9408743571
 20
2.4176878339
 30
0.0
 10
4.9610034323
 20
2.4180376446
 30
0.0
 10
4.9817587189
 20
2.4183875614
 30
0.0
 10
5.0029441784
 20
2.4187375456
 30
0.0
 10
5.0314714807
 20
2.4192038214
 30
0.0
 10
5.0599008228
 20
2.4196675103
 30
0.0
 10
5.0879634943
 20
2.4201375369
 30
0.0
 10
5.1082827231
 20
2.4204873815
 30
0.0
 10
5.1278367463
 20
2.420837073
 30
0.0
 10
5.1464409392
 20
2.4211865737
 30
0.0
 10
5.1639193423
 20
2.4215357651
 30
0.0
 10
5.180107128
 20
2.421884581
 30
0.0
 10
5.1948509973
 20
2.4222328108
 30
0.0
 10
5.2061706385
 20
2.4225315164
 30
0.0
 10
5.2144010916
 20
2.4227733009
 30
0.0
 10
5.2199203086
 20
2.4229483701
 30
0.0
 10
5.2249842387
 20
2.4231233021
 30
0.0
 10
5.2295810999
 20
2.4232980274
 30
0.0
 10
5.233699931
 20
2.4234724547
 30
0.0
 10
5.2373308968
 20
2.4236465624
 30
0.0
 10
5.2404655893
 20
2.4238200241
 30
0.0
 10
5.2430967487
 20
2.4239927088
 30
0.0
 10
5.2449712129
 20
2.4241433855
 30
0.0
 10
5.2462136436
 20
2.424267806
 30
0.0
 10
5.2469524836
 20
2.4243544381
 30
0.0
 10
5.2475616237
 20
2.4244406542
 30
0.0
 10
5.2480418973
 20
2.4245255677
 30
0.0
 10
5.248391715
 20
2.4246096523
 30
0.0
 10
5.2485808438
 20
2.4246751894
 30
0.0
 10
5.2486486489
 20
2.4247143261
 30
0.0
  0
SPLINE
  5
34F
100
AcDbEntity
  8
0
100
AcDbSpline
 62
7
  6
CONTINUOUS
 70
0
 71
3
 72
31
 73
27
 74
0
 42
0.0000001
 43
0.0000001
 44
0.0000000001
 40
0.0
 40
0.0
 40
0.0
 40
0.0
 40
0.1918047081
 40
0.2854718111
 40
0.3764781033
 40
0.4639903566
 40
0.5471819195
 40
0.6252835908
 40
0.6975696007
 40
0.763369437
 40
0.822069546
 40
0.848583824
 40
0.873122312
 40
0.8956314002
 40
0.9160581737
 40
0.9343520788
 40
0.9504740553
 40
0.9643888173
 40
0.976061923
 40
0.9854684843
 40
0.989317118
 40
0.9925939173
 40
0.9952979673
 40
0.9974294803
 40
0.998992162
 40
1.0
 40
1.0
 40
1.0
 40
1.0
 10
5.0272903727
 20
2.4292207199
 30
0.0
 10
5.012345167
 20
2.4289894738
 30
0.0
 10
4.9901015248
 20
2.4286453812
 30
0.0
 10
4.9607669781
 20
2.4281786387
 30
0.0
 10
4.9395588829
 20
2.4278314271
 30
0.0
 10
4.9191672377
 20
2.4274843826
 30
0.0
 10
4.8997813748
 20
2.4271375208
 30
0.0
 10
4.8815822603
 20
2.426790966
 30
0.0
 10
4.8647387052
 20
2.4264448044
 30
0.0
 10
4.8494074149
 20
2.4260991804
 30
0.0
 10
4.8376428608
 20
2.4258027196
 30
0.0
 10
4.82909338
 20
2.4255627072
 30
0.0
 10
4.8233634658
 20
2.4253889472
 30
0.0
 10
4.8181081698
 20
2.4252153576
 30
0.0
 10
4.8133397852
 20
2.4250419785
 30
0.0
 10
4.8090694876
 20
2.4248688433
 30
0.0
 10
4.8053071129
 20
2.4246960744
 30
0.0
 10
4.8020612518
 20
2.4245239925
 30
0.0
 10
4.799339555
 20
2.4243526359
 30
0.0
 10
4.797402544
 20
2.4242030603
 30
0.0
 10
4.796120157
 20
2.4240795596
 30
0.0
 10
4.7953588853
 20
2.423993629
 30
0.0
 10
4.7947326197
 20
2.4239081089
 30
0.0
 10
4.7942405384
 20
2.4238240043
 30
0.0
 10
4.7938844636
 20
2.4237406204
 30
0.0
 10
4.7936926121
 20
2.4236756863
 30
0.0
 10
4.7936246188
 20
2.4236363761
 30
0.0
  0
SPLINE
  5
350
100
AcDbEntity
  8
0
100
AcDbSpline
 62
7
  6
CONTINUOUS
 70
0
 71
3
 72
36
 73
32
 74
0
 42
0.0000001
 43
0.0000001
 44
0.0000000001
 40
0.0
 40
0.0
 40
0.0
 40
0.0
 40
0.0004840357
 40
0.0009049764
 40
0.0014642611
 40
0.00216686
 40
0.0030152357
 40
0.0051538493
 40
0.0078844839
 40
0.0112074846
 40
0.0151219704
 40
0.0196264815
 40
0.0303982455
 40
0.043502918
 40
0.0589068475
 40
0.0765734372
 40
0.0964645877
 40
0.1185310713
 40
0.142717632
 40
0.1689687706
 40
0.1972226828
 40
0.2274079932
 40
0.2932819404
 40
0.3659578818
 40
0.4447384376
 40
0.5288656376
 40
0.6175338689
 40
0.7098760663
 40
0.8050159674
 40
0.9020663483
 40
1.0
 40
1.0
 40
1.0
 40
1.0
 10
4.7935408113
 20
2.3978323406
 30
0.0
 10
4.7935407912
 20
2.3978700815
 30
0.0
 10
4.7936082086
 20
2.3979248474
 30
0.0
 10
4.7937070224
 20
2.3979707183
 30
0.0
 10
4.7938326884
 20
2.3980151375
 30
0.0
 10
4.7939908314
 20
2.3980582618
 30
0.0
 10
4.7942718038
 20
2.3981218223
 30
0.0
 10
4.7947111108
 20
2.3981977892
 30
0.0
 10
4.7953440581
 20
2.3982847555
 30
0.0
 10
4.7961163954
 20
2.3983720946
 30
0.0
 10
4.7970277507
 20
2.398459897
 30
0.0
 10
4.7985188836
 20
2.3985848073
 30
0.0
 10
4.8007266495
 20
2.3987369741
 30
0.0
 10
4.8037844388
 20
2.3989117038
 30
0.0
 10
4.8073805389
 20
2.3990871123
 30
0.0
 10
4.8115062982
 20
2.3992630716
 30
0.0
 10
4.8161519503
 20
2.3994393163
 30
0.0
 10
4.8213062899
 20
2.3996158061
 30
0.0
 10
4.826956783
 20
2.3997924899
 30
0.0
 10
4.8330899301
 20
2.3999692942
 30
0.0
 10
4.8396909848
 20
2.4001461869
 30
0.0
 10
4.8493808029
 20
2.400389311
 30
0.0
 10
4.8625338862
 20
2.400690201
 30
0.0
 10
4.8794757825
 20
2.4010422283
 30
0.0
 10
4.8978411828
 20
2.4013946595
 30
0.0
 10
4.9174537293
 20
2.4017474464
 30
0.0
 10
4.9381238527
 20
2.4021004325
 30
0.0
 10
4.9596527674
 20
2.4024535996
 30
0.0
 10
4.981835332
 20
2.4028069009
 30
0.0
 10
5.004453923
 20
2.4031602453
 30
0.0
 10
5.019655269
 20
2.4033954533
 30
0.0
 10
5.0272903727
 20
2.4035135907
 30
0.0
  0
SPLINE
  5
351
100
AcDbEntity
  8
0
100
AcDbSpline
 62
7
  6
CONTINUOUS
 70
0
 71
3
 72
31
 73
27
 74
0
 42
0.0000001
 43
0.0000001
 44
0.0000000001
 40
0.0
 40
0.0
 40
0.0
 40
0.0
 40
0.0010090342
 40
0.0025733082
 40
0.004705353
 40
0.0074087893
 40
0.0106844965
 40
0.0145322423
 40
0.0239401608
 40
0.0356155575
 40
0.0495293207
 40
0.0656508848
 40
0.0839473538
 40
0.1043739603
 40
0.1268814265
 40
0.1514202931
 40
0.1779351999
 40
0.2366320905
 40
0.3024320158
 40
0.3747169877
 40
0.4528205855
 40
0.536014358
 40
0.6235253435
 40
0.7145283592
 40
0.8081955819
 40
1.0
 40
1.0
 40
1.0
 40
1.0
 10
5.2609564735
 20
2.4318229342
 30
0.0
 10
5.2608883846
 20
2.431783603
 30
0.0
 10
5.2606962851
 20
2.4317187102
 30
0.0
 10
5.2603399488
 20
2.431635334
 30
0.0
 10
5.2598477491
 20
2.4315512149
 30
0.0
 10
5.2592215779
 20
2.4314656772
 30
0.0
 10
5.2584605094
 20
2.4313797371
 30
0.0
 10
5.2571781721
 20
2.4312562076
 30
0.0
 10
5.2552409399
 20
2.4311066608
 30
0.0
 10
5.2525190317
 20
2.4309353245
 30
0.0
 10
5.2492730996
 20
2.4307632035
 30
0.0
 10
5.2455106303
 20
2.4305904224
 30
0.0
 10
5.2412401708
 20
2.4304173201
 30
0.0
 10
5.2364717198
 20
2.430243929
 30
0.0
 10
5.231216527
 20
2.4300703286
 30
0.0
 10
5.2254866525
 20
2.4298965821
 30
0.0
 10
5.2169373319
 20
2.4296565897
 30
0.0
 10
5.2051729573
 20
2.4293601079
 30
0.0
 10
5.1898419703
 20
2.4290145138
 30
0.0
 10
5.1729983165
 20
2.428668337
 30
0.0
 10
5.1547989358
 20
2.4283217837
 30
0.0
 10
5.1354128232
 20
2.4279749174
 30
0.0
 10
5.1150213323
 20
2.4276278736
 30
0.0
 10
5.093813553
 20
2.4272806694
 30
0.0
 10
5.0644792352
 20
2.4268139289
 30
0.0
 10
5.0422355761
 20
2.4264698367
 30
0.0
 10
5.0272903727
 20
2.4262385907
 30
0.0
  0
SPLINE
  5
352
100
AcDbEntity
  8
0
100
AcDbSpline
 62
7
  6
CONTINUOUS
 70
0
 71
3
 72
35
 73
31
 74
0
 42
0.0000001
 43
0.0000001
 44
0.0000000001
 40
0.0
 40
0.0
 40
0.0
 40
0.0
 40
0.0004997262
 40
0.0009277909
 40
0.0014944059
 40
0.0022047537
 40
0.0030613659
 40
0.0052181817
 40
0.00797082
 40
0.0113213293
 40
0.0198111125
 40
0.0306690658
 40
0.0438716785
 40
0.0593918454
 40
0.0771887619
 40
0.0972165315
 40
0.1194288413
 40
0.1437714434
 40
0.1701800247
 40
0.1985895648
 40
0.2289327
 40
0.2951025253
 40
0.3680307076
 40
0.4469858013
 40
0.531183984
 40
0.6197801517
 40
0.7118927555
 40
0.8065998694
 40
0.9029565531
 40
1.0
 40
1.0
 40
1.0
 40
1.0
 10
4.8058437906
 20
2.4361791144
 30
0.0
 10
4.8058438877
 20
2.4362171045
 30
0.0
 10
4.8059094758
 20
2.4362729321
 30
0.0
 10
4.8060075404
 20
2.4363200209
 30
0.0
 10
4.8061310635
 20
2.4363652451
 30
0.0
 10
4.8062866126
 20
2.4364092034
 30
0.0
 10
4.8065625786
 20
2.4364739173
 30
0.0
 10
4.8069940838
 20
2.4365513275
 30
0.0
 10
4.8076158676
 20
2.4366399482
 30
0.0
 10
4.8087177837
 20
2.4367689501
 30
0.0
 10
4.8104366392
 20
2.4369237487
 30
0.0
 10
4.8129048956
 20
2.4371006073
 30
0.0
 10
4.8159087079
 20
2.4372784658
 30
0.0
 10
4.8194407348
 20
2.4374571552
 30
0.0
 10
4.823492178
 20
2.4376363273
 30
0.0
 10
4.8280527889
 20
2.4378158753
 30
0.0
 10
4.8331113524
 20
2.4379956421
 30
0.0
 10
4.838655269
 20
2.4381755671
 30
0.0
 10
4.8446705335
 20
2.4383556442
 30
0.0
 10
4.8511421559
 20
2.4385358379
 30
0.0
 10
4.8606357881
 20
2.4387833727
 30
0.0
 10
4.8735134091
 20
2.4390897797
 30
0.0
 10
4.8900863669
 20
2.4394482862
 30
0.0
 10
4.9080301606
 20
2.4398072508
 30
0.0
 10
4.9271652807
 20
2.4401665126
 30
0.0
 10
4.9473008223
 20
2.4405260259
 30
0.0
 10
4.9682353925
 20
2.4408856807
 30
0.0
 10
4.9897600147
 20
2.4412454524
 30
0.0
 10
5.0116595393
 20
2.4416052824
 30
0.0
 10
5.0263602418
 20
2.4418451369
 30
0.0
 10
5.0337366913
 20
2.4419656641
 30
0.0
  0
SPLINE
  5
353
100
AcDbEntity
  8
0
100
AcDbSpline
 62
7
  6
CONTINUOUS
 70
0
 71
3
 72
12
 73
8
 74
0
 42
0.0000001
 43
0.0000001
 44
0.0000000001
 40
0.0
 40
0.0
 40
0.0
 40
0.0
 40
0.2932989967
 40
0.5678289122
 40
0.8079525476
 40
0.9107414825
 40
1.0
 40
1.0
 40
1.0
 40
1.0
 10
5.0337366913
 20
2.4419656641
 30
0.0
 10
5.0511626378
 20
2.4422503948
 30
0.0
 10
5.0848993723
 20
2.4428031776
 30
0.0
 10
5.132901831
 20
2.4436411371
 30
0.0
 10
5.1695841652
 20
2.444364552
 30
0.0
 10
5.1952574422
 20
2.4449646633
 30
0.0
 10
5.2066651397
 20
2.4452704683
 30
0.0
 10
5.2119666953
 20
2.4454273689
 30
0.0
  0
LINE
  5
354
100
AcDbEntity
  8
0
100
AcDbLine
 62
7
  6
CONTINUOUS
 10
5.2119666953
 20
2.4454273689
 11
5.2123293299
 21
2.4454381254
  0
SPLINE
  5
355
100
AcDbEntity
  8
0
100
AcDbSpline
 62
7
  6
CONTINUOUS
 70
0
 71
3
 72
11
 73
7
 74
0
 42
0.0000001
 43
0.0000001
 44
0.0000000001
 40
0.0
 40
0.0
 40
0.0
 40
0.0
 40
0.3241935003
 40
0.6002719926
 40
0.8261278598
 40
1.0
 40
1.0
 40
1.0
 40
1.0
 10
5.2123293299
 20
2.4454381254
 30
0.0
 10
5.2156082431
 20
2.4455356049
 30
0.0
 10
5.2216791157
 20
2.4457269165
 30
0.0
 10
5.2300327417
 20
2.4460343191
 30
0.0
 10
5.2368641186
 20
2.4463397861
 30
0.0
 10
5.2409025581
 20
2.4465689819
 30
0.0
 10
5.2426575716
 20
2.4466921553
 30
0.0
  0
LINE
  5
356
100
AcDbEntity
  8
0
100
AcDbLine
 62
7
  6
CONTINUOUS
 10
4.7936255029
 20
2.4463613775
 11
4.795172734
 21
2.4466921553
  0
SPLINE
  5
357
100
AcDbEntity
  8
0
100
AcDbSpline
 62
7
  6
CONTINUOUS
 70
0
 71
3
 72
30
 73
26
 74
0
 42
0.0000001
 43
0.0000001
 44
0.0000000001
 40
0.0
 40
0.0
 40
0.0
 40
0.0
 40
0.001056587
 40
0.0026578442
 40
0.0048178166
 40
0.0075416667
 40
0.0108309139
 40
0.0146845139
 40
0.0240772496
 40
0.035702782
 40
0.0495413694
 40
0.0655642793
 40
0.0837333224
 40
0.1040095734
 40
0.1263526601
 40
0.1770309316
 40
0.2353225695
 40
0.300715493
 40
0.3726372709
 40
0.4504525163
 40
0.5334812105
 40
0.6209890139
 40
0.7122105678
 40
0.8063401112
 40
1.0
 40
1.0
 40
1.0
 40
1.0
 10
4.8059325953
 20
2.4307449843
 30
0.0
 10
4.805997355
 20
2.4307823872
 30
0.0
 10
4.806176476
 20
2.4308457353
 30
0.0
 10
4.8065071592
 20
2.4309269431
 30
0.0
 10
4.8069592883
 20
2.4310089934
 30
0.0
 10
4.8075317014
 20
2.4310921985
 30
0.0
 10
4.8082251393
 20
2.431175798
 30
0.0
 10
4.8093893773
 20
2.4312957849
 30
0.0
 10
4.8111439438
 20
2.4314412094
 30
0.0
 10
4.8136055025
 20
2.4316079182
 30
0.0
 10
4.8165372188
 20
2.4317752961
 30
0.0
 10
4.8199326784
 20
2.4319432719
 30
0.0
 10
4.8237842659
 20
2.4321116212
 30
0.0
 10
4.8280835594
 20
2.4322802593
 30
0.0
 10
4.8346829714
 20
2.432515291
 30
0.0
 10
4.843972821
 20
2.4328044295
 30
0.0
 10
4.8563096481
 20
2.4331397316
 30
0.0
 10
4.870150559
 20
2.4334757859
 30
0.0
 10
4.8853736975
 20
2.433812403
 30
0.0
 10
4.9018453631
 20
2.4341494291
 30
0.0
 10
4.9194204135
 20
2.4344867088
 30
0.0
 10
4.9379445197
 20
2.434824217
 30
0.0
 10
4.9572544637
 20
2.4351618509
 30
0.0
 10
4.9840769279
 20
2.4356164815
 30
0.0
 10
5.004443863
 20
2.4359505711
 30
0.0
 10
5.0181492372
 20
2.4361746063
 30
0.0
  0
SPLINE
  5
358
100
AcDbEntity
  8
0
100
AcDbSpline
 62
7
  6
CONTINUOUS
 70
0
 71
3
 72
34
 73
30
 74
0
 42
0.0000001
 43
0.0000001
 44
0.0000000001
 40
0.0
 40
0.0
 40
0.0
 40
0.0
 40
0.1009253063
 40
0.2000639895
 40
0.2965771785
 40
0.3896524963
 40
0.478501819
 40
0.5623774994
 40
0.6405699177
 40
0.7124202274
 40
0.7773225679
 40
0.8347282226
 40
0.8604665456
 40
0.8841568851
 40
0.9057461469
 40
0.9251885634
 40
0.9424474191
 40
0.9574867757
 40
0.9702719466
 40
0.9807792323
 40
0.9889932415
 40
0.9922366438
 40
0.9949032924
 40
0.9969943509
 40
0.997825892
 40
0.9985167101
 40
0.99906974
 40
0.9994908083
 40
1.0
 40
1.0
 40
1.0
 40
1.0
 10
5.0493949809
 20
2.4366855739
 30
0.0
 10
5.0561060063
 20
2.4367957329
 30
0.0
 10
5.0694092392
 20
2.4370150949
 30
0.0
 10
5.0891300098
 20
2.4373460843
 30
0.0
 10
5.1083286515
 20
2.4376770049
 30
0.0
 10
5.1268429078
 20
2.4380077956
 30
0.0
 10
5.1445165835
 20
2.4383384395
 30
0.0
 10
5.1612003108
 20
2.4386688489
 30
0.0
 10
5.1767533073
 20
2.4389989667
 30
0.0
 10
5.191044208
 20
2.4393286398
 30
0.0
 10
5.2039523174
 20
2.4396577481
 30
0.0
 10
5.2137939464
 20
2.4399405312
 30
0.0
 10
5.2208951581
 20
2.4401697146
 30
0.0
 10
5.2256152382
 20
2.4403351431
 30
0.0
 10
5.229916343
 20
2.4405004076
 30
0.0
 10
5.2337893897
 20
2.4406654819
 30
0.0
 10
5.2372264215
 20
2.4408302195
 30
0.0
 10
5.2402201651
 20
2.4409945023
 30
0.0
 10
5.2427642
 20
2.4411579998
 30
0.0
 10
5.2448532304
 20
2.4413206235
 30
0.0
 10
5.2463072551
 20
2.4414629863
 30
0.0
 10
5.2472391131
 20
2.441581583
 30
0.0
 10
5.2477650517
 20
2.4416630394
 30
0.0
 10
5.2481299821
 20
2.44173423
 30
0.0
 10
5.2483630959
 20
2.4417936992
 30
0.0
 10
5.2484946642
 20
2.441834178
 30
0.0
 10
5.2485988144
 20
2.4418757332
 30
0.0
 10
5.2486831832
 20
2.4419197995
 30
0.0
 10
5.2487367028
 20
2.4419713334
 30
0.0
 10
5.2487367048
 20
2.4420051966
 30
0.0
  0
SPLINE
  5
359
100
AcDbEntity
  8
0
100
AcDbSpline
 62
7
  6
CONTINUOUS
 70
0
 71
3
 72
59
 73
55
 74
0
 42
0.0000001
 43
0.0000001
 44
0.0000000001
 40
0.0
 40
0.0
 40
0.0
 40
0.0
 40
0.0005307363
 40
0.0013426915
 40
0.0024425151
 40
0.0038323275
 40
0.0055128185
 40
0.0074840888
 40
0.012296429
 40
0.0182583686
 40
0.0253561005
 40
0.0335752377
 40
0.0428970546
 40
0.0532978652
 40
0.0647536292
 40
0.0772392633
 40
0.0907240107
 40
0.1205596985
 40
0.1539823795
 40
0.190673801
 40
0.2302887204
 40
0.2724522047
 40
0.3167653376
 40
0.3628100433
 40
0.4101499108
 40
0.5069188893
 40
0.5554327833
 40
0.603420842
 40
0.650429927
 40
0.6960146064
 40
0.7397453582
 40
0.7812067659
 40
0.8200091613
 40
0.8557835974
 40
0.8881937433
 40
0.9030394178
 40
0.9169327238
 40
0.9298396746
 40
0.9417289022
 40
0.9525743121
 40
0.9623504832
 40
0.9710325483
 40
0.9786011243
 40
0.9850403358
 40
0.9903346927
 40
0.9944717285
 40
0.9961047857
 40
0.9974473785
 40
0.9985001671
 40
0.998918581
 40
0.9992657519
 40
0.9995429203
 40
0.9997526817
 40
1.0
 40
1.0
 40
1.0
 40
1.0
 10
4.8059323623
 20
2.4080199843
 30
0.0
 10
4.8060002916
 20
2.4080591071
 30
0.0
 10
4.8061896366
 20
2.4081246638
 30
0.0
 10
4.8065398353
 20
2.4082088015
 30
0.0
 10
4.807020584
 20
2.40829379
 30
0.0
 10
4.8076303578
 20
2.4083800914
 30
0.0
 10
4.8083700387
 20
2.4084668135
 30
0.0
 10
4.809613989
 20
2.4085913442
 30
0.0
 10
4.8114906281
 20
2.4087421067
 30
0.0
 10
4.8141247046
 20
2.4089149002
 30
0.0
 10
4.8172628456
 20
2.4090884414
 30
0.0
 10
4.820897839
 20
2.4092626082
 30
0.0
 10
4.8250211732
 20
2.4094371324
 30
0.0
 10
4.8296229237
 20
2.4096119666
 30
0.0
 10
4.8346922677
 20
2.4097870015
 30
0.0
 10
4.8402173532
 20
2.4099621558
 30
0.0
 10
4.8484563845
 20
2.4102040845
 30
0.0
 10
4.859787454
 20
2.4105029379
 30
0.0
 10
4.8745459736
 20
2.4108513669
 30
0.0
 10
4.8907492407
 20
2.4112003631
 30
0.0
 10
4.9082437931
 20
2.4115497563
 30
0.0
 10
4.9268642787
 20
2.4118994361
 30
0.0
 10
4.9464346002
 20
2.4122493274
 30
0.0
 10
4.9667695897
 20
2.4125993556
 30
0.0
 10
4.994851401
 20
2.4130696257
 30
0.0
 10
5.0232980667
 20
2.4135335629
 30
0.0
 10
5.05184044
 20
2.4140001077
 30
0.0
 10
5.0730341794
 20
2.4143502854
 30
0.0
 10
5.0937952142
 20
2.4147003854
 30
0.0
 10
5.1139273533
 20
2.41505039
 30
0.0
 10
5.1332399738
 20
2.4154002101
 30
0.0
 10
5.1515506803
 20
2.4157498364
 30
0.0
 10
5.1686860174
 20
2.4160991046
 30
0.0
 10
5.1844841892
 20
2.4164479906
 30
0.0
 10
5.1967441783
 20
2.4167462006
 30
0.0
 10
5.2057727151
 20
2.416987171
 30
0.0
 10
5.2119213396
 20
2.4171624753
 30
0.0
 10
5.2176331094
 20
2.4173376722
 30
0.0
 10
5.2228944792
 20
2.4175127687
 30
0.0
 10
5.2276931606
 20
2.4176876807
 30
0.0
 10
5.2320178075
 20
2.4178623373
 30
0.0
 10
5.235858044
 20
2.4180366811
 30
0.0
 10
5.2392048532
 20
2.418210592
 30
0.0
 10
5.2420505991
 20
2.4183836112
 30
0.0
 10
5.2443884176
 20
2.4185556319
 30
0.0
 10
5.2460159241
 20
2.4187063222
 30
0.0
 10
5.2470590052
 20
2.4188318573
 30
0.0
 10
5.2476478474
 20
2.4189180807
 30
0.0
 10
5.2480566312
 20
2.4189933925
 30
0.0
 10
5.2483180659
 20
2.4190563413
 30
0.0
 10
5.2484655081
 20
2.4190991207
 30
0.0
 10
5.248582447
 20
2.4191431265
 30
0.0
 10
5.2486758201
 20
2.4191891229
 30
0.0
 10
5.2487371599
 20
2.4192436681
 30
0.0
 10
5.248737071
 20
2.419280197
 30
0.0
  0
ELLIPSE
  5
35A
100
AcDbEntity
  8
0
100
AcDbEllipse
 62
7
  6
CONTINUOUS
 10
5.0272903727
 20
6.7579771432
 30
0.0
 11
0.0
 21
0.4074277131
 31
0.0
 40
0.9971093938
 41
0.0
 42
6.2831853072
  0
ELLIPSE
  5
35B
100
AcDbEntity
  8
ALL_ASSEMBLY_MEMBERS
100
AcDbEllipse
 62
7
  6
CONTINUOUS
 10
5.3401028102
 20
6.7396581913
 30
0.0
 11
0.5927410065
 21
-0.0552618595
 31
0.0
 40
0.8483240598
 41
-2.2135441215
 42
-2.1789912941
  0
ELLIPSE
  5
35C
100
AcDbEntity
  8
ALL_ASSEMBLY_MEMBERS
100
AcDbEllipse
 62
7
  6
CONTINUOUS
 10
5.0272903727
 20
7.0793275586
 30
0.0
 11
-0.0
 21
0.6340235917
 31
0.0
 40
0.8731530113
 41
-3.8733588687
 42
-3.8366088562
  0
ELLIPSE
  5
35D
100
AcDbEntity
  8
ALL_ASSEMBLY_MEMBERS
100
AcDbEllipse
 62
7
  6
CONTINUOUS
 10
5.0272903727
 20
7.0793275586
 30
0.0
 11
-0.0
 21
0.6340235917
 31
0.0
 40
0.8731530113
 41
-2.446576451
 42
-2.4098264385
  0
ELLIPSE
  5
35E
100
AcDbEntity
  8
ALL_ASSEMBLY_MEMBERS
100
AcDbEllipse
 62
7
  6
CONTINUOUS
 10
4.7144779352
 20
6.7396581913
 30
0.0
 11
0.5927410065
 21
0.0552618595
 31
0.0
 40
0.8483240598
 41
-0.9626013595
 42
-0.9280485321
  0
ENDSEC
  0
SECTION
  2
OBJECTS
  0
DICTIONARY
  5
C
100
AcDbDictionary
280
0
281
1
  3
ACAD_GROUP
350
D
  3
ACAD_MLINESTYLE
350
17
  3
ACAD_LAYOUT
350
1A
  3
ACAD_PLOTSETTINGS
350
19
  3
ACAD_PLOTSTYLENAME
350
E
  0
DICTIONARY
  5
D
102
{ACAD_REACTORS
330
C
102
}
100
AcDbDictionary
280
0
281
1
  0
ACDBDICTIONARYWDFLT
  5
E
102
{ACAD_REACTORS
330
C
102
}
100
AcDbDictionary
281
1
  3
Normal
350
F
100
AcDbDictionaryWithDefault
340
F
  0
DICTIONARY
  5
17
102
{ACAD_REACTORS
330
C
102
}
100
AcDbDictionary
280
0
281
1
  3
Standard
350
18
  0
DICTIONARY
  5
19
102
{ACAD_REACTORS
330
C
102
}
100
AcDbDictionary
281
1
  0
DICTIONARY
  5
1A
102
{ACAD_REACTORS
330
C
102
}
100
AcDbDictionary
281
1
  3
Model
350
35F
  3
Layout1
350
360
  0
ACDBPLACEHOLDER
  5
F
102
{ACAD_REACTORS
330
E
102
}
  0
MLINESTYLE
  5
18
102
{ACAD_REACTORS
330
17
102
}
100
AcDbMlineStyle
  2
STANDARD
 70
0
  3

 62
256
 51
90.0
 52
90.0
 71
2
 49
0.5
 62
256
  6
BYLAYER
 49
-0.5
 62
256
  6
BYLAYER
  0
LAYOUT
  5
35F
102
{ACAD_REACTORS
330
1A
102
}
100
AcDbPlotSettings
  1

  2
none_device
  4
ANSI_A_(11.00_x_8.50_Inches)
  6

 40
0.0
 41
0.0
 42
0.0
 43
0.0
 44
279.4
 45
215.9
 46
0.0
 47
0.0
 48
0.0
 49
0.0
140
0.0
141
0.0
142
1.0
143
1.0
 70
1024
 72
0
 73
0
 74
0
  7

 75
0
147
1.0
148
0.0
149
0.0
100
AcDbLayout
  1
Model
 70
0
 71
0
 10
0.0
 20
0.0
 11
11.0
 21
8.5
 12
0.0
 22
0.0
 32
0.0
 14
0.0
 24
0.0
 34
0.0
 15
0.0
 25
0.0
 35
0.0
146
0.0
 13
0.0
 23
0.0
 33
0.0
 16
1.0
 26
0.0
 36
0.0
 17
0.0
 27
1.0
 37
0.0
 76
0
330
216
345
0
346
0
  0
LAYOUT
  5
360
102
{ACAD_REACTORS
330
1A
102
}
100
AcDbPlotSettings
  1

  2
none_device
  4
ANSI_A_(11.00_x_8.50_Inches)
  6

 40
0.0
 41
0.0
 42
0.0
 43
0.0
 44
279.4
 45
215.9
 46
0.0
 47
0.0
 48
0.0
 49
0.0
140
0.0
141
0.0
142
1.0
143
1.0
 70
0
 72
0
 73
0
 74
0
  7

 75
0
147
1.0
148
0.0
149
0.0
100
AcDbLayout
  1
Layout1
 70
0
 71
1
 10
0.0
 20
0.0
 11
11.0
 21
8.5
 12
0.0
 22
0.0
 32
0.0
 14
0.0
 24
0.0
 34
0.0
 15
0.0
 25
0.0
 35
0.0
146
0.0
 13
0.0
 23
0.0
 33
0.0
 16
1.0
 26
0.0
 36
0.0
 17
0.0
 27
1.0
 37
0.0
 76
0
330
217
345
0
346
0
  0
ENDSEC
  0
EOF
