ISO-10303-21;
HEADER;
FILE_DESCRIPTION((''),'2;1');
FILE_NAME('2540-1660','2021-10-28T15:39:21',('jinson.thomas'),(''),
'CREO PARAMETRIC BY PTC INC, 2018400','CREO PARAMETRIC BY PTC INC, 2018400','');
FILE_SCHEMA(('CONFIG_CONTROL_DESIGN'));
ENDSEC;
DATA;
#2=DIRECTION('',(7.071067811865E-1,-7.071067811865E-1,0.E0));
#3=VECTOR('',#2,5.515432893255E-2);
#4=CARTESIAN_POINT('',(3.32714E0,1.10235E0,0.E0));
#5=LINE('',#4,#3);
#6=DIRECTION('',(-1.E0,0.E0,0.E0));
#7=VECTOR('',#6,6.65428E0);
#8=CARTESIAN_POINT('',(3.32714E0,1.10235E0,0.E0));
#9=LINE('',#8,#7);
#10=DIRECTION('',(7.071067811865E-1,7.071067811866E-1,0.E0));
#11=VECTOR('',#10,5.515432893255E-2);
#12=CARTESIAN_POINT('',(-3.36614E0,1.06335E0,0.E0));
#13=LINE('',#12,#11);
#14=DIRECTION('',(0.E0,-1.E0,0.E0));
#15=VECTOR('',#14,2.1267E0);
#16=CARTESIAN_POINT('',(-3.36614E0,1.06335E0,0.E0));
#17=LINE('',#16,#15);
#18=DIRECTION('',(-7.071067811865E-1,7.071067811866E-1,0.E0));
#19=VECTOR('',#18,5.515432893255E-2);
#20=CARTESIAN_POINT('',(-3.32714E0,-1.10235E0,0.E0));
#21=LINE('',#20,#19);
#22=DIRECTION('',(1.E0,0.E0,0.E0));
#23=VECTOR('',#22,6.65428E0);
#24=CARTESIAN_POINT('',(-3.32714E0,-1.10235E0,0.E0));
#25=LINE('',#24,#23);
#26=DIRECTION('',(-7.071067811866E-1,-7.071067811865E-1,0.E0));
#27=VECTOR('',#26,5.515432893255E-2);
#28=CARTESIAN_POINT('',(3.36614E0,-1.06335E0,0.E0));
#29=LINE('',#28,#27);
#30=DIRECTION('',(0.E0,1.E0,0.E0));
#31=VECTOR('',#30,2.1267E0);
#32=CARTESIAN_POINT('',(3.36614E0,-1.06335E0,0.E0));
#33=LINE('',#32,#31);
#34=DIRECTION('',(0.E0,0.E0,-1.E0));
#35=VECTOR('',#34,1.181E-1);
#36=CARTESIAN_POINT('',(3.36614E0,1.06335E0,1.181E-1));
#37=LINE('',#36,#35);
#38=DIRECTION('',(0.E0,0.E0,-1.E0));
#39=VECTOR('',#38,1.181E-1);
#40=CARTESIAN_POINT('',(3.36614E0,-1.06335E0,1.181E-1));
#41=LINE('',#40,#39);
#42=DIRECTION('',(0.E0,0.E0,-1.E0));
#43=VECTOR('',#42,1.181E-1);
#44=CARTESIAN_POINT('',(3.32714E0,-1.10235E0,1.181E-1));
#45=LINE('',#44,#43);
#46=DIRECTION('',(0.E0,0.E0,-1.E0));
#47=VECTOR('',#46,1.181E-1);
#48=CARTESIAN_POINT('',(-3.32714E0,-1.10235E0,1.181E-1));
#49=LINE('',#48,#47);
#50=DIRECTION('',(0.E0,0.E0,-1.E0));
#51=VECTOR('',#50,1.181E-1);
#52=CARTESIAN_POINT('',(-3.36614E0,1.06335E0,1.181E-1));
#53=LINE('',#52,#51);
#54=DIRECTION('',(0.E0,0.E0,-1.E0));
#55=VECTOR('',#54,1.181E-1);
#56=CARTESIAN_POINT('',(-3.36614E0,-1.06335E0,1.181E-1));
#57=LINE('',#56,#55);
#58=DIRECTION('',(0.E0,0.E0,-1.E0));
#59=VECTOR('',#58,1.181E-1);
#60=CARTESIAN_POINT('',(3.32714E0,1.10235E0,1.181E-1));
#61=LINE('',#60,#59);
#62=DIRECTION('',(0.E0,0.E0,-1.E0));
#63=VECTOR('',#62,1.181E-1);
#64=CARTESIAN_POINT('',(-3.32714E0,1.10235E0,1.181E-1));
#65=LINE('',#64,#63);
#66=DIRECTION('',(-7.071067811865E-1,7.071067811865E-1,0.E0));
#67=VECTOR('',#66,5.515432893255E-2);
#68=CARTESIAN_POINT('',(3.36614E0,1.06335E0,1.181E-1));
#69=LINE('',#68,#67);
#70=DIRECTION('',(0.E0,1.E0,0.E0));
#71=VECTOR('',#70,2.1267E0);
#72=CARTESIAN_POINT('',(3.36614E0,-1.06335E0,1.181E-1));
#73=LINE('',#72,#71);
#74=DIRECTION('',(7.071067811865E-1,7.071067811865E-1,0.E0));
#75=VECTOR('',#74,5.515432893255E-2);
#76=CARTESIAN_POINT('',(3.32714E0,-1.10235E0,1.181E-1));
#77=LINE('',#76,#75);
#78=DIRECTION('',(1.E0,0.E0,0.E0));
#79=VECTOR('',#78,6.65428E0);
#80=CARTESIAN_POINT('',(-3.32714E0,-1.10235E0,1.181E-1));
#81=LINE('',#80,#79);
#82=DIRECTION('',(7.071067811865E-1,-7.071067811866E-1,0.E0));
#83=VECTOR('',#82,5.515432893255E-2);
#84=CARTESIAN_POINT('',(-3.36614E0,-1.06335E0,1.181E-1));
#85=LINE('',#84,#83);
#86=DIRECTION('',(0.E0,-1.E0,0.E0));
#87=VECTOR('',#86,2.1267E0);
#88=CARTESIAN_POINT('',(-3.36614E0,1.06335E0,1.181E-1));
#89=LINE('',#88,#87);
#90=DIRECTION('',(-7.071067811865E-1,-7.071067811866E-1,0.E0));
#91=VECTOR('',#90,5.515432893255E-2);
#92=CARTESIAN_POINT('',(-3.32714E0,1.10235E0,1.181E-1));
#93=LINE('',#92,#91);
#94=DIRECTION('',(-1.E0,0.E0,0.E0));
#95=VECTOR('',#94,6.65428E0);
#96=CARTESIAN_POINT('',(3.32714E0,1.10235E0,1.181E-1));
#97=LINE('',#96,#95);
#98=CARTESIAN_POINT('',(-2.5E0,0.E0,1.181E-1));
#99=DIRECTION('',(0.E0,0.E0,-1.E0));
#100=DIRECTION('',(1.E0,0.E0,0.E0));
#101=AXIS2_PLACEMENT_3D('',#98,#99,#100);
#103=CARTESIAN_POINT('',(-2.5E0,0.E0,1.181E-1));
#104=DIRECTION('',(0.E0,0.E0,-1.E0));
#105=DIRECTION('',(-1.E0,0.E0,0.E0));
#106=AXIS2_PLACEMENT_3D('',#103,#104,#105);
#108=CARTESIAN_POINT('',(2.5E0,0.E0,1.181E-1));
#109=DIRECTION('',(0.E0,0.E0,-1.E0));
#110=DIRECTION('',(1.E0,0.E0,0.E0));
#111=AXIS2_PLACEMENT_3D('',#108,#109,#110);
#113=CARTESIAN_POINT('',(2.5E0,0.E0,1.181E-1));
#114=DIRECTION('',(0.E0,0.E0,-1.E0));
#115=DIRECTION('',(-1.E0,0.E0,0.E0));
#116=AXIS2_PLACEMENT_3D('',#113,#114,#115);
#118=CARTESIAN_POINT('',(-2.5E0,0.E0,2.0866E0));
#119=DIRECTION('',(0.E0,0.E0,-1.E0));
#120=DIRECTION('',(1.E0,0.E0,0.E0));
#121=AXIS2_PLACEMENT_3D('',#118,#119,#120);
#123=DIRECTION('',(0.E0,0.E0,-1.E0));
#124=VECTOR('',#123,1.9685E0);
#125=CARTESIAN_POINT('',(-2.1065E0,0.E0,2.0866E0));
#126=LINE('',#125,#124);
#127=CARTESIAN_POINT('',(-2.5E0,0.E0,2.0866E0));
#128=DIRECTION('',(0.E0,0.E0,-1.E0));
#129=DIRECTION('',(1.E0,0.E0,0.E0));
#130=AXIS2_PLACEMENT_3D('',#127,#128,#129);
#132=CARTESIAN_POINT('',(-2.5E0,0.E0,2.0866E0));
#133=DIRECTION('',(0.E0,0.E0,1.E0));
#134=DIRECTION('',(1.E0,0.E0,0.E0));
#135=AXIS2_PLACEMENT_3D('',#132,#133,#134);
#137=DIRECTION('',(0.E0,0.E0,-1.E0));
#138=VECTOR('',#137,1.9685E-1);
#139=CARTESIAN_POINT('',(-1.7126E0,0.E0,2.28345E0));
#140=LINE('',#139,#138);
#141=DIRECTION('',(0.E0,0.E0,-1.E0));
#142=VECTOR('',#141,1.9685E-1);
#143=CARTESIAN_POINT('',(-3.2874E0,0.E0,2.28345E0));
#144=LINE('',#143,#142);
#145=CARTESIAN_POINT('',(-2.5E0,0.E0,2.28345E0));
#146=DIRECTION('',(0.E0,0.E0,-1.E0));
#147=DIRECTION('',(1.E0,0.E0,0.E0));
#148=AXIS2_PLACEMENT_3D('',#145,#146,#147);
#150=CARTESIAN_POINT('',(-2.5E0,0.E0,2.28345E0));
#151=DIRECTION('',(0.E0,0.E0,1.E0));
#152=DIRECTION('',(1.E0,0.E0,0.E0));
#153=AXIS2_PLACEMENT_3D('',#150,#151,#152);
#155=CARTESIAN_POINT('',(-2.5E0,0.E0,2.0866E0));
#156=DIRECTION('',(0.E0,0.E0,-1.E0));
#157=DIRECTION('',(-1.E0,0.E0,0.E0));
#158=AXIS2_PLACEMENT_3D('',#155,#156,#157);
#160=DIRECTION('',(0.E0,0.E0,-1.E0));
#161=VECTOR('',#160,1.9685E0);
#162=CARTESIAN_POINT('',(-2.8935E0,0.E0,2.0866E0));
#163=LINE('',#162,#161);
#164=CARTESIAN_POINT('',(2.5E0,0.E0,2.0866E0));
#165=DIRECTION('',(0.E0,0.E0,-1.E0));
#166=DIRECTION('',(1.E0,0.E0,0.E0));
#167=AXIS2_PLACEMENT_3D('',#164,#165,#166);
#169=DIRECTION('',(0.E0,0.E0,-1.E0));
#170=VECTOR('',#169,1.9685E0);
#171=CARTESIAN_POINT('',(2.8935E0,0.E0,2.0866E0));
#172=LINE('',#171,#170);
#173=CARTESIAN_POINT('',(2.5E0,0.E0,2.0866E0));
#174=DIRECTION('',(0.E0,0.E0,-1.E0));
#175=DIRECTION('',(-1.E0,0.E0,0.E0));
#176=AXIS2_PLACEMENT_3D('',#173,#174,#175);
#178=CARTESIAN_POINT('',(2.5E0,0.E0,2.0866E0));
#179=DIRECTION('',(0.E0,0.E0,1.E0));
#180=DIRECTION('',(-1.E0,0.E0,0.E0));
#181=AXIS2_PLACEMENT_3D('',#178,#179,#180);
#183=DIRECTION('',(0.E0,0.E0,-1.E0));
#184=VECTOR('',#183,1.9685E-1);
#185=CARTESIAN_POINT('',(1.7126E0,0.E0,2.28345E0));
#186=LINE('',#185,#184);
#187=DIRECTION('',(0.E0,0.E0,-1.E0));
#188=VECTOR('',#187,1.9685E-1);
#189=CARTESIAN_POINT('',(3.2874E0,0.E0,2.28345E0));
#190=LINE('',#189,#188);
#191=CARTESIAN_POINT('',(2.5E0,0.E0,2.28345E0));
#192=DIRECTION('',(0.E0,0.E0,-1.E0));
#193=DIRECTION('',(-1.E0,0.E0,0.E0));
#194=AXIS2_PLACEMENT_3D('',#191,#192,#193);
#196=CARTESIAN_POINT('',(2.5E0,0.E0,2.28345E0));
#197=DIRECTION('',(0.E0,0.E0,1.E0));
#198=DIRECTION('',(-1.E0,0.E0,0.E0));
#199=AXIS2_PLACEMENT_3D('',#196,#197,#198);
#201=CARTESIAN_POINT('',(2.5E0,0.E0,2.0866E0));
#202=DIRECTION('',(0.E0,0.E0,-1.E0));
#203=DIRECTION('',(-1.E0,0.E0,0.E0));
#204=AXIS2_PLACEMENT_3D('',#201,#202,#203);
#206=DIRECTION('',(0.E0,0.E0,-1.E0));
#207=VECTOR('',#206,1.9685E0);
#208=CARTESIAN_POINT('',(2.1065E0,0.E0,2.0866E0));
#209=LINE('',#208,#207);
#210=CARTESIAN_POINT('',(3.32714E0,1.10235E0,0.E0));
#211=CARTESIAN_POINT('',(3.36614E0,1.06335E0,0.E0));
#212=VERTEX_POINT('',#210);
#213=VERTEX_POINT('',#211);
#214=CARTESIAN_POINT('',(3.36614E0,1.06335E0,1.181E-1));
#215=VERTEX_POINT('',#214);
#216=CARTESIAN_POINT('',(3.32714E0,1.10235E0,1.181E-1));
#217=VERTEX_POINT('',#216);
#218=CARTESIAN_POINT('',(3.36614E0,-1.06335E0,0.E0));
#219=CARTESIAN_POINT('',(3.32714E0,-1.10235E0,0.E0));
#220=VERTEX_POINT('',#218);
#221=VERTEX_POINT('',#219);
#222=CARTESIAN_POINT('',(3.32714E0,-1.10235E0,1.181E-1));
#223=VERTEX_POINT('',#222);
#224=CARTESIAN_POINT('',(3.36614E0,-1.06335E0,1.181E-1));
#225=VERTEX_POINT('',#224);
#226=CARTESIAN_POINT('',(-3.36614E0,1.06335E0,0.E0));
#227=CARTESIAN_POINT('',(-3.32714E0,1.10235E0,0.E0));
#228=VERTEX_POINT('',#226);
#229=VERTEX_POINT('',#227);
#230=CARTESIAN_POINT('',(-3.32714E0,1.10235E0,1.181E-1));
#231=VERTEX_POINT('',#230);
#232=CARTESIAN_POINT('',(-3.36614E0,1.06335E0,1.181E-1));
#233=VERTEX_POINT('',#232);
#234=CARTESIAN_POINT('',(-3.32714E0,-1.10235E0,0.E0));
#235=CARTESIAN_POINT('',(-3.36614E0,-1.06335E0,0.E0));
#236=VERTEX_POINT('',#234);
#237=VERTEX_POINT('',#235);
#238=CARTESIAN_POINT('',(-3.36614E0,-1.06335E0,1.181E-1));
#239=VERTEX_POINT('',#238);
#240=CARTESIAN_POINT('',(-3.32714E0,-1.10235E0,1.181E-1));
#241=VERTEX_POINT('',#240);
#242=CARTESIAN_POINT('',(-2.1065E0,0.E0,1.181E-1));
#243=CARTESIAN_POINT('',(-2.8935E0,0.E0,1.181E-1));
#244=VERTEX_POINT('',#242);
#245=VERTEX_POINT('',#243);
#246=CARTESIAN_POINT('',(2.8935E0,0.E0,1.181E-1));
#247=CARTESIAN_POINT('',(2.1065E0,0.E0,1.181E-1));
#248=VERTEX_POINT('',#246);
#249=VERTEX_POINT('',#247);
#250=CARTESIAN_POINT('',(1.7126E0,0.E0,2.28345E0));
#251=CARTESIAN_POINT('',(1.7126E0,0.E0,2.0866E0));
#252=VERTEX_POINT('',#250);
#253=VERTEX_POINT('',#251);
#254=CARTESIAN_POINT('',(3.2874E0,0.E0,2.28345E0));
#255=CARTESIAN_POINT('',(3.2874E0,0.E0,2.0866E0));
#256=VERTEX_POINT('',#254);
#257=VERTEX_POINT('',#255);
#258=CARTESIAN_POINT('',(2.8935E0,0.E0,2.0866E0));
#259=CARTESIAN_POINT('',(2.1065E0,0.E0,2.0866E0));
#260=VERTEX_POINT('',#258);
#261=VERTEX_POINT('',#259);
#262=CARTESIAN_POINT('',(-1.7126E0,0.E0,2.28345E0));
#263=CARTESIAN_POINT('',(-1.7126E0,0.E0,2.0866E0));
#264=VERTEX_POINT('',#262);
#265=VERTEX_POINT('',#263);
#266=CARTESIAN_POINT('',(-3.2874E0,0.E0,2.28345E0));
#267=CARTESIAN_POINT('',(-3.2874E0,0.E0,2.0866E0));
#268=VERTEX_POINT('',#266);
#269=VERTEX_POINT('',#267);
#270=CARTESIAN_POINT('',(-2.1065E0,0.E0,2.0866E0));
#271=CARTESIAN_POINT('',(-2.8935E0,0.E0,2.0866E0));
#272=VERTEX_POINT('',#270);
#273=VERTEX_POINT('',#271);
#274=CARTESIAN_POINT('',(0.E0,0.E0,0.E0));
#275=DIRECTION('',(0.E0,0.E0,1.E0));
#276=DIRECTION('',(1.E0,0.E0,0.E0));
#277=AXIS2_PLACEMENT_3D('',#274,#275,#276);
#278=PLANE('',#277);
#280=ORIENTED_EDGE('',*,*,#279,.F.);
#282=ORIENTED_EDGE('',*,*,#281,.T.);
#284=ORIENTED_EDGE('',*,*,#283,.F.);
#286=ORIENTED_EDGE('',*,*,#285,.T.);
#288=ORIENTED_EDGE('',*,*,#287,.F.);
#290=ORIENTED_EDGE('',*,*,#289,.T.);
#292=ORIENTED_EDGE('',*,*,#291,.F.);
#294=ORIENTED_EDGE('',*,*,#293,.T.);
#295=EDGE_LOOP('',(#280,#282,#284,#286,#288,#290,#292,#294));
#296=FACE_OUTER_BOUND('',#295,.F.);
#297=ADVANCED_FACE('',(#296),#278,.F.);
#298=CARTESIAN_POINT('',(3.34664E0,1.08285E0,5.905E-2));
#299=DIRECTION('',(7.071067811865E-1,7.071067811866E-1,0.E0));
#300=DIRECTION('',(7.071067811866E-1,-7.071067811865E-1,0.E0));
#301=AXIS2_PLACEMENT_3D('',#298,#299,#300);
#302=PLANE('',#301);
#303=ORIENTED_EDGE('',*,*,#279,.T.);
#305=ORIENTED_EDGE('',*,*,#304,.F.);
#307=ORIENTED_EDGE('',*,*,#306,.T.);
#309=ORIENTED_EDGE('',*,*,#308,.T.);
#310=EDGE_LOOP('',(#303,#305,#307,#309));
#311=FACE_OUTER_BOUND('',#310,.F.);
#312=ADVANCED_FACE('',(#311),#302,.T.);
#313=CARTESIAN_POINT('',(3.36614E0,-1.10235E0,0.E0));
#314=DIRECTION('',(1.E0,0.E0,0.E0));
#315=DIRECTION('',(0.E0,1.E0,0.E0));
#316=AXIS2_PLACEMENT_3D('',#313,#314,#315);
#317=PLANE('',#316);
#318=ORIENTED_EDGE('',*,*,#304,.T.);
#319=ORIENTED_EDGE('',*,*,#293,.F.);
#321=ORIENTED_EDGE('',*,*,#320,.F.);
#323=ORIENTED_EDGE('',*,*,#322,.T.);
#324=EDGE_LOOP('',(#318,#319,#321,#323));
#325=FACE_OUTER_BOUND('',#324,.F.);
#326=ADVANCED_FACE('',(#325),#317,.T.);
#327=CARTESIAN_POINT('',(3.34664E0,-1.08285E0,5.905E-2));
#328=DIRECTION('',(7.071067811865E-1,-7.071067811865E-1,0.E0));
#329=DIRECTION('',(-7.071067811865E-1,-7.071067811865E-1,0.E0));
#330=AXIS2_PLACEMENT_3D('',#327,#328,#329);
#331=PLANE('',#330);
#332=ORIENTED_EDGE('',*,*,#291,.T.);
#334=ORIENTED_EDGE('',*,*,#333,.F.);
#336=ORIENTED_EDGE('',*,*,#335,.T.);
#337=ORIENTED_EDGE('',*,*,#320,.T.);
#338=EDGE_LOOP('',(#332,#334,#336,#337));
#339=FACE_OUTER_BOUND('',#338,.F.);
#340=ADVANCED_FACE('',(#339),#331,.T.);
#341=CARTESIAN_POINT('',(-3.36614E0,-1.10235E0,0.E0));
#342=DIRECTION('',(0.E0,-1.E0,0.E0));
#343=DIRECTION('',(1.E0,0.E0,0.E0));
#344=AXIS2_PLACEMENT_3D('',#341,#342,#343);
#345=PLANE('',#344);
#346=ORIENTED_EDGE('',*,*,#333,.T.);
#347=ORIENTED_EDGE('',*,*,#289,.F.);
#349=ORIENTED_EDGE('',*,*,#348,.F.);
#351=ORIENTED_EDGE('',*,*,#350,.T.);
#352=EDGE_LOOP('',(#346,#347,#349,#351));
#353=FACE_OUTER_BOUND('',#352,.F.);
#354=ADVANCED_FACE('',(#353),#345,.T.);
#355=CARTESIAN_POINT('',(-3.34664E0,-1.08285E0,5.905E-2));
#356=DIRECTION('',(-7.071067811865E-1,-7.071067811866E-1,0.E0));
#357=DIRECTION('',(-7.071067811866E-1,7.071067811865E-1,0.E0));
#358=AXIS2_PLACEMENT_3D('',#355,#356,#357);
#359=PLANE('',#358);
#360=ORIENTED_EDGE('',*,*,#287,.T.);
#362=ORIENTED_EDGE('',*,*,#361,.F.);
#364=ORIENTED_EDGE('',*,*,#363,.T.);
#365=ORIENTED_EDGE('',*,*,#348,.T.);
#366=EDGE_LOOP('',(#360,#362,#364,#365));
#367=FACE_OUTER_BOUND('',#366,.F.);
#368=ADVANCED_FACE('',(#367),#359,.T.);
#369=CARTESIAN_POINT('',(-3.36614E0,1.10235E0,0.E0));
#370=DIRECTION('',(-1.E0,0.E0,0.E0));
#371=DIRECTION('',(0.E0,-1.E0,0.E0));
#372=AXIS2_PLACEMENT_3D('',#369,#370,#371);
#373=PLANE('',#372);
#375=ORIENTED_EDGE('',*,*,#374,.F.);
#377=ORIENTED_EDGE('',*,*,#376,.T.);
#378=ORIENTED_EDGE('',*,*,#361,.T.);
#379=ORIENTED_EDGE('',*,*,#285,.F.);
#380=EDGE_LOOP('',(#375,#377,#378,#379));
#381=FACE_OUTER_BOUND('',#380,.F.);
#382=ADVANCED_FACE('',(#381),#373,.T.);
#383=CARTESIAN_POINT('',(-3.34664E0,1.08285E0,5.905E-2));
#384=DIRECTION('',(-7.071067811865E-1,7.071067811865E-1,0.E0));
#385=DIRECTION('',(7.071067811865E-1,7.071067811865E-1,0.E0));
#386=AXIS2_PLACEMENT_3D('',#383,#384,#385);
#387=PLANE('',#386);
#388=ORIENTED_EDGE('',*,*,#283,.T.);
#390=ORIENTED_EDGE('',*,*,#389,.F.);
#392=ORIENTED_EDGE('',*,*,#391,.T.);
#393=ORIENTED_EDGE('',*,*,#374,.T.);
#394=EDGE_LOOP('',(#388,#390,#392,#393));
#395=FACE_OUTER_BOUND('',#394,.F.);
#396=ADVANCED_FACE('',(#395),#387,.T.);
#397=CARTESIAN_POINT('',(3.36614E0,1.10235E0,0.E0));
#398=DIRECTION('',(0.E0,1.E0,0.E0));
#399=DIRECTION('',(-1.E0,0.E0,0.E0));
#400=AXIS2_PLACEMENT_3D('',#397,#398,#399);
#401=PLANE('',#400);
#402=ORIENTED_EDGE('',*,*,#308,.F.);
#404=ORIENTED_EDGE('',*,*,#403,.T.);
#405=ORIENTED_EDGE('',*,*,#389,.T.);
#406=ORIENTED_EDGE('',*,*,#281,.F.);
#407=EDGE_LOOP('',(#402,#404,#405,#406));
#408=FACE_OUTER_BOUND('',#407,.F.);
#409=ADVANCED_FACE('',(#408),#401,.T.);
#410=CARTESIAN_POINT('',(0.E0,0.E0,1.181E-1));
#411=DIRECTION('',(0.E0,0.E0,1.E0));
#412=DIRECTION('',(1.E0,0.E0,0.E0));
#413=AXIS2_PLACEMENT_3D('',#410,#411,#412);
#414=PLANE('',#413);
#415=ORIENTED_EDGE('',*,*,#306,.F.);
#416=ORIENTED_EDGE('',*,*,#322,.F.);
#417=ORIENTED_EDGE('',*,*,#335,.F.);
#418=ORIENTED_EDGE('',*,*,#350,.F.);
#419=ORIENTED_EDGE('',*,*,#363,.F.);
#420=ORIENTED_EDGE('',*,*,#376,.F.);
#421=ORIENTED_EDGE('',*,*,#391,.F.);
#422=ORIENTED_EDGE('',*,*,#403,.F.);
#423=EDGE_LOOP('',(#415,#416,#417,#418,#419,#420,#421,#422));
#424=FACE_OUTER_BOUND('',#423,.F.);
#426=ORIENTED_EDGE('',*,*,#425,.F.);
#428=ORIENTED_EDGE('',*,*,#427,.F.);
#429=EDGE_LOOP('',(#426,#428));
#430=FACE_BOUND('',#429,.F.);
#432=ORIENTED_EDGE('',*,*,#431,.F.);
#434=ORIENTED_EDGE('',*,*,#433,.F.);
#435=EDGE_LOOP('',(#432,#434));
#436=FACE_BOUND('',#435,.F.);
#437=ADVANCED_FACE('',(#424,#430,#436),#414,.T.);
#438=CARTESIAN_POINT('',(-2.5E0,0.E0,2.0866E0));
#439=DIRECTION('',(0.E0,0.E0,-1.E0));
#440=DIRECTION('',(1.E0,0.E0,0.E0));
#441=AXIS2_PLACEMENT_3D('',#438,#439,#440);
#442=CYLINDRICAL_SURFACE('',#441,3.935E-1);
#444=ORIENTED_EDGE('',*,*,#443,.F.);
#446=ORIENTED_EDGE('',*,*,#445,.T.);
#447=ORIENTED_EDGE('',*,*,#425,.T.);
#449=ORIENTED_EDGE('',*,*,#448,.F.);
#450=EDGE_LOOP('',(#444,#446,#447,#449));
#451=FACE_OUTER_BOUND('',#450,.F.);
#452=ADVANCED_FACE('',(#451),#442,.T.);
#453=CARTESIAN_POINT('',(-2.5E0,0.E0,2.0866E0));
#454=DIRECTION('',(0.E0,0.E0,1.E0));
#455=DIRECTION('',(-1.E0,0.E0,0.E0));
#456=AXIS2_PLACEMENT_3D('',#453,#454,#455);
#457=PLANE('',#456);
#459=ORIENTED_EDGE('',*,*,#458,.F.);
#461=ORIENTED_EDGE('',*,*,#460,.T.);
#462=EDGE_LOOP('',(#459,#461));
#463=FACE_OUTER_BOUND('',#462,.F.);
#464=ORIENTED_EDGE('',*,*,#443,.T.);
#466=ORIENTED_EDGE('',*,*,#465,.T.);
#467=EDGE_LOOP('',(#464,#466));
#468=FACE_BOUND('',#467,.F.);
#469=ADVANCED_FACE('',(#463,#468),#457,.F.);
#470=CARTESIAN_POINT('',(-2.5E0,0.E0,1.75845E0));
#471=DIRECTION('',(0.E0,0.E0,1.E0));
#472=DIRECTION('',(-1.E0,0.E0,0.E0));
#473=AXIS2_PLACEMENT_3D('',#470,#471,#472);
#474=CYLINDRICAL_SURFACE('',#473,7.874E-1);
#476=ORIENTED_EDGE('',*,*,#475,.T.);
#477=ORIENTED_EDGE('',*,*,#458,.T.);
#479=ORIENTED_EDGE('',*,*,#478,.F.);
#481=ORIENTED_EDGE('',*,*,#480,.F.);
#482=EDGE_LOOP('',(#476,#477,#479,#481));
#483=FACE_OUTER_BOUND('',#482,.F.);
#484=ADVANCED_FACE('',(#483),#474,.T.);
#485=CARTESIAN_POINT('',(-2.5E0,0.E0,1.75845E0));
#486=DIRECTION('',(0.E0,0.E0,1.E0));
#487=DIRECTION('',(-1.E0,0.E0,0.E0));
#488=AXIS2_PLACEMENT_3D('',#485,#486,#487);
#489=CYLINDRICAL_SURFACE('',#488,7.874E-1);
#490=ORIENTED_EDGE('',*,*,#475,.F.);
#492=ORIENTED_EDGE('',*,*,#491,.T.);
#493=ORIENTED_EDGE('',*,*,#478,.T.);
#494=ORIENTED_EDGE('',*,*,#460,.F.);
#495=EDGE_LOOP('',(#490,#492,#493,#494));
#496=FACE_OUTER_BOUND('',#495,.F.);
#497=ADVANCED_FACE('',(#496),#489,.T.);
#498=CARTESIAN_POINT('',(-2.5E0,0.E0,2.28345E0));
#499=DIRECTION('',(0.E0,0.E0,1.E0));
#500=DIRECTION('',(-1.E0,0.E0,0.E0));
#501=AXIS2_PLACEMENT_3D('',#498,#499,#500);
#502=PLANE('',#501);
#503=ORIENTED_EDGE('',*,*,#491,.F.);
#504=ORIENTED_EDGE('',*,*,#480,.T.);
#505=EDGE_LOOP('',(#503,#504));
#506=FACE_OUTER_BOUND('',#505,.F.);
#507=ADVANCED_FACE('',(#506),#502,.T.);
#508=CARTESIAN_POINT('',(-2.5E0,0.E0,2.0866E0));
#509=DIRECTION('',(0.E0,0.E0,-1.E0));
#510=DIRECTION('',(1.E0,0.E0,0.E0));
#511=AXIS2_PLACEMENT_3D('',#508,#509,#510);
#512=CYLINDRICAL_SURFACE('',#511,3.935E-1);
#513=ORIENTED_EDGE('',*,*,#465,.F.);
#514=ORIENTED_EDGE('',*,*,#448,.T.);
#515=ORIENTED_EDGE('',*,*,#427,.T.);
#516=ORIENTED_EDGE('',*,*,#445,.F.);
#517=EDGE_LOOP('',(#513,#514,#515,#516));
#518=FACE_OUTER_BOUND('',#517,.F.);
#519=ADVANCED_FACE('',(#518),#512,.T.);
#520=CARTESIAN_POINT('',(2.5E0,0.E0,2.0866E0));
#521=DIRECTION('',(0.E0,0.E0,-1.E0));
#522=DIRECTION('',(1.E0,0.E0,0.E0));
#523=AXIS2_PLACEMENT_3D('',#520,#521,#522);
#524=CYLINDRICAL_SURFACE('',#523,3.935E-1);
#526=ORIENTED_EDGE('',*,*,#525,.F.);
#528=ORIENTED_EDGE('',*,*,#527,.T.);
#529=ORIENTED_EDGE('',*,*,#431,.T.);
#531=ORIENTED_EDGE('',*,*,#530,.F.);
#532=EDGE_LOOP('',(#526,#528,#529,#531));
#533=FACE_OUTER_BOUND('',#532,.F.);
#534=ADVANCED_FACE('',(#533),#524,.T.);
#535=CARTESIAN_POINT('',(2.5E0,0.E0,2.0866E0));
#536=DIRECTION('',(0.E0,0.E0,1.E0));
#537=DIRECTION('',(1.E0,0.E0,0.E0));
#538=AXIS2_PLACEMENT_3D('',#535,#536,#537);
#539=PLANE('',#538);
#541=ORIENTED_EDGE('',*,*,#540,.F.);
#543=ORIENTED_EDGE('',*,*,#542,.T.);
#544=EDGE_LOOP('',(#541,#543));
#545=FACE_OUTER_BOUND('',#544,.F.);
#546=ORIENTED_EDGE('',*,*,#525,.T.);
#548=ORIENTED_EDGE('',*,*,#547,.T.);
#549=EDGE_LOOP('',(#546,#548));
#550=FACE_BOUND('',#549,.F.);
#551=ADVANCED_FACE('',(#545,#550),#539,.F.);
#552=CARTESIAN_POINT('',(2.5E0,0.E0,1.75845E0));
#553=DIRECTION('',(0.E0,0.E0,1.E0));
#554=DIRECTION('',(1.E0,0.E0,0.E0));
#555=AXIS2_PLACEMENT_3D('',#552,#553,#554);
#556=CYLINDRICAL_SURFACE('',#555,7.874E-1);
#558=ORIENTED_EDGE('',*,*,#557,.T.);
#559=ORIENTED_EDGE('',*,*,#540,.T.);
#561=ORIENTED_EDGE('',*,*,#560,.F.);
#563=ORIENTED_EDGE('',*,*,#562,.F.);
#564=EDGE_LOOP('',(#558,#559,#561,#563));
#565=FACE_OUTER_BOUND('',#564,.F.);
#566=ADVANCED_FACE('',(#565),#556,.T.);
#567=CARTESIAN_POINT('',(2.5E0,0.E0,1.75845E0));
#568=DIRECTION('',(0.E0,0.E0,1.E0));
#569=DIRECTION('',(1.E0,0.E0,0.E0));
#570=AXIS2_PLACEMENT_3D('',#567,#568,#569);
#571=CYLINDRICAL_SURFACE('',#570,7.874E-1);
#572=ORIENTED_EDGE('',*,*,#557,.F.);
#574=ORIENTED_EDGE('',*,*,#573,.T.);
#575=ORIENTED_EDGE('',*,*,#560,.T.);
#576=ORIENTED_EDGE('',*,*,#542,.F.);
#577=EDGE_LOOP('',(#572,#574,#575,#576));
#578=FACE_OUTER_BOUND('',#577,.F.);
#579=ADVANCED_FACE('',(#578),#571,.T.);
#580=CARTESIAN_POINT('',(2.5E0,0.E0,2.28345E0));
#581=DIRECTION('',(0.E0,0.E0,1.E0));
#582=DIRECTION('',(1.E0,0.E0,0.E0));
#583=AXIS2_PLACEMENT_3D('',#580,#581,#582);
#584=PLANE('',#583);
#585=ORIENTED_EDGE('',*,*,#573,.F.);
#586=ORIENTED_EDGE('',*,*,#562,.T.);
#587=EDGE_LOOP('',(#585,#586));
#588=FACE_OUTER_BOUND('',#587,.F.);
#589=ADVANCED_FACE('',(#588),#584,.T.);
#590=CARTESIAN_POINT('',(2.5E0,0.E0,2.0866E0));
#591=DIRECTION('',(0.E0,0.E0,-1.E0));
#592=DIRECTION('',(1.E0,0.E0,0.E0));
#593=AXIS2_PLACEMENT_3D('',#590,#591,#592);
#594=CYLINDRICAL_SURFACE('',#593,3.935E-1);
#595=ORIENTED_EDGE('',*,*,#547,.F.);
#596=ORIENTED_EDGE('',*,*,#530,.T.);
#597=ORIENTED_EDGE('',*,*,#433,.T.);
#598=ORIENTED_EDGE('',*,*,#527,.F.);
#599=EDGE_LOOP('',(#595,#596,#597,#598));
#600=FACE_OUTER_BOUND('',#599,.F.);
#601=ADVANCED_FACE('',(#600),#594,.T.);
#602=CLOSED_SHELL('',(#297,#312,#326,#340,#354,#368,#382,#396,#409,#437,#452,
#469,#484,#497,#507,#519,#534,#551,#566,#579,#589,#601));
#603=MANIFOLD_SOLID_BREP('',#602);
#604=DIMENSIONAL_EXPONENTS(1.E0,0.E0,0.E0,0.E0,0.E0,0.E0,0.E0);
#606=LENGTH_MEASURE_WITH_UNIT(LENGTH_MEASURE(2.54E1),#605);
#607=(CONVERSION_BASED_UNIT('INCH',#606)LENGTH_UNIT()NAMED_UNIT(#604));
#608=DIMENSIONAL_EXPONENTS(0.E0,0.E0,0.E0,0.E0,0.E0,0.E0,0.E0);
#610=PLANE_ANGLE_MEASURE_WITH_UNIT(PLANE_ANGLE_MEASURE(1.745329251994E-2),#609);
#611=(CONVERSION_BASED_UNIT('DEGREE',#610)NAMED_UNIT(*)PLANE_ANGLE_UNIT());
#613=UNCERTAINTY_MEASURE_WITH_UNIT(LENGTH_MEASURE(2.275569119975E-4),#607,
'closure',
'Maximum model space distance between geometric entities at asserted connectivities');
#614=(GEOMETRIC_REPRESENTATION_CONTEXT(3)GLOBAL_UNCERTAINTY_ASSIGNED_CONTEXT((
#613))GLOBAL_UNIT_ASSIGNED_CONTEXT((#607,#611,#612))REPRESENTATION_CONTEXT
('ID1','3'));
#616=APPLICATION_CONTEXT(
'CONFIGURATION CONTROLLED 3D DESIGNS OF MECHANICAL PARTS AND ASSEMBLIES');
#617=APPLICATION_PROTOCOL_DEFINITION('international standard',
'config_control_design',1994,#616);
#618=DESIGN_CONTEXT('',#616,'design');
#619=MECHANICAL_CONTEXT('',#616,'mechanical');
#620=PRODUCT('2540-1660','2540-1660','NOT SPECIFIED',(#619));
#621=PRODUCT_DEFINITION_FORMATION_WITH_SPECIFIED_SOURCE('1','LAST_VERSION',#620,
.MADE.);
#625=PRODUCT_CATEGORY('part','');
#626=PRODUCT_RELATED_PRODUCT_CATEGORY('detail','',(#620));
#627=PRODUCT_CATEGORY_RELATIONSHIP('','',#625,#626);
#628=SECURITY_CLASSIFICATION_LEVEL('unclassified');
#629=SECURITY_CLASSIFICATION('','',#628);
#630=CC_DESIGN_SECURITY_CLASSIFICATION(#629,(#621));
#631=APPROVAL_STATUS('approved');
#632=APPROVAL(#631,'');
#633=CC_DESIGN_APPROVAL(#632,(#629,#621,#622));
#634=CALENDAR_DATE(121,28,10);
#635=COORDINATED_UNIVERSAL_TIME_OFFSET(5,30,.AHEAD.);
#636=LOCAL_TIME(15,39,2.1E1,#635);
#637=DATE_AND_TIME(#634,#636);
#638=APPROVAL_DATE_TIME(#637,#632);
#639=DATE_TIME_ROLE('creation_date');
#640=CC_DESIGN_DATE_AND_TIME_ASSIGNMENT(#637,#639,(#622));
#641=DATE_TIME_ROLE('classification_date');
#642=CC_DESIGN_DATE_AND_TIME_ASSIGNMENT(#637,#641,(#629));
#643=PERSON('UNSPECIFIED','UNSPECIFIED',$,$,$,$);
#644=ORGANIZATION('UNSPECIFIED','UNSPECIFIED','UNSPECIFIED');
#645=PERSON_AND_ORGANIZATION(#643,#644);
#646=APPROVAL_ROLE('approver');
#647=APPROVAL_PERSON_ORGANIZATION(#645,#632,#646);
#648=PERSON_AND_ORGANIZATION_ROLE('creator');
#649=CC_DESIGN_PERSON_AND_ORGANIZATION_ASSIGNMENT(#645,#648,(#621,#622));
#650=PERSON_AND_ORGANIZATION_ROLE('design_supplier');
#651=CC_DESIGN_PERSON_AND_ORGANIZATION_ASSIGNMENT(#645,#650,(#621));
#652=PERSON_AND_ORGANIZATION_ROLE('classification_officer');
#653=CC_DESIGN_PERSON_AND_ORGANIZATION_ASSIGNMENT(#645,#652,(#629));
#654=PERSON_AND_ORGANIZATION_ROLE('design_owner');
#655=CC_DESIGN_PERSON_AND_ORGANIZATION_ASSIGNMENT(#645,#654,(#620));
#102=CIRCLE('',#101,3.935E-1);
#107=CIRCLE('',#106,3.935E-1);
#112=CIRCLE('',#111,3.935E-1);
#117=CIRCLE('',#116,3.935E-1);
#122=CIRCLE('',#121,3.935E-1);
#131=CIRCLE('',#130,7.874E-1);
#136=CIRCLE('',#135,7.874E-1);
#149=CIRCLE('',#148,7.874E-1);
#154=CIRCLE('',#153,7.874E-1);
#159=CIRCLE('',#158,3.935E-1);
#168=CIRCLE('',#167,3.935E-1);
#177=CIRCLE('',#176,7.874E-1);
#182=CIRCLE('',#181,7.874E-1);
#195=CIRCLE('',#194,7.874E-1);
#200=CIRCLE('',#199,7.874E-1);
#205=CIRCLE('',#204,3.935E-1);
#279=EDGE_CURVE('',#212,#213,#5,.T.);
#281=EDGE_CURVE('',#212,#229,#9,.T.);
#283=EDGE_CURVE('',#228,#229,#13,.T.);
#285=EDGE_CURVE('',#228,#237,#17,.T.);
#287=EDGE_CURVE('',#236,#237,#21,.T.);
#289=EDGE_CURVE('',#236,#221,#25,.T.);
#291=EDGE_CURVE('',#220,#221,#29,.T.);
#293=EDGE_CURVE('',#220,#213,#33,.T.);
#304=EDGE_CURVE('',#215,#213,#37,.T.);
#306=EDGE_CURVE('',#215,#217,#69,.T.);
#308=EDGE_CURVE('',#217,#212,#61,.T.);
#320=EDGE_CURVE('',#225,#220,#41,.T.);
#322=EDGE_CURVE('',#225,#215,#73,.T.);
#333=EDGE_CURVE('',#223,#221,#45,.T.);
#335=EDGE_CURVE('',#223,#225,#77,.T.);
#348=EDGE_CURVE('',#241,#236,#49,.T.);
#350=EDGE_CURVE('',#241,#223,#81,.T.);
#361=EDGE_CURVE('',#239,#237,#57,.T.);
#363=EDGE_CURVE('',#239,#241,#85,.T.);
#374=EDGE_CURVE('',#233,#228,#53,.T.);
#376=EDGE_CURVE('',#233,#239,#89,.T.);
#389=EDGE_CURVE('',#231,#229,#65,.T.);
#391=EDGE_CURVE('',#231,#233,#93,.T.);
#403=EDGE_CURVE('',#217,#231,#97,.T.);
#425=EDGE_CURVE('',#244,#245,#102,.T.);
#427=EDGE_CURVE('',#245,#244,#107,.T.);
#431=EDGE_CURVE('',#248,#249,#112,.T.);
#433=EDGE_CURVE('',#249,#248,#117,.T.);
#443=EDGE_CURVE('',#272,#273,#122,.T.);
#445=EDGE_CURVE('',#272,#244,#126,.T.);
#448=EDGE_CURVE('',#273,#245,#163,.T.);
#458=EDGE_CURVE('',#265,#269,#131,.T.);
#460=EDGE_CURVE('',#265,#269,#136,.T.);
#465=EDGE_CURVE('',#273,#272,#159,.T.);
#475=EDGE_CURVE('',#264,#265,#140,.T.);
#478=EDGE_CURVE('',#268,#269,#144,.T.);
#480=EDGE_CURVE('',#264,#268,#149,.T.);
#491=EDGE_CURVE('',#264,#268,#154,.T.);
#525=EDGE_CURVE('',#260,#261,#168,.T.);
#527=EDGE_CURVE('',#260,#248,#172,.T.);
#530=EDGE_CURVE('',#261,#249,#209,.T.);
#540=EDGE_CURVE('',#253,#257,#177,.T.);
#542=EDGE_CURVE('',#253,#257,#182,.T.);
#547=EDGE_CURVE('',#261,#260,#205,.T.);
#557=EDGE_CURVE('',#252,#253,#186,.T.);
#560=EDGE_CURVE('',#256,#257,#190,.T.);
#562=EDGE_CURVE('',#252,#256,#195,.T.);
#573=EDGE_CURVE('',#252,#256,#200,.T.);
#605=(LENGTH_UNIT()NAMED_UNIT(*)SI_UNIT(.MILLI.,.METRE.));
#609=(NAMED_UNIT(*)PLANE_ANGLE_UNIT()SI_UNIT($,.RADIAN.));
#612=(NAMED_UNIT(*)SI_UNIT($,.STERADIAN.)SOLID_ANGLE_UNIT());
#615=ADVANCED_BREP_SHAPE_REPRESENTATION('',(#603),#614);
#622=PRODUCT_DEFINITION('design','',#621,#618);
#623=PRODUCT_DEFINITION_SHAPE('','SHAPE FOR 2540-1660.',#622);
#624=SHAPE_DEFINITION_REPRESENTATION(#623,#615);
ENDSEC;
END-ISO-10303-21;
