999
DXF file: E:\BT Custom\CADOUTPUT\_RIGHT.dxf
999
Pro/ENGINEER 2018400 by Parametric Technology Corporation
  0
SECTION
  2
HEADER
  9
$ACADVER
  1
AC1018
  9
$DWGCODEPAGE
  3
ANSI_1252
  9
$EXTMAX
 10
22.0
 20
17.0
 30
0.0
  9
$EXTMIN
 10
0.0
 20
0.0
 30
0.0
  9
$LIMMIN
 10
0.0
 20
0.0
  9
$LIMMAX
 10
22.0
 20
17.0
  9
$VIEWCTR
 10
11.0
 20
8.5
  9
$VIEWSIZE
 40
17.0
  9
$CLAYER
  8
0
  9
$LTSCALE
 40
1.21
  9
$CELTYPE
  6
BYLAYER
  9
$DIMSCALE
 40
1.0
  9
$DIMASZ
 40
0.1
  9
$DIMEXO
 40
0.0625
  9
$DIMDLI
 40
0.836
  9
$DIMEXE
 40
0.125
  9
$DIMCEN
 40
0.198
  9
$DIMLFAC
 40
1.0
  9
$DIMBLK
  1
_FILLED
  9
$DIMALT
 70
1
  9
$DIMALTD
 70
2
  9
$DIMALTTD
 70
2
  9
$DIMALTF
 40
25.4
  9
$DIMTXT
 40
0.08
  9
$DIMTOL
 70
1
  9
$DIMLIM
 70
0
  9
$DIMTFAC
 40
1.0
  9
$DIMTP
 40
0.001
  9
$DIMTM
 40
0.001
  9
$DIMGAP
 40
0.09
  9
$DIMDSEP
 70
46
  9
$AUNITS
 70
0
  9
$PDMODE
 70
3
  9
$PDSIZE
 40
0.06
  9
$HANDSEED
  5
26F
  9
$TILEMODE
 70
1
  9
$MEASUREMENT
 70
0
  9
$INSUNITS
 70
1
  0
ENDSEC
  0
SECTION
  2
CLASSES
  0
CLASS
  1
ACDBDICTIONARYWDFLT
  2
AcDbDictionaryWithDefault
  3
AutoCAD 2000
 90
0
 91
1
280
0
281
0
  0
CLASS
  1
ACDBPLACEHOLDER
  2
AcDbPlaceHolder
  3
AutoCAD 2000
 90
0
 91
1
280
0
281
0
  0
CLASS
  1
LAYOUT
  2
AcDbLayout
  3
AutoCAD 2000
 90
0
 91
0
280
0
281
0
  0
ENDSEC
  0
SECTION
  2
TABLES
  0
TABLE
  2
VPORT
  5
8
100
AcDbSymbolTable
 70
2
  0
VPORT
  5
1F4
100
AcDbSymbolTableRecord
100
AcDbViewportTableRecord
  2
*ACTIVE
 70
0
 10
0.0
 20
0.0
 11
1.0
 21
1.0
 12
11.0
 22
8.5
 13
0.0
 23
0.0
 14
1.0
 24
1.0
 15
0.0
 25
0.0
 16
0.0
 26
0.0
 36
1.0
 17
0.0
 27
0.0
 37
0.0
 40
17.0
 41
1.2941176471
 42
50.0
 43
0.0
 44
0.0
 50
0.0
 51
0.0
 71
0
 72
100
 73
1
 74
1
 75
0
 76
0
 77
0
 78
0
  0
ENDTAB
  0
TABLE
  2
LTYPE
  5
5
100
AcDbSymbolTable
 70
6
  0
LTYPE
  5
14
100
AcDbSymbolTableRecord
100
AcDbLinetypeTableRecord
  2
BYBLOCK
 70
0
  3

 72
65
 73
0
 40
0.0
  0
LTYPE
  5
15
100
AcDbSymbolTableRecord
100
AcDbLinetypeTableRecord
  2
BYLAYER
 70
0
  3

 72
65
 73
0
 40
0.0
  0
LTYPE
  5
16
100
AcDbSymbolTableRecord
100
AcDbLinetypeTableRecord
  2
CONTINUOUS
 70
64
  3
Solid line
 72
65
 73
0
 40
0.0
  0
LTYPE
  5
1F5
100
AcDbSymbolTableRecord
100
AcDbLinetypeTableRecord
  2
CENTER
 70
64
  3
____ _ ____ _ ____ _ ____ _ ____ _ ____ _ ____
 72
65
 73
4
 40
0.6
 49
0.375
 74
0
 49
-0.075
 74
0
 49
0.075
 74
0
 49
-0.075
 74
0
  0
LTYPE
  5
1F6
100
AcDbSymbolTableRecord
100
AcDbLinetypeTableRecord
  2
HIDDEN
 70
64
  3
- - - - - - - - - - - - - - - - - - - -
 72
65
 73
2
 40
0.2
 49
0.1
 74
0
 49
-0.1
 74
0
  0
LTYPE
  5
1F7
100
AcDbSymbolTableRecord
100
AcDbLinetypeTableRecord
  2
PHANTOM
 70
64
  3
_____ _ _ _____ _ _ _____ _ _ _____
 72
65
 73
6
 40
0.8
 49
0.45
 74
0
 49
-0.05
 74
0
 49
0.1
 74
0
 49
-0.05
 74
0
 49
0.1
 74
0
 49
-0.05
 74
0
  0
LTYPE
  5
1F8
100
AcDbSymbolTableRecord
100
AcDbLinetypeTableRecord
  2
DOT
 70
64
  3
. . . . . . . . . . . . . . . . . . . .
 72
65
 73
2
 40
0.2
 49
0.1
 74
0
 49
-0.1
 74
0
  0
LTYPE
  5
1F9
100
AcDbSymbolTableRecord
100
AcDbLinetypeTableRecord
  2
DASHED
 70
64
  3
- - - - - - - - - - - - - - - - - - - -
 72
65
 73
2
 40
0.2
 49
0.1
 74
0
 49
-0.1
 74
0
  0
ENDTAB
  0
TABLE
  2
LAYER
  5
2
100
AcDbSymbolTable
 70
36
  0
LAYER
  5
10
100
AcDbSymbolTableRecord
100
AcDbLayerTableRecord
  2
0
 70
0
 62
7
  6
CONTINUOUS
370
-3
390
F
  0
LAYER
  5
1FA
100
AcDbSymbolTableRecord
100
AcDbLayerTableRecord
  2
DEFAULT_1
 70
0
 62
7
  6
CENTER
370
-3
390
F
  0
LAYER
  5
1FB
100
AcDbSymbolTableRecord
100
AcDbLayerTableRecord
  2
DEFAULT_2
 70
0
 62
8
  6
HIDDEN
370
-3
390
F
  0
LAYER
  5
1FC
100
AcDbSymbolTableRecord
100
AcDbLayerTableRecord
  2
DEFAULT_3
 70
0
 62
7
  6
PHANTOM
370
-3
390
F
  0
LAYER
  5
1FD
100
AcDbSymbolTableRecord
100
AcDbLayerTableRecord
  2
ALL_FEATURES
 70
0
 62
7
  6
CONTINUOUS
370
-3
390
F
  0
LAYER
  5
1FE
100
AcDbSymbolTableRecord
100
AcDbLayerTableRecord
  2
AXES_FEATURES
 70
0
 62
7
  6
CONTINUOUS
370
-3
390
F
  0
LAYER
  5
1FF
100
AcDbSymbolTableRecord
100
AcDbLayerTableRecord
  2
DIMENSIONS
 70
0
 62
7
  6
CONTINUOUS
370
-3
390
F
  0
ENDTAB
  0
TABLE
  2
STYLE
  5
3
100
AcDbSymbolTable
 70
1
  0
STYLE
  5
11
100
AcDbSymbolTableRecord
100
AcDbTextStyleTableRecord
  2
STANDARD
 70
0
 40
0.0
 41
0.8
 50
0.0
 71
0
 42
0.2
  3
txt
  4

  0
STYLE
  5
200
100
AcDbSymbolTableRecord
100
AcDbTextStyleTableRecord
  2
TEXTSTYLE_1
 70
0
 40
0.0
 41
0.8
 50
0.0
 71
0
 42
0.2
  3
gdt
  4

  0
ENDTAB
  0
TABLE
  2
VIEW
  5
6
100
AcDbSymbolTable
 70
0
  0
ENDTAB
  0
TABLE
  2
UCS
  5
7
100
AcDbSymbolTable
 70
0
  0
ENDTAB
  0
TABLE
  2
APPID
  5
9
100
AcDbSymbolTable
 70
1
  0
APPID
  5
201
100
AcDbSymbolTableRecord
100
AcDbRegAppTableRecord
  2
ACAD
 70
0
  0
ENDTAB
  0
TABLE
  2
BLOCK_RECORD
  5
1
100
AcDbSymbolTable
 70
0
  0
BLOCK_RECORD
  5
202
100
AcDbSymbolTableRecord
100
AcDbBlockTableRecord
  2
*Model_Space
  0
BLOCK_RECORD
  5
203
100
AcDbSymbolTableRecord
100
AcDbBlockTableRecord
  2
*Paper_Space
  0
BLOCK_RECORD
  5
204
100
AcDbSymbolTableRecord
100
AcDbBlockTableRecord
  2
_FILLED
  0
ENDTAB
  0
TABLE
  2
DIMSTYLE
  5
A
100
AcDbSymbolTable
 70
1
100
AcDbDimStyleTable
 71
0
  0
DIMSTYLE
105
205
100
AcDbSymbolTableRecord
100
AcDbDimStyleTableRecord
  2
STANDARD
 70
0
  3

  4

 40
1.0
 41
0.1
 42
0.0625
 43
0.38
 44
0.125
 45
0.0
 46
0.0
 47
0.001
 48
0.001
140
0.08
141
0.09
142
0.0
143
25.4
144
1.0
145
0.0
146
1.0
147
0.09
 71
1.0
 72
0.0
 73
1
 74
1
 75
0
 76
0
 77
0
 78
4
 79
1
170
1
171
2
172
0
173
0
174
0
175
0
176
0
177
0
178
0
270
2
179
3
271
3
272
3
273
2
274
2
275
0
280
0
281
0
282
0
283
1
284
4
285
0
286
0
287
3
288
0
340
11
278
46
341
204
342
204
343
204
344
204
  0
ENDTAB
  0
ENDSEC
  0
SECTION
  2
BLOCKS
  0
BLOCK
  5
20
100
AcDbEntity
  8
0
100
AcDbBlockBegin
  2
*Model_Space
 70
0
 10
0.0
 20
0.0
 30
0.0
  3
*Model_Space
  1

  0
ENDBLK
  5
21
100
AcDbEntity
  8
0
100
AcDbBlockEnd
  0
BLOCK
  5
1C
100
AcDbEntity
  8
0
100
AcDbBlockBegin
  2
*Paper_Space
 70
0
 10
0.0
 20
0.0
 30
0.0
  3
*Paper_Space
  1

  0
ENDBLK
  5
1D
100
AcDbEntity
  8
0
100
AcDbBlockEnd
  0
BLOCK
  5
206
100
AcDbEntity
  8
0
100
AcDbBlockBegin
  2
_FILLED
 70
64
 10
0.0
 20
0.0
  3
_FILLED
  1

  0
SOLID
  5
207
100
AcDbEntity
  8
0
  6
BYBLOCK
 62
0
100
AcDbTrace
 10
0.0
 20
0.0
 11
-1.0
 21
0.2
 12
-1.0
 22
-0.2
 13
-1.0
 23
-0.2
  0
ENDBLK
  5
208
100
AcDbEntity
  8
0
  6
BYBLOCK
 62
0
100
AcDbBlockEnd
  0
ENDSEC
  0
SECTION
  2
ENTITIES
  0
LINE
  5
209
100
AcDbEntity
  8
0
100
AcDbLine
 62
7
  6
CONTINUOUS
 10
7.0866084891
 20
10.100891804
 11
7.0866084891
 21
10.674891804
  0
LINE
  5
20A
100
AcDbEntity
  8
0
100
AcDbLine
 62
9
  6
CONTINUOUS
 10
7.1666084951
 20
10.714891804
 11
7.1666084891
 21
10.060891804
  0
LINE
  5
20B
100
AcDbEntity
  8
0
100
AcDbLine
 62
7
  6
CONTINUOUS
 10
7.3241084891
 20
10.060891804
 11
7.3241084891
 21
9.924891804
  0
LINE
  5
20C
100
AcDbEntity
  8
0
100
AcDbLine
 62
7
  6
CONTINUOUS
 10
7.3711084891
 20
9.734891804
 11
7.3711084891
 21
9.924891804
  0
LINE
  5
20D
100
AcDbEntity
  8
0
100
AcDbLine
 62
7
  6
CONTINUOUS
 10
8.1521084891
 20
9.924891804
 11
8.1521084891
 21
9.734891804
  0
LINE
  5
20E
100
AcDbEntity
  8
0
100
AcDbLine
 62
7
  6
CONTINUOUS
 10
8.1991084891
 20
10.060891804
 11
8.1991084891
 21
9.924891804
  0
LINE
  5
20F
100
AcDbEntity
  8
0
100
AcDbLine
 62
7
  6
CONTINUOUS
 10
12.1333584891
 20
7.254891804
 11
14.3333584891
 21
7.254891804
  0
LINE
  5
210
100
AcDbEntity
  8
0
100
AcDbLine
 62
9
  6
CONTINUOUS
 10
14.3333584891
 20
7.524891804
 11
12.1333584891
 21
7.524891804
  0
LINE
  5
211
100
AcDbEntity
  8
0
100
AcDbLine
 62
7
  6
CONTINUOUS
 10
12.1733584891
 20
7.564891804
 11
14.2933584891
 21
7.564891804
  0
LINE
  5
212
100
AcDbEntity
  8
0
100
AcDbLine
 62
7
  6
CONTINUOUS
 10
13.6633584891
 20
7.940891804
 11
12.8033584891
 21
7.940891804
  0
LINE
  5
213
100
AcDbEntity
  8
0
100
AcDbLine
 62
7
  6
CONTINUOUS
 10
12.8033696832
 20
7.990891804
 11
13.663347295
 21
7.990891804
  0
LINE
  5
214
100
AcDbEntity
  8
0
100
AcDbLine
 62
7
  6
CONTINUOUS
 10
13.0888626539
 20
10.5523168316
 11
13.0888594654
 21
10.5523156945
  0
LWPOLYLINE
  5
215
100
AcDbEntity
  8
0
100
AcDbPolyline
 62
7
  6
CONTINUOUS
 90
9
 70
0
 10
13.0936093207
 20
10.5543747583
 10
13.0401430077
 20
10.5314694307
 10
12.980673317
 20
10.4952469106
 10
12.9274845722
 20
10.44955084
 10
12.8823039688
 20
10.395639051
 10
12.8463931934
 20
10.3348299806
 10
12.8206844067
 20
10.2681627328
 10
12.8057526722
 20
10.1926598354
 10
12.8033584727
 20
10.1473828912
  0
LINE
  5
216
100
AcDbEntity
  8
0
100
AcDbLine
 62
7
  6
CONTINUOUS
 10
7.3711084891
 20
9.734891804
 11
8.1521084891
 21
9.734891804
  0
LINE
  5
217
100
AcDbEntity
  8
0
100
AcDbLine
 62
9
  6
CONTINUOUS
 10
13.3047201913
 20
9.740891804
 11
13.161996787
 21
9.740891804
  0
LINE
  5
218
100
AcDbEntity
  8
0
100
AcDbLine
 62
7
  6
CONTINUOUS
 10
13.3113584891
 20
9.780891804
 11
13.1553584891
 21
9.780891804
  0
LINE
  5
219
100
AcDbEntity
  8
0
100
AcDbLine
 62
9
  6
CONTINUOUS
 10
13.1153584891
 20
9.820891804
 11
13.3513584891
 21
9.820891804
  0
LINE
  5
21A
100
AcDbEntity
  8
0
100
AcDbLine
 62
7
  6
CONTINUOUS
 10
7.3241119185
 20
9.924891804
 11
7.3711084891
 21
9.924891804
  0
LINE
  5
21B
100
AcDbEntity
  8
0
100
AcDbLine
 62
7
  6
CONTINUOUS
 10
8.1521084891
 20
9.924891804
 11
8.1991050598
 21
9.924891804
  0
LINE
  5
21C
100
AcDbEntity
  8
0
100
AcDbLine
 62
9
  6
CONTINUOUS
 10
12.7301084891
 20
9.980891804
 11
12.6901084891
 21
9.980891804
  0
LINE
  5
21D
100
AcDbEntity
  8
0
100
AcDbLine
 62
7
  6
CONTINUOUS
 10
7.1266084891
 20
10.060891804
 11
12.6101084891
 21
10.060891804
  0
LINE
  5
21E
100
AcDbEntity
  8
0
100
AcDbLine
 62
9
  6
CONTINUOUS
 10
7.0866084891
 20
10.100891804
 11
12.6101067833
 21
10.100891804
  0
LINE
  5
21F
100
AcDbEntity
  8
0
100
AcDbLine
 62
7
  6
CONTINUOUS
 10
12.1333584891
 20
7.254891804
 11
12.1333584891
 21
7.524891804
  0
LINE
  5
220
100
AcDbEntity
  8
0
100
AcDbLine
 62
9
  6
CONTINUOUS
 10
12.1733584891
 20
7.564891804
 11
12.1733584891
 21
7.254891804
  0
LINE
  5
221
100
AcDbEntity
  8
0
100
AcDbLine
 62
7
  6
CONTINUOUS
 10
13.5482008754
 20
10.438891804
 11
14.0866084891
 21
10.438891804
  0
LINE
  5
222
100
AcDbEntity
  8
0
100
AcDbLine
 62
9
  6
CONTINUOUS
 10
12.6101084891
 20
10.060891804
 11
12.6101084891
 21
10.100891804
  0
LINE
  5
223
100
AcDbEntity
  8
0
100
AcDbLine
 62
9
  6
CONTINUOUS
 10
14.0866084891
 20
10.674891804
 11
13.3513584891
 21
10.674891804
  0
LINE
  5
224
100
AcDbEntity
  8
0
100
AcDbLine
 62
9
  6
CONTINUOUS
 10
13.1153584891
 20
10.674891804
 11
7.0866084891
 21
10.674891804
  0
LINE
  5
225
100
AcDbEntity
  8
0
100
AcDbLine
 62
7
  6
CONTINUOUS
 10
7.1266084891
 20
10.714891804
 11
13.1153584891
 21
10.714891804
  0
LINE
  5
226
100
AcDbEntity
  8
0
100
AcDbLine
 62
7
  6
CONTINUOUS
 10
13.3513584891
 20
10.714891804
 11
14.0466084891
 21
10.714891804
  0
LINE
  5
227
100
AcDbEntity
  8
0
100
AcDbLine
 62
9
  6
CONTINUOUS
 10
13.3513584891
 20
10.724891804
 11
13.1153584891
 21
10.724891804
  0
LINE
  5
228
100
AcDbEntity
  8
0
100
AcDbLine
 62
7
  6
CONTINUOUS
 10
13.1553584891
 20
10.764891804
 11
13.3113584891
 21
10.764891804
  0
LINE
  5
229
100
AcDbEntity
  8
0
100
AcDbLine
 62
7
  6
CONTINUOUS
 10
12.6901084891
 20
7.564891804
 11
12.6901084891
 21
9.980891804
  0
LINE
  5
22A
100
AcDbEntity
  8
0
100
AcDbLine
 62
9
  6
CONTINUOUS
 10
12.7301084891
 20
9.9808900981
 11
12.7301084891
 21
7.564891804
  0
LINE
  5
22B
100
AcDbEntity
  8
0
100
AcDbLine
 62
7
  6
CONTINUOUS
 10
12.8033584891
 20
7.940891804
 11
12.8033584891
 21
7.564891804
  0
LINE
  5
22C
100
AcDbEntity
  8
0
100
AcDbLine
 62
7
  6
CONTINUOUS
 10
12.8033584891
 20
7.990891804
 11
12.803358494
 21
10.1473739753
  0
LWPOLYLINE
  5
22D
100
AcDbEntity
  8
0
100
AcDbPolyline
 62
7
  6
CONTINUOUS
 90
5
 70
0
 10
13.1153584919
 20
10.5899683709
 10
13.1138656565
 20
10.5791425617
 10
13.1094923304
 20
10.5691145817
 10
13.1025645603
 20
10.5606455362
 10
13.0936093207
 20
10.5543747583
  0
LINE
  5
22E
100
AcDbEntity
  8
0
100
AcDbLine
 62
7
  6
CONTINUOUS
 10
12.8933584891
 20
7.940891804
 11
12.8933584891
 21
7.946891804
  0
LINE
  5
22F
100
AcDbEntity
  8
0
100
AcDbLine
 62
9
  6
CONTINUOUS
 10
13.0753584891
 20
9.8190464956
 11
13.0753584891
 21
10.5321683073
  0
LINE
  5
230
100
AcDbEntity
  8
0
100
AcDbLine
 62
7
  6
CONTINUOUS
 10
13.1153584891
 20
9.820891804
 11
13.1153584891
 21
10.724891804
  0
LINE
  5
231
100
AcDbEntity
  8
0
100
AcDbLine
 62
9
  6
CONTINUOUS
 10
13.1553584891
 20
10.764891804
 11
13.1553584891
 21
9.780891804
  0
LINE
  5
232
100
AcDbEntity
  8
0
100
AcDbLine
 62
7
  6
CONTINUOUS
 10
13.3778368731
 20
10.5523228373
 11
13.3778332287
 21
10.5523241371
  0
LINE
  5
233
100
AcDbEntity
  8
0
100
AcDbLine
 62
9
  6
CONTINUOUS
 10
13.3113584891
 20
9.780891804
 11
13.3113584891
 21
10.764891804
  0
LINE
  5
234
100
AcDbEntity
  8
0
100
AcDbLine
 62
7
  6
CONTINUOUS
 10
13.3513584891
 20
10.724891804
 11
13.3513584891
 21
9.820891804
  0
LINE
  5
235
100
AcDbEntity
  8
0
100
AcDbLine
 62
9
  6
CONTINUOUS
 10
13.3913584891
 20
10.5321685753
 11
13.3913584891
 21
9.8190467573
  0
LWPOLYLINE
  5
236
100
AcDbEntity
  8
0
100
AcDbPolyline
 62
7
  6
CONTINUOUS
 90
6
 70
0
 10
13.4270900145
 20
10.5312094249
 10
13.3731080108
 20
10.5543741829
 10
13.3641535044
 20
10.56064406
 10
13.3572260951
 20
10.5691116616
 10
13.3528521975
 20
10.579138797
 10
13.3513584728
 20
10.5899677029
  0
LINE
  5
237
100
AcDbEntity
  8
0
100
AcDbLine
 62
7
  6
CONTINUOUS
 10
13.5733584891
 20
7.940891804
 11
13.5733584891
 21
7.946891804
  0
LINE
  5
238
100
AcDbEntity
  8
0
100
AcDbLine
 62
7
  6
CONTINUOUS
 10
13.6633584891
 20
7.940891804
 11
13.6633584891
 21
7.564891804
  0
LINE
  5
239
100
AcDbEntity
  8
0
100
AcDbLine
 62
7
  6
CONTINUOUS
 10
13.6633584891
 20
7.990891804
 11
13.6633584891
 21
10.14732252
  0
LWPOLYLINE
  5
23A
100
AcDbEntity
  8
0
100
AcDbPolyline
 62
7
  6
CONTINUOUS
 90
8
 70
0
 10
13.6633585081
 20
10.1472962541
 10
13.6610230636
 20
10.1921022091
 10
13.6461764088
 20
10.2676694114
 10
13.6205448344
 20
10.3343721421
 10
13.5847120575
 20
10.3952157933
 10
13.5396090164
 20
10.4491696999
 10
13.486493697
 20
10.4949198907
 10
13.4270900145
 20
10.5312094249
  0
LINE
  5
23B
100
AcDbEntity
  8
0
100
AcDbLine
 62
9
  6
CONTINUOUS
 10
13.7366084891
 20
7.564891804
 11
13.7366084891
 21
10.438891804
  0
LINE
  5
23C
100
AcDbEntity
  8
0
100
AcDbLine
 62
7
  6
CONTINUOUS
 10
13.7766084891
 20
10.438891804
 11
13.7766084891
 21
7.564891804
  0
LINE
  5
23D
100
AcDbEntity
  8
0
100
AcDbLine
 62
9
  6
CONTINUOUS
 10
14.0466084891
 20
10.438891804
 11
14.0466084891
 21
10.714891804
  0
LINE
  5
23E
100
AcDbEntity
  8
0
100
AcDbLine
 62
7
  6
CONTINUOUS
 10
14.0866084891
 20
10.674891804
 11
14.0866084891
 21
10.438891804
  0
LINE
  5
23F
100
AcDbEntity
  8
0
100
AcDbLine
 62
9
  6
CONTINUOUS
 10
14.2933584891
 20
7.254891804
 11
14.2933584891
 21
7.564891804
  0
LINE
  5
240
100
AcDbEntity
  8
0
100
AcDbLine
 62
7
  6
CONTINUOUS
 10
14.3333584891
 20
7.524891804
 11
14.3333584891
 21
7.254891804
  0
ARC
  5
241
100
AcDbEntity
  8
0
100
AcDbCircle
 62
7
  6
CONTINUOUS
 10
7.1266084891
 20
10.674891804
 40
0.04
100
AcDbArc
 50
90.0
 51
180.0
  0
ARC
  5
242
100
AcDbEntity
  8
0
100
AcDbCircle
 62
7
  6
CONTINUOUS
 10
7.1266084891
 20
10.100891804
 40
0.04
100
AcDbArc
 50
180.0
 51
270.0
  0
ARC
  5
243
100
AcDbEntity
  8
0
100
AcDbCircle
 62
7
  6
CONTINUOUS
 10
12.5477841727
 20
7.972268385
 40
0.3465050228
100
AcDbArc
 50
356.004792979
 51
356.4630639477
  0
ARC
  5
244
100
AcDbEntity
  8
0
100
AcDbCircle
 62
7
  6
CONTINUOUS
 10
13.9154913201
 20
7.9720553552
 40
0.3430568558
100
AcDbArc
 50
183.3909481126
 51
183.9880593694
  0
ARC
  5
245
100
AcDbEntity
  8
0
100
AcDbCircle
 62
7
  6
CONTINUOUS
 10
12.5545486996
 20
7.9718901429
 40
0.3397300485
100
AcDbArc
 50
356.4563524149
 51
3.2387520851
  0
ARC
  5
246
100
AcDbEntity
  8
0
100
AcDbCircle
 62
7
  6
CONTINUOUS
 10
13.9118726787
 20
7.9718888581
 40
0.339434676
100
AcDbArc
 50
176.7645694585
 51
183.3990220729
  0
ARC
  5
247
100
AcDbEntity
  8
0
100
AcDbCircle
 62
7
  6
CONTINUOUS
 10
12.1733584891
 20
7.524891804
 40
0.04
100
AcDbArc
 50
90.0
 51
180.0
  0
ARC
  5
248
100
AcDbEntity
  8
0
100
AcDbCircle
 62
7
  6
CONTINUOUS
 10
14.2933584891
 20
7.524891804
 40
0.04
100
AcDbArc
 50
0.0
 51
90.0
  0
ARC
  5
249
100
AcDbEntity
  8
0
100
AcDbCircle
 62
7
  6
CONTINUOUS
 10
13.2333584891
 20
7.971891804
 40
0.025
100
AcDbArc
 50
129.8604536291
 51
49.9828257449
  0
ARC
  5
24A
100
AcDbEntity
  8
0
100
AcDbCircle
 62
9
  6
CONTINUOUS
 10
13.2333489403
 20
10.1756075151
 40
0.3899963124
100
AcDbArc
 50
113.8979124815
 51
246.1021011012
  0
ARC
  5
24B
100
AcDbEntity
  8
0
100
AcDbCircle
 62
9
  6
CONTINUOUS
 10
13.2333680379
 20
10.1756075505
 40
0.389996312
100
AcDbArc
 50
293.8979123806
 51
66.1021016347
  0
ARC
  5
24C
100
AcDbEntity
  8
0
100
AcDbCircle
 62
9
  6
CONTINUOUS
 10
12.6101084891
 20
9.980891804
 40
0.1199997748
100
AcDbArc
 50
359.9991854781
 51
90.0008144601
  0
ARC
  5
24D
100
AcDbEntity
  8
0
100
AcDbCircle
 62
7
  6
CONTINUOUS
 10
12.6101084891
 20
9.980891804
 40
0.08
100
AcDbArc
 50
0.0
 51
90.0
  0
ARC
  5
24E
100
AcDbEntity
  8
0
100
AcDbCircle
 62
7
  6
CONTINUOUS
 10
14.0466084891
 20
10.674891804
 40
0.04
100
AcDbArc
 50
0.0
 51
90.0
  0
ARC
  5
24F
100
AcDbEntity
  8
0
100
AcDbCircle
 62
7
  6
CONTINUOUS
 10
13.1553584891
 20
9.820891804
 40
0.04
100
AcDbArc
 50
179.9999999899
 51
270.0
  0
ARC
  5
250
100
AcDbEntity
  8
0
100
AcDbCircle
 62
7
  6
CONTINUOUS
 10
13.1553584891
 20
10.724891804
 40
0.04
100
AcDbArc
 50
90.0
 51
180.0
  0
ARC
  5
251
100
AcDbEntity
  8
0
100
AcDbCircle
 62
7
  6
CONTINUOUS
 10
13.3113584891
 20
10.724891804
 40
0.04
100
AcDbArc
 50
0.0
 51
90.0
  0
ARC
  5
252
100
AcDbEntity
  8
0
100
AcDbCircle
 62
7
  6
CONTINUOUS
 10
13.3113584891
 20
9.820891804
 40
0.04
100
AcDbArc
 50
270.0
 51
360.0
  0
LINE
  5
253
100
AcDbEntity
  8
0
100
AcDbLine
 62
7
  6
CONTINUOUS
 10
12.8933584891
 20
7.946891804
 11
12.8934180957
 21
7.9477143054
  0
LINE
  5
254
100
AcDbEntity
  8
0
100
AcDbLine
 62
7
  6
CONTINUOUS
 10
12.8934180957
 20
7.9477143054
 11
12.8934471475
 21
7.9481263322
  0
LINE
  5
255
100
AcDbEntity
  8
0
100
AcDbLine
 62
7
  6
CONTINUOUS
 10
13.5732651538
 20
7.9481962392
 11
13.5733087258
 21
7.947577146
  0
LINE
  5
256
100
AcDbEntity
  8
0
100
AcDbLine
 62
7
  6
CONTINUOUS
 10
13.5733087258
 20
7.947577146
 11
13.5733584891
 21
7.946891804
  0
SPLINE
  5
257
100
AcDbEntity
  8
0
100
AcDbSpline
 62
9
  6
CONTINUOUS
 70
0
 71
3
 72
14
 73
10
 74
0
 42
0.0000001
 43
0.0000001
 44
0.0000000001
 40
0.0
 40
0.0
 40
0.0
 40
0.0
 40
0.1254728974
 40
0.2507487833
 40
0.3756496338
 40
0.5003122669
 40
0.6249015024
 40
0.7497373453
 40
1.0
 40
1.0
 40
1.0
 40
1.0
 10
13.3047201913
 20
9.740891804
 30
0.0
 10
13.3077832925
 20
9.7408916899
 30
0.0
 10
13.3139126108
 20
9.7413185872
 30
0.0
 10
13.3229167768
 20
9.7431925961
 30
0.0
 10
13.3315698569
 20
9.7462525589
 30
0.0
 10
13.3397327405
 20
9.7504068105
 30
0.0
 10
13.3472930435
 20
9.7555761255
 30
0.0
 10
13.3564495633
 20
9.7636690256
 30
0.0
 10
13.3621805458
 20
9.7709522876
 30
0.0
 10
13.3653892226
 20
9.7761513927
 30
0.0
  0
SPLINE
  5
258
100
AcDbEntity
  8
0
100
AcDbSpline
 62
9
  6
CONTINUOUS
 70
0
 71
3
 72
14
 73
10
 74
0
 42
0.0000001
 43
0.0000001
 44
0.0000000001
 40
0.0
 40
0.0
 40
0.0
 40
0.0
 40
0.2502918511
 40
0.3751240051
 40
0.4997071552
 40
0.6243651057
 40
0.7492569972
 40
0.8745265038
 40
1.0
 40
1.0
 40
1.0
 40
1.0
 10
13.1013332116
 20
9.776154618
 30
0.0
 10
13.1045428081
 20
9.7709553191
 30
0.0
 10
13.1102667386
 20
9.7636660993
 30
0.0
 10
13.1194246739
 20
9.7555733887
 30
0.0
 10
13.1269871136
 20
9.7504081943
 30
0.0
 10
13.1351489156
 20
9.7462535806
 30
0.0
 10
13.1438006508
 20
9.743191378
 30
0.0
 10
13.1528045892
 20
9.741317899
 30
0.0
 10
13.1589337036
 20
9.7408917886
 30
0.0
 10
13.161996787
 20
9.740891804
 30
0.0
  0
SPLINE
  5
259
100
AcDbEntity
  8
0
100
AcDbSpline
 62
9
  6
CONTINUOUS
 70
0
 71
3
 72
24
 73
20
 74
0
 42
0.0000001
 43
0.0000001
 44
0.0000000001
 40
0.0
 40
0.0
 40
0.0
 40
0.0
 40
0.0544783673
 40
0.109141386
 40
0.1641755559
 40
0.2197691146
 40
0.2761127884
 40
0.3334018617
 40
0.3918359399
 40
0.4516168016
 40
0.5129490547
 40
0.5760360103
 40
0.6410720427
 40
0.7082349975
 40
0.7776664234
 40
0.8494554636
 40
0.8862441411
 40
0.9236151203
 40
1.0
 40
1.0
 40
1.0
 40
1.0
 10
13.6633585486
 20
10.1473006557
 30
0.0
 10
13.6633578639
 20
10.1380312996
 30
0.0
 10
13.662626058
 20
10.1194529506
 30
0.0
 10
13.6593323277
 20
10.0916861531
 30
0.0
 10
13.653829665
 20
10.0640759762
 30
0.0
 10
13.6460955211
 20
10.036708844
 30
0.0
 10
13.6360987797
 20
10.0096747096
 30
0.0
 10
13.6238009234
 20
9.9830726833
 30
0.0
 10
13.6091561606
 20
9.9570130904
 30
0.0
 10
13.5921118302
 20
9.9316217345
 30
0.0
 10
13.5726130494
 20
9.9070424419
 30
0.0
 10
13.550606085
 20
9.8834408633
 30
0.0
 10
13.5260412085
 20
9.8610128877
 30
0.0
 10
13.4988899716
 20
9.839979862
 30
0.0
 10
13.469146883
 20
9.8206089741
 30
0.0
 10
13.4424603215
 20
9.8062054638
 30
0.0
 10
13.4199087583
 20
9.7957928013
 30
0.0
 10
13.3962173744
 20
9.7860408274
 30
0.0
 10
13.3778626331
 20
9.7798021569
 30
0.0
 10
13.3653892226
 20
9.7761513927
 30
0.0
  0
SPLINE
  5
25A
100
AcDbEntity
  8
0
100
AcDbSpline
 62
9
  6
CONTINUOUS
 70
0
 71
3
 72
15
 73
11
 74
0
 42
0.0000001
 43
0.0000001
 44
0.0000000001
 40
0.0
 40
0.0
 40
0.0
 40
0.0
 40
0.121843533
 40
0.2476228843
 40
0.375812896
 40
0.5050811862
 40
0.6338482185
 40
0.7602665555
 40
0.8826868162
 40
1.0
 40
1.0
 40
1.0
 40
1.0
 10
13.0753584891
 20
9.8190465349
 30
0.0
 10
13.076767125
 20
9.8190465349
 30
0.0
 10
13.0796309922
 20
9.8191556023
 30
0.0
 10
13.0839517837
 20
9.8196488906
 30
0.0
 10
13.0883050584
 20
9.8205008722
 30
0.0
 10
13.0926008673
 20
9.8217411254
 30
0.0
 10
13.0967462729
 20
9.8233620698
 30
0.0
 10
13.1006489048
 20
9.8253346053
 30
0.0
 10
13.1042112326
 20
9.8276373161
 30
0.0
 10
13.1063478155
 20
9.8294156604
 30
0.0
 10
13.1073337171
 20
9.8303470251
 30
0.0
  0
SPLINE
  5
25B
100
AcDbEntity
  8
0
100
AcDbSpline
 62
9
  6
CONTINUOUS
 70
0
 71
3
 72
12
 73
8
 74
0
 42
0.0000001
 43
0.0000001
 44
0.0000000001
 40
0.0
 40
0.0
 40
0.0
 40
0.0
 40
0.2809579471
 40
0.4133103487
 40
0.5399942528
 40
0.7782047354
 40
1.0
 40
1.0
 40
1.0
 40
1.0
 10
13.1073337171
 20
9.8303470251
 30
0.0
 10
13.1086475267
 20
9.8315881589
 30
0.0
 10
13.1104343843
 20
9.8335834907
 30
0.0
 10
13.112351544
 20
9.8364860156
 30
0.0
 10
13.1138286782
 20
9.8393291962
 30
0.0
 10
13.1150332061
 20
9.842936847
 30
0.0
 10
13.1153589901
 20
9.8459038494
 30
0.0
 10
13.11535898
 20
9.8473306158
 30
0.0
  0
SPLINE
  5
25C
100
AcDbEntity
  8
0
100
AcDbSpline
 62
9
  6
CONTINUOUS
 70
0
 71
3
 72
19
 73
15
 74
0
 42
0.0000001
 43
0.0000001
 44
0.0000000001
 40
0.0
 40
0.0
 40
0.0
 40
0.0
 40
0.0379893065
 40
0.0779102595
 40
0.1667456293
 40
0.217490115
 40
0.2728316708
 40
0.3327340221
 40
0.3970440592
 40
0.4654807669
 40
0.5374465654
 40
0.6888546422
 40
0.845002781
 40
1.0
 40
1.0
 40
1.0
 40
1.0
 10
13.1153582798
 20
9.8208918801
 30
0.0
 10
13.1153582875
 20
9.820379558
 30
0.0
 10
13.1152571551
 20
9.8193264471
 30
0.0
 10
13.1146370793
 20
9.817154162
 30
0.0
 10
13.1133594713
 20
9.8150420954
 30
0.0
 10
13.1115733282
 20
9.8131094826
 30
0.0
 10
13.1098717987
 20
9.8116470639
 30
0.0
 10
13.1078858053
 20
9.8102561784
 30
0.0
 10
13.1056340637
 20
9.8089541643
 30
0.0
 10
13.1031412634
 20
9.8077620619
 30
0.0
 10
13.0994846144
 20
9.8063015728
 30
0.0
 10
13.0945738131
 20
9.8048209894
 30
0.0
 10
13.0884482566
 20
9.8036040773
 30
0.0
 10
13.0842755629
 20
9.8031183386
 30
0.0
 10
13.0821917551
 20
9.8029539012
 30
0.0
  0
SPLINE
  5
25D
100
AcDbEntity
  8
0
100
AcDbSpline
 62
9
  6
CONTINUOUS
 70
0
 71
3
 72
12
 73
8
 74
0
 42
0.0000001
 43
0.0000001
 44
0.0000000001
 40
0.0
 40
0.0
 40
0.0
 40
0.0
 40
0.2396085213
 40
0.3631804935
 40
0.4884404073
 40
0.7426550366
 40
1.0
 40
1.0
 40
1.0
 40
1.0
 10
13.0821917257
 20
9.8029538811
 30
0.0
 10
13.0830981428
 20
9.8004562309
 30
0.0
 10
13.0847553659
 20
9.7967660496
 30
0.0
 10
13.0874769253
 20
9.7920798008
 30
0.0
 10
13.0906037767
 20
9.7874553561
 30
0.0
 10
13.0951034432
 20
9.7819902585
 30
0.0
 10
13.0991845731
 20
9.7780324361
 30
0.0
 10
13.1013334118
 20
9.776154618
 30
0.0
  0
SPLINE
  5
25E
100
AcDbEntity
  8
0
100
AcDbSpline
 62
9
  6
CONTINUOUS
 70
0
 71
3
 72
23
 73
19
 74
0
 42
0.0000001
 43
0.0000001
 44
0.0000000001
 40
0.0
 40
0.0
 40
0.0
 40
0.0
 40
0.0763862587
 40
0.1505313089
 40
0.2223216673
 40
0.2917543616
 40
0.3589186107
 40
0.4239554908
 40
0.4870437131
 40
0.5483766191
 40
0.6081582287
 40
0.6665933604
 40
0.7238827752
 40
0.7802272213
 40
0.8358217273
 40
0.8908565183
 40
0.9455204915
 40
1.0
 40
1.0
 40
1.0
 40
1.0
 10
13.1013332116
 20
9.776154618
 30
0.0
 10
13.0888591273
 20
9.7798056141
 30
0.0
 10
13.0645705115
 20
9.7880506358
 30
0.0
 10
13.0298546207
 20
9.803183863
 30
0.0
 10
12.9975686575
 20
9.8206098773
 30
0.0
 10
12.9678232723
 20
9.839982134
 30
0.0
 10
12.9406714223
 20
9.8610170683
 30
0.0
 10
12.9161049134
 20
9.8834460083
 30
0.0
 10
12.894097977
 20
9.9070498872
 30
0.0
 10
12.8745984816
 20
9.9316306342
 30
0.0
 10
12.8575539956
 20
9.9570237783
 30
0.0
 10
12.842909819
 20
9.9830853698
 30
0.0
 10
12.8306120752
 20
10.0096890357
 30
0.0
 10
12.8206161227
 20
10.0367249821
 30
0.0
 10
12.8128830434
 20
10.0640939107
 30
0.0
 10
12.8073814595
 20
10.0917057967
 30
0.0
 10
12.8040891871
 20
10.1194742734
 30
0.0
 10
12.8033585194
 20
10.1380537091
 30
0.0
 10
12.8033584373
 20
10.1473235997
 30
0.0
  0
SPLINE
  5
25F
100
AcDbEntity
  8
0
100
AcDbSpline
 62
9
  6
CONTINUOUS
 70
0
 71
3
 72
9
 73
5
 74
0
 42
0.0000001
 43
0.0000001
 44
0.0000000001
 40
0.0
 40
0.0
 40
0.0
 40
0.0
 40
0.4872887089
 40
1.0
 40
1.0
 40
1.0
 40
1.0
 10
13.0753582326
 20
9.8190472091
 30
0.0
 10
13.0766215426
 20
9.8165024487
 30
0.0
 10
13.0790503702
 20
9.8111978418
 30
0.0
 10
13.0811766506
 20
9.8057655083
 30
0.0
 10
13.0821919684
 20
9.8029539093
 30
0.0
  0
SPLINE
  5
260
100
AcDbEntity
  8
0
100
AcDbSpline
 62
9
  6
CONTINUOUS
 70
0
 71
3
 72
16
 73
12
 74
0
 42
0.0000001
 43
0.0000001
 44
0.0000000001
 40
0.0
 40
0.0
 40
0.0
 40
0.0
 40
0.0269585881
 40
0.0583506799
 40
0.094592773
 40
0.135884257
 40
0.2338019174
 40
0.3518937688
 40
0.4890487903
 40
0.6438389199
 40
1.0
 40
1.0
 40
1.0
 40
1.0
 10
13.0888064608
 20
10.5522728243
 30
0.0
 10
13.0885996777
 20
10.5521982056
 30
0.0
 10
13.0881701816
 20
10.5519862004
 30
0.0
 10
13.0875359289
 20
10.5515442456
 30
0.0
 10
13.0868652282
 20
10.5509598102
 30
0.0
 10
13.0858656973
 20
10.5499345834
 30
0.0
 10
13.0845485555
 20
10.5482961761
 30
0.0
 10
13.0829153844
 20
10.5459226533
 30
0.0
 10
13.081161395
 20
10.5430746185
 30
0.0
 10
13.0785542061
 20
10.5384766767
 30
0.0
 10
13.0766490498
 20
10.5347691733
 30
0.0
 10
13.075357771
 20
10.5321676923
 30
0.0
  0
SPLINE
  5
261
100
AcDbEntity
  8
0
100
AcDbSpline
 62
9
  6
CONTINUOUS
 70
0
 71
3
 72
22
 73
18
 74
0
 42
0.0000001
 43
0.0000001
 44
0.0000000001
 40
0.0
 40
0.0
 40
0.0
 40
0.0
 40
0.0072057822
 40
0.0150479604
 40
0.0239597107
 40
0.0342810348
 40
0.0600878897
 40
0.093971437
 40
0.1367445976
 40
0.1882801742
 40
0.2481458661
 40
0.3158528717
 40
0.3907354709
 40
0.4715028039
 40
0.6448142946
 40
0.8243410544
 40
1.0
 40
1.0
 40
1.0
 40
1.0
 10
13.1553584859
 20
9.7808917958
 30
0.0
 10
13.1554581176
 20
9.7808917959
 30
0.0
 10
13.1556670695
 20
9.7808619921
 30
0.0
 10
13.1559746895
 20
9.7807313484
 30
0.0
 10
13.1562825155
 20
9.7805143924
 30
0.0
 10
13.1567263651
 20
9.7800744925
 30
0.0
 10
13.1572692107
 20
9.7792635872
 30
0.0
 10
13.1578738115
 20
9.7779798255
 30
0.0
 10
13.1584646375
 20
9.7763062283
 30
0.0
 10
13.1590378333
 20
9.7742520149
 30
0.0
 10
13.1595819371
 20
9.7718351503
 30
0.0
 10
13.160085375
 20
9.769080883
 30
0.0
 10
13.1605361617
 20
9.7660251794
 30
0.0
 10
13.1610770754
 20
9.7615086214
 30
0.0
 10
13.1615824424
 20
9.7555326312
 30
0.0
 10
13.1619221116
 20
9.7482319122
 30
0.0
 10
13.1619967777
 20
9.7433205751
 30
0.0
 10
13.1619967777
 20
9.740891804
 30
0.0
  0
SPLINE
  5
262
100
AcDbEntity
  8
0
100
AcDbSpline
 62
9
  6
CONTINUOUS
 70
0
 71
3
 72
18
 73
14
 74
0
 42
0.0000001
 43
0.0000001
 44
0.0000000001
 40
0.0
 40
0.0
 40
0.0
 40
0.0
 40
0.0962692208
 40
0.1477053626
 40
0.2016885011
 40
0.2585801258
 40
0.3183796326
 40
0.4458656937
 40
0.5133229056
 40
0.5826422589
 40
0.7240534407
 40
0.864707323
 40
1.0
 40
1.0
 40
1.0
 40
1.0
 10
13.1153594453
 20
10.5604527769
 30
0.0
 10
13.1153594369
 20
10.5587210411
 30
0.0
 10
13.1150018566
 20
10.5560500003
 30
0.0
 10
13.1138536175
 20
10.5526016709
 30
0.0
 10
13.1125806798
 20
10.5499642394
 30
0.0
 10
13.110900614
 20
10.5473852752
 30
0.0
 10
13.1080895885
 20
10.5440004469
 30
0.0
 10
13.1045918817
 20
10.540977976
 30
0.0
 10
13.1005697364
 20
10.5384349827
 30
0.0
 10
13.0961114423
 20
10.5361495829
 30
0.0
 10
13.0901464902
 20
10.5339702197
 30
0.0
 10
13.0827615115
 20
10.5324923579
 30
0.0
 10
13.0777921972
 20
10.5321682734
 30
0.0
 10
13.0753584891
 20
10.5321682733
 30
0.0
  0
SPLINE
  5
263
100
AcDbEntity
  8
0
100
AcDbSpline
 62
9
  6
CONTINUOUS
 70
0
 71
3
 72
18
 73
14
 74
0
 42
0.0000001
 43
0.0000001
 44
0.0000000001
 40
0.0
 40
0.0
 40
0.0
 40
0.0
 40
0.1352925126
 40
0.2759462181
 40
0.4173572572
 40
0.4866765645
 40
0.5541337557
 40
0.6816198649
 40
0.7414194301
 40
0.7983111297
 40
0.8522943579
 40
0.903730597
 40
1.0
 40
1.0
 40
1.0
 40
1.0
 10
13.3913584891
 20
10.532168546
 30
0.0
 10
13.3889247939
 20
10.5321685461
 30
0.0
 10
13.3839555057
 20
10.5324926286
 30
0.0
 10
13.3765705652
 20
10.5339704817
 30
0.0
 10
13.3706056424
 20
10.5361498311
 30
0.0
 10
13.3661473679
 20
10.5384352165
 30
0.0
 10
13.3621252366
 20
10.5409781953
 30
0.0
 10
13.3586275382
 20
10.5440006491
 30
0.0
 10
13.3558165134
 20
10.5473854591
 30
0.0
 10
13.3541364442
 20
10.5499644111
 30
0.0
 10
13.3528634996
 20
10.5526018313
 30
0.0
 10
13.3517152472
 20
10.5560501476
 30
0.0
 10
13.3513576525
 20
10.5587211804
 30
0.0
 10
13.3513576335
 20
10.5604529125
 30
0.0
  0
SPLINE
  5
264
100
AcDbEntity
  8
0
100
AcDbSpline
 62
9
  6
CONTINUOUS
 70
0
 71
3
 72
11
 73
7
 74
0
 42
0.0000001
 43
0.0000001
 44
0.0000000001
 40
0.0
 40
0.0
 40
0.0
 40
0.0
 40
0.2574179603
 40
0.5116280542
 40
0.7603876238
 40
1.0
 40
1.0
 40
1.0
 40
1.0
 10
13.3653890981
 20
9.7761513928
 30
0.0
 10
13.3675332983
 20
9.7780349008
 30
0.0
 10
13.3716154745
 20
9.781990803
 30
0.0
 10
13.3769845348
 20
9.7885162559
 30
0.0
 10
13.3813920163
 20
9.795495582
 30
0.0
 10
13.3836367941
 20
9.8004500985
 30
0.0
 10
13.38452496
 20
9.8029538004
 30
0.0
  0
SPLINE
  5
265
100
AcDbEntity
  8
0
100
AcDbSpline
 62
9
  6
CONTINUOUS
 70
0
 71
3
 72
9
 73
5
 74
0
 42
0.0000001
 43
0.0000001
 44
0.0000000001
 40
0.0
 40
0.0
 40
0.0
 40
0.0
 40
0.5127136107
 40
1.0
 40
1.0
 40
1.0
 40
1.0
 10
13.384524711
 20
9.8029538307
 30
0.0
 10
13.3855400846
 20
9.8057655007
 30
0.0
 10
13.3876664805
 20
9.8111979406
 30
0.0
 10
13.3900953979
 20
9.81650266
 30
0.0
 10
13.3913587289
 20
9.8190474716
 30
0.0
  0
SPLINE
  5
266
100
AcDbEntity
  8
0
100
AcDbSpline
 62
9
  6
CONTINUOUS
 70
0
 71
3
 72
16
 73
12
 74
0
 42
0.0000001
 43
0.0000001
 44
0.0000000001
 40
0.0
 40
0.0
 40
0.0
 40
0.0
 40
0.3561797712
 40
0.5109808161
 40
0.6481431381
 40
0.7662356274
 40
0.8641456451
 40
0.9054306757
 40
0.9416650766
 40
0.9730489528
 40
1.0
 40
1.0
 40
1.0
 40
1.0
 10
13.391358858
 20
10.5321679302
 30
0.0
 10
13.3900672874
 20
10.5347696073
 30
0.0
 10
13.3881618633
 20
10.5384774853
 30
0.0
 10
13.385554489
 20
10.5430759872
 30
0.0
 10
13.3838004015
 20
10.5459243497
 30
0.0
 10
13.3821671498
 20
10.5482980061
 30
0.0
 10
13.3808498783
 20
10.5499363218
 30
0.0
 10
13.3798502271
 20
10.5509612918
 30
0.0
 10
13.3791794619
 20
10.5515454515
 30
0.0
 10
13.3785451465
 20
10.5519870598
 30
0.0
 10
13.3781156077
 20
10.5521987608
 30
0.0
 10
13.3779088159
 20
10.5522732083
 30
0.0
  0
SPLINE
  5
267
100
AcDbEntity
  8
0
100
AcDbSpline
 62
9
  6
CONTINUOUS
 70
0
 71
3
 72
22
 73
18
 74
0
 42
0.0000001
 43
0.0000001
 44
0.0000000001
 40
0.0
 40
0.0
 40
0.0
 40
0.0
 40
0.1964911436
 40
0.3800738582
 40
0.5451873572
 40
0.619666775
 40
0.6883045969
 40
0.7508284717
 40
0.8069286269
 40
0.8562521357
 40
0.8984274112
 40
0.9332004302
 40
0.960880229
 40
0.9723373658
 40
0.9824492786
 40
0.9915254027
 40
1.0
 40
1.0
 40
1.0
 40
1.0
 10
13.1013330022
 20
9.7761546178
 30
0.0
 10
13.1029865424
 20
9.777385301
 30
0.0
 10
13.1061445272
 20
9.7798209145
 30
0.0
 10
13.1105548822
 20
9.7834630101
 30
0.0
 10
13.113882536
 20
9.7864042485
 30
0.0
 10
13.1162016024
 20
9.7886584293
 30
0.0
 10
13.1176854854
 20
9.7902254473
 30
0.0
 10
13.1189566817
 20
9.7917245212
 30
0.0
 10
13.1200184819
 20
9.7931317094
 30
0.0
 10
13.1208747905
 20
9.7944229327
 30
0.0
 10
13.1215303397
 20
9.7955755628
 30
0.0
 10
13.1219927938
 20
9.7965721894
 30
0.0
 10
13.1222279318
 20
9.7973160789
 30
0.0
 10
13.1222947138
 20
9.7978298365
 30
0.0
 10
13.1222877018
 20
9.7981528306
 30
0.0
 10
13.1222250442
 20
9.798438392
 30
0.0
 10
13.1221427859
 20
9.79860571
 30
0.0
 10
13.1220933397
 20
9.7986795918
 30
0.0
  0
SPLINE
  5
268
100
AcDbEntity
  8
0
100
AcDbSpline
 62
9
  6
CONTINUOUS
 70
0
 71
3
 72
19
 73
15
 74
0
 42
0.0000001
 43
0.0000001
 44
0.0000000001
 40
0.0
 40
0.0
 40
0.0
 40
0.0
 40
0.0368675246
 40
0.0756816048
 40
0.1622610514
 40
0.2118724932
 40
0.2661450207
 40
0.3251232182
 40
0.3887520931
 40
0.4568439486
 40
0.5288379583
 40
0.6815224006
 40
0.8406613461
 40
1.0
 40
1.0
 40
1.0
 40
1.0
 10
13.351358498
 20
9.820891858
 30
0.0
 10
13.3513584969
 20
9.8203946551
 30
0.0
 10
13.3514534305
 20
9.8193717681
 30
0.0
 10
13.3520397855
 20
9.8172535248
 30
0.0
 10
13.3532601834
 20
9.8151804275
 30
0.0
 10
13.3549809415
 20
9.8132694208
 30
0.0
 10
13.356632407
 20
9.8118137202
 30
0.0
 10
13.3585731979
 20
9.8104212593
 30
0.0
 10
13.3607892482
 20
9.8091100925
 30
0.0
 10
13.3632596088
 20
9.8079022171
 30
0.0
 10
13.366917222
 20
9.8064091244
 30
0.0
 10
13.3718757586
 20
9.8048838578
 30
0.0
 10
13.3781119874
 20
9.8036251557
 30
0.0
 10
13.3823827794
 20
9.8031229006
 30
0.0
 10
13.3845249925
 20
9.8029538481
 30
0.0
  0
SPLINE
  5
269
100
AcDbEntity
  8
0
100
AcDbSpline
 62
9
  6
CONTINUOUS
 70
0
 71
3
 72
19
 73
15
 74
0
 42
0.0000001
 43
0.0000001
 44
0.0000000001
 40
0.0
 40
0.0
 40
0.0
 40
0.0
 40
0.0218065951
 40
0.0462993768
 40
0.0755077586
 40
0.1105913702
 40
0.1521619804
 40
0.2004543531
 40
0.2554659745
 40
0.3170677018
 40
0.4589322879
 40
0.622913495
 40
0.8050860833
 40
1.0
 40
1.0
 40
1.0
 40
1.0
 10
13.3447046294
 20
9.7988009808
 30
0.0
 10
13.344577617
 20
9.7986087034
 30
0.0
 10
13.3443932004
 20
9.7981398695
 30
0.0
 10
13.3443821831
 20
9.797330285
 30
0.0
 10
13.3446049066
 20
9.7964120248
 30
0.0
 10
13.3450559466
 20
9.7953839291
 30
0.0
 10
13.3457347979
 20
9.7942486951
 30
0.0
 10
13.3466318418
 20
9.7930064786
 30
0.0
 10
13.3477383378
 20
9.7916591431
 30
0.0
 10
13.3495677223
 20
9.7896298932
 30
0.0
 10
13.3523206596
 20
9.7868877195
 30
0.0
 10
13.3561562681
 20
9.7834379117
 30
0.0
 10
13.360570375
 20
9.7798012958
 30
0.0
 10
13.363734491
 20
9.7773776288
 30
0.0
 10
13.3653894519
 20
9.7761513925
 30
0.0
  0
SPLINE
  5
26A
100
AcDbEntity
  8
0
100
AcDbSpline
 62
9
  6
CONTINUOUS
 70
0
 71
3
 72
22
 73
18
 74
0
 42
0.0000001
 43
0.0000001
 44
0.0000000001
 40
0.0
 40
0.0
 40
0.0
 40
0.0
 40
0.1756589073
 40
0.3551856449
 40
0.5284971276
 40
0.6092644608
 40
0.6841470622
 40
0.7518540713
 40
0.8117197683
 40
0.8632553512
 40
0.9060285197
 40
0.9399120762
 40
0.965718942
 40
0.9760402721
 40
0.9849520286
 40
0.9927942128
 40
1.0
 40
1.0
 40
1.0
 40
1.0
 10
13.3047201919
 20
9.740891804
 30
0.0
 10
13.3047201918
 20
9.7433205753
 30
0.0
 10
13.3047948578
 20
9.748231913
 30
0.0
 10
13.3051345271
 20
9.7555326332
 30
0.0
 10
13.3056398945
 20
9.7615086246
 30
0.0
 10
13.3061808088
 20
9.7660251839
 30
0.0
 10
13.306631596
 20
9.7690808884
 30
0.0
 10
13.3071350344
 20
9.7718351566
 30
0.0
 10
13.3076791387
 20
9.774252022
 30
0.0
 10
13.3082523351
 20
9.7763062362
 30
0.0
 10
13.3088431618
 20
9.7779798341
 30
0.0
 10
13.3094477632
 20
9.7792635963
 30
0.0
 10
13.3099906094
 20
9.7800745021
 30
0.0
 10
13.3104344594
 20
9.7805144022
 30
0.0
 10
13.3107422857
 20
9.7807313584
 30
0.0
 10
13.3110499059
 20
9.7808620024
 30
0.0
 10
13.3112588581
 20
9.7808918063
 30
0.0
 10
13.3113584898
 20
9.7808918063
 30
0.0
  0
SPLINE
  5
26B
100
AcDbEntity
  8
0
100
AcDbSpline
 62
9
  6
CONTINUOUS
 70
0
 71
3
 72
12
 73
8
 74
0
 42
0.0000001
 43
0.0000001
 44
0.0000000001
 40
0.0
 40
0.0
 40
0.0
 40
0.0
 40
0.2224741111
 40
0.4609705969
 40
0.5875666458
 40
0.7196972356
 40
1.0
 40
1.0
 40
1.0
 40
1.0
 10
13.3513580064
 20
9.847330848
 30
0.0
 10
13.3513579962
 20
9.8459378909
 30
0.0
 10
13.3516681324
 20
9.8430442898
 30
0.0
 10
13.3528154045
 20
9.8395201811
 30
0.0
 10
13.3542219176
 20
9.8367372394
 30
0.0
 10
13.3560481909
 20
9.8338936141
 30
0.0
 10
13.3577545283
 20
9.831930642
 30
0.0
 10
13.3590106649
 20
9.8307049721
 30
0.0
  0
SPLINE
  5
26C
100
AcDbEntity
  8
0
100
AcDbSpline
 62
9
  6
CONTINUOUS
 70
0
 71
3
 72
15
 73
11
 74
0
 42
0.0000001
 43
0.0000001
 44
0.0000000001
 40
0.0
 40
0.0
 40
0.0
 40
0.0
 40
0.1168117601
 40
0.2388948797
 40
0.3651901722
 40
0.4940222315
 40
0.6234873175
 40
0.7519223199
 40
0.8779507385
 40
1.0
 40
1.0
 40
1.0
 40
1.0
 10
13.3590106649
 20
9.8307049721
 30
0.0
 10
13.3599916095
 20
9.8297478195
 30
0.0
 10
13.3621257603
 20
9.8279173169
 30
0.0
 10
13.3657033113
 20
9.8255424619
 30
0.0
 10
13.3696424389
 20
9.8235076852
 30
0.0
 10
13.3738399827
 20
9.821833542
 30
0.0
 10
13.3781990131
 20
9.820550449
 30
0.0
 10
13.3826222682
 20
9.8196693312
 30
0.0
 10
13.3870146649
 20
9.8191594761
 30
0.0
 10
13.3899264929
 20
9.8190467602
 30
0.0
 10
13.3913584891
 20
9.8190467601
 30
0.0
  0
ENDSEC
  0
SECTION
  2
OBJECTS
  0
DICTIONARY
  5
C
100
AcDbDictionary
280
0
281
1
  3
ACAD_GROUP
350
D
  3
ACAD_MLINESTYLE
350
17
  3
ACAD_LAYOUT
350
1A
  3
ACAD_PLOTSETTINGS
350
19
  3
ACAD_PLOTSTYLENAME
350
E
  0
DICTIONARY
  5
D
102
{ACAD_REACTORS
330
C
102
}
100
AcDbDictionary
280
0
281
1
  0
ACDBDICTIONARYWDFLT
  5
E
102
{ACAD_REACTORS
330
C
102
}
100
AcDbDictionary
281
1
  3
Normal
350
F
100
AcDbDictionaryWithDefault
340
F
  0
DICTIONARY
  5
17
102
{ACAD_REACTORS
330
C
102
}
100
AcDbDictionary
280
0
281
1
  3
Standard
350
18
  0
DICTIONARY
  5
19
102
{ACAD_REACTORS
330
C
102
}
100
AcDbDictionary
281
1
  0
DICTIONARY
  5
1A
102
{ACAD_REACTORS
330
C
102
}
100
AcDbDictionary
281
1
  3
Model
350
26D
  3
Layout1
350
26E
  0
ACDBPLACEHOLDER
  5
F
102
{ACAD_REACTORS
330
E
102
}
  0
MLINESTYLE
  5
18
102
{ACAD_REACTORS
330
17
102
}
100
AcDbMlineStyle
  2
STANDARD
 70
0
  3

 62
256
 51
90.0
 52
90.0
 71
2
 49
0.5
 62
256
  6
BYLAYER
 49
-0.5
 62
256
  6
BYLAYER
  0
LAYOUT
  5
26D
102
{ACAD_REACTORS
330
1A
102
}
100
AcDbPlotSettings
  1

  2
none_device
  4
ANSI_C_(22.00_x_17.00_Inches)
  6

 40
0.0
 41
0.0
 42
0.0
 43
0.0
 44
558.8
 45
431.8
 46
0.0
 47
0.0
 48
0.0
 49
0.0
140
0.0
141
0.0
142
1.0
143
1.0
 70
1024
 72
0
 73
0
 74
0
  7

 75
0
147
1.0
148
0.0
149
0.0
100
AcDbLayout
  1
Model
 70
0
 71
0
 10
0.0
 20
0.0
 11
22.0
 21
17.0
 12
0.0
 22
0.0
 32
0.0
 14
0.0
 24
0.0
 34
0.0
 15
0.0
 25
0.0
 35
0.0
146
0.0
 13
0.0
 23
0.0
 33
0.0
 16
1.0
 26
0.0
 36
0.0
 17
0.0
 27
1.0
 37
0.0
 76
0
330
202
345
0
346
0
  0
LAYOUT
  5
26E
102
{ACAD_REACTORS
330
1A
102
}
100
AcDbPlotSettings
  1

  2
none_device
  4
ANSI_C_(22.00_x_17.00_Inches)
  6

 40
0.0
 41
0.0
 42
0.0
 43
0.0
 44
558.8
 45
431.8
 46
0.0
 47
0.0
 48
0.0
 49
0.0
140
0.0
141
0.0
142
1.0
143
1.0
 70
0
 72
0
 73
0
 74
0
  7

 75
0
147
1.0
148
0.0
149
0.0
100
AcDbLayout
  1
Layout1
 70
0
 71
1
 10
0.0
 20
0.0
 11
22.0
 21
17.0
 12
0.0
 22
0.0
 32
0.0
 14
0.0
 24
0.0
 34
0.0
 15
0.0
 25
0.0
 35
0.0
146
0.0
 13
0.0
 23
0.0
 33
0.0
 16
1.0
 26
0.0
 36
0.0
 17
0.0
 27
1.0
 37
0.0
 76
0
330
203
345
0
346
0
  0
ENDSEC
  0
EOF
