999
DXF file: E:\BT Custom\CADOUTPUT\_TOP.dxf
999
Pro/ENGINEER 2018400 by Parametric Technology Corporation
  0
SECTION
  2
HEADER
  9
$ACADVER
  1
AC1018
  9
$DWGCODEPAGE
  3
ANSI_1252
  9
$EXTMAX
 10
22.0
 20
17.0
 30
0.0
  9
$EXTMIN
 10
0.0
 20
0.0
 30
0.0
  9
$LIMMIN
 10
0.0
 20
0.0
  9
$LIMMAX
 10
22.0
 20
17.0
  9
$VIEWCTR
 10
11.0
 20
8.5
  9
$VIEWSIZE
 40
17.0
  9
$CLAYER
  8
0
  9
$LTSCALE
 40
1.21
  9
$CELTYPE
  6
BYLAYER
  9
$DIMSCALE
 40
1.0
  9
$DIMASZ
 40
0.1
  9
$DIMEXO
 40
0.0625
  9
$DIMDLI
 40
0.836
  9
$DIMEXE
 40
0.125
  9
$DIMCEN
 40
0.198
  9
$DIMLFAC
 40
1.0
  9
$DIMBLK
  1
_FILLED
  9
$DIMALT
 70
1
  9
$DIMALTD
 70
2
  9
$DIMALTTD
 70
2
  9
$DIMALTF
 40
25.4
  9
$DIMTXT
 40
0.08
  9
$DIMTOL
 70
1
  9
$DIMLIM
 70
0
  9
$DIMTFAC
 40
1.0
  9
$DIMTP
 40
0.001
  9
$DIMTM
 40
0.001
  9
$DIMGAP
 40
0.09
  9
$DIMDSEP
 70
46
  9
$AUNITS
 70
0
  9
$PDMODE
 70
3
  9
$PDSIZE
 40
0.06
  9
$HANDSEED
  5
43C
  9
$TILEMODE
 70
1
  9
$MEASUREMENT
 70
0
  9
$INSUNITS
 70
1
  0
ENDSEC
  0
SECTION
  2
CLASSES
  0
CLASS
  1
ACDBDICTIONARYWDFLT
  2
AcDbDictionaryWithDefault
  3
AutoCAD 2000
 90
0
 91
1
280
0
281
0
  0
CLASS
  1
ACDBPLACEHOLDER
  2
AcDbPlaceHolder
  3
AutoCAD 2000
 90
0
 91
1
280
0
281
0
  0
CLASS
  1
LAYOUT
  2
AcDbLayout
  3
AutoCAD 2000
 90
0
 91
0
280
0
281
0
  0
ENDSEC
  0
SECTION
  2
TABLES
  0
TABLE
  2
VPORT
  5
8
100
AcDbSymbolTable
 70
2
  0
VPORT
  5
1F4
100
AcDbSymbolTableRecord
100
AcDbViewportTableRecord
  2
*ACTIVE
 70
0
 10
0.0
 20
0.0
 11
1.0
 21
1.0
 12
11.0
 22
8.5
 13
0.0
 23
0.0
 14
1.0
 24
1.0
 15
0.0
 25
0.0
 16
0.0
 26
0.0
 36
1.0
 17
0.0
 27
0.0
 37
0.0
 40
17.0
 41
1.2941176471
 42
50.0
 43
0.0
 44
0.0
 50
0.0
 51
0.0
 71
0
 72
100
 73
1
 74
1
 75
0
 76
0
 77
0
 78
0
  0
ENDTAB
  0
TABLE
  2
LTYPE
  5
5
100
AcDbSymbolTable
 70
6
  0
LTYPE
  5
14
100
AcDbSymbolTableRecord
100
AcDbLinetypeTableRecord
  2
BYBLOCK
 70
0
  3

 72
65
 73
0
 40
0.0
  0
LTYPE
  5
15
100
AcDbSymbolTableRecord
100
AcDbLinetypeTableRecord
  2
BYLAYER
 70
0
  3

 72
65
 73
0
 40
0.0
  0
LTYPE
  5
16
100
AcDbSymbolTableRecord
100
AcDbLinetypeTableRecord
  2
CONTINUOUS
 70
64
  3
Solid line
 72
65
 73
0
 40
0.0
  0
LTYPE
  5
1F5
100
AcDbSymbolTableRecord
100
AcDbLinetypeTableRecord
  2
CENTER
 70
64
  3
____ _ ____ _ ____ _ ____ _ ____ _ ____ _ ____
 72
65
 73
4
 40
0.6
 49
0.375
 74
0
 49
-0.075
 74
0
 49
0.075
 74
0
 49
-0.075
 74
0
  0
LTYPE
  5
1F6
100
AcDbSymbolTableRecord
100
AcDbLinetypeTableRecord
  2
HIDDEN
 70
64
  3
- - - - - - - - - - - - - - - - - - - -
 72
65
 73
2
 40
0.2
 49
0.1
 74
0
 49
-0.1
 74
0
  0
LTYPE
  5
1F7
100
AcDbSymbolTableRecord
100
AcDbLinetypeTableRecord
  2
PHANTOM
 70
64
  3
_____ _ _ _____ _ _ _____ _ _ _____
 72
65
 73
6
 40
0.8
 49
0.45
 74
0
 49
-0.05
 74
0
 49
0.1
 74
0
 49
-0.05
 74
0
 49
0.1
 74
0
 49
-0.05
 74
0
  0
LTYPE
  5
1F8
100
AcDbSymbolTableRecord
100
AcDbLinetypeTableRecord
  2
DOT
 70
64
  3
. . . . . . . . . . . . . . . . . . . .
 72
65
 73
2
 40
0.2
 49
0.1
 74
0
 49
-0.1
 74
0
  0
LTYPE
  5
1F9
100
AcDbSymbolTableRecord
100
AcDbLinetypeTableRecord
  2
DASHED
 70
64
  3
- - - - - - - - - - - - - - - - - - - -
 72
65
 73
2
 40
0.2
 49
0.1
 74
0
 49
-0.1
 74
0
  0
ENDTAB
  0
TABLE
  2
LAYER
  5
2
100
AcDbSymbolTable
 70
36
  0
LAYER
  5
10
100
AcDbSymbolTableRecord
100
AcDbLayerTableRecord
  2
0
 70
0
 62
7
  6
CONTINUOUS
370
-3
390
F
  0
LAYER
  5
1FA
100
AcDbSymbolTableRecord
100
AcDbLayerTableRecord
  2
DEFAULT_1
 70
0
 62
7
  6
CENTER
370
-3
390
F
  0
LAYER
  5
1FB
100
AcDbSymbolTableRecord
100
AcDbLayerTableRecord
  2
DEFAULT_2
 70
0
 62
8
  6
HIDDEN
370
-3
390
F
  0
LAYER
  5
1FC
100
AcDbSymbolTableRecord
100
AcDbLayerTableRecord
  2
DEFAULT_3
 70
0
 62
7
  6
PHANTOM
370
-3
390
F
  0
LAYER
  5
1FD
100
AcDbSymbolTableRecord
100
AcDbLayerTableRecord
  2
ALL_FEATURES
 70
0
 62
7
  6
CONTINUOUS
370
-3
390
F
  0
LAYER
  5
1FE
100
AcDbSymbolTableRecord
100
AcDbLayerTableRecord
  2
AXES_FEATURES
 70
0
 62
7
  6
CONTINUOUS
370
-3
390
F
  0
LAYER
  5
1FF
100
AcDbSymbolTableRecord
100
AcDbLayerTableRecord
  2
DIMENSIONS
 70
0
 62
7
  6
CONTINUOUS
370
-3
390
F
  0
ENDTAB
  0
TABLE
  2
STYLE
  5
3
100
AcDbSymbolTable
 70
1
  0
STYLE
  5
11
100
AcDbSymbolTableRecord
100
AcDbTextStyleTableRecord
  2
STANDARD
 70
0
 40
0.0
 41
0.8
 50
0.0
 71
0
 42
0.2
  3
txt
  4

  0
STYLE
  5
200
100
AcDbSymbolTableRecord
100
AcDbTextStyleTableRecord
  2
TEXTSTYLE_1
 70
0
 40
0.0
 41
0.8
 50
0.0
 71
0
 42
0.2
  3
gdt
  4

  0
ENDTAB
  0
TABLE
  2
VIEW
  5
6
100
AcDbSymbolTable
 70
0
  0
ENDTAB
  0
TABLE
  2
UCS
  5
7
100
AcDbSymbolTable
 70
0
  0
ENDTAB
  0
TABLE
  2
APPID
  5
9
100
AcDbSymbolTable
 70
1
  0
APPID
  5
201
100
AcDbSymbolTableRecord
100
AcDbRegAppTableRecord
  2
ACAD
 70
0
  0
ENDTAB
  0
TABLE
  2
BLOCK_RECORD
  5
1
100
AcDbSymbolTable
 70
0
  0
BLOCK_RECORD
  5
202
100
AcDbSymbolTableRecord
100
AcDbBlockTableRecord
  2
*Model_Space
  0
BLOCK_RECORD
  5
203
100
AcDbSymbolTableRecord
100
AcDbBlockTableRecord
  2
*Paper_Space
  0
BLOCK_RECORD
  5
204
100
AcDbSymbolTableRecord
100
AcDbBlockTableRecord
  2
_FILLED
  0
ENDTAB
  0
TABLE
  2
DIMSTYLE
  5
A
100
AcDbSymbolTable
 70
1
100
AcDbDimStyleTable
 71
0
  0
DIMSTYLE
105
205
100
AcDbSymbolTableRecord
100
AcDbDimStyleTableRecord
  2
STANDARD
 70
0
  3

  4

 40
1.0
 41
0.1
 42
0.0625
 43
0.38
 44
0.125
 45
0.0
 46
0.0
 47
0.001
 48
0.001
140
0.08
141
0.09
142
0.0
143
25.4
144
1.0
145
0.0
146
1.0
147
0.09
 71
1.0
 72
0.0
 73
1
 74
1
 75
0
 76
0
 77
0
 78
4
 79
1
170
1
171
2
172
0
173
0
174
0
175
0
176
0
177
0
178
0
270
2
179
3
271
3
272
3
273
2
274
2
275
0
280
0
281
0
282
0
283
1
284
4
285
0
286
0
287
3
288
0
340
11
278
46
341
204
342
204
343
204
344
204
  0
ENDTAB
  0
ENDSEC
  0
SECTION
  2
BLOCKS
  0
BLOCK
  5
20
100
AcDbEntity
  8
0
100
AcDbBlockBegin
  2
*Model_Space
 70
0
 10
0.0
 20
0.0
 30
0.0
  3
*Model_Space
  1

  0
ENDBLK
  5
21
100
AcDbEntity
  8
0
100
AcDbBlockEnd
  0
BLOCK
  5
1C
100
AcDbEntity
  8
0
100
AcDbBlockBegin
  2
*Paper_Space
 70
0
 10
0.0
 20
0.0
 30
0.0
  3
*Paper_Space
  1

  0
ENDBLK
  5
1D
100
AcDbEntity
  8
0
100
AcDbBlockEnd
  0
BLOCK
  5
206
100
AcDbEntity
  8
0
100
AcDbBlockBegin
  2
_FILLED
 70
64
 10
0.0
 20
0.0
  3
_FILLED
  1

  0
SOLID
  5
207
100
AcDbEntity
  8
0
  6
BYBLOCK
 62
0
100
AcDbTrace
 10
0.0
 20
0.0
 11
-1.0
 21
0.2
 12
-1.0
 22
-0.2
 13
-1.0
 23
-0.2
  0
ENDBLK
  5
208
100
AcDbEntity
  8
0
  6
BYBLOCK
 62
0
100
AcDbBlockEnd
  0
ENDSEC
  0
SECTION
  2
ENTITIES
  0
LINE
  5
209
100
AcDbEntity
  8
0
100
AcDbLine
 62
7
  6
CONTINUOUS
 10
3.9373183383
 20
10.17647457
 11
3.9373183383
 21
9.72647457
  0
LINE
  5
20A
100
AcDbEntity
  8
0
100
AcDbLine
 62
9
  6
CONTINUOUS
 10
3.9573183383
 20
10.19647457
 11
3.9573183383
 21
9.70647457
  0
LINE
  5
20B
100
AcDbEntity
  8
0
100
AcDbLine
 62
9
  6
CONTINUOUS
 10
4.010683942
 20
9.70647457
 11
4.010683942
 21
10.1964604299
  0
LINE
  5
20C
100
AcDbEntity
  8
0
100
AcDbLine
 62
9
  6
CONTINUOUS
 10
4.0214203704
 20
9.7033484879
 11
4.0214203704
 21
10.1995863316
  0
LINE
  5
20D
100
AcDbEntity
  8
0
100
AcDbLine
 62
7
  6
CONTINUOUS
 10
4.5063183383
 20
9.5667140674
 11
4.5063183383
 21
10.3362350727
  0
LINE
  5
20E
100
AcDbEntity
  8
0
100
AcDbLine
 62
9
  6
CONTINUOUS
 10
4.8773183383
 20
10.3038486675
 11
4.8773183383
 21
9.5991004726
  0
LINE
  5
20F
100
AcDbEntity
  8
0
100
AcDbLine
 62
9
  6
CONTINUOUS
 10
5.3844783176
 20
9.6973149936
 11
5.3844783176
 21
10.2056341465
  0
LINE
  5
210
100
AcDbEntity
  8
0
100
AcDbLine
 62
9
  6
CONTINUOUS
 10
5.9073183383
 20
10.15547457
 11
5.9073183383
 21
9.74747457
  0
LINE
  5
211
100
AcDbEntity
  8
0
100
AcDbLine
 62
7
  6
CONTINUOUS
 10
6.2073183383
 20
10.16647457
 11
6.2073183383
 21
9.73647457
  0
LINE
  5
212
100
AcDbEntity
  8
0
100
AcDbLine
 62
9
  6
CONTINUOUS
 10
6.2273183383
 20
10.18647457
 11
6.2273183383
 21
9.71647457
  0
LINE
  5
213
100
AcDbEntity
  8
0
100
AcDbLine
 62
9
  6
CONTINUOUS
 10
6.2673183383
 20
9.71647457
 11
6.2673183383
 21
10.1864424898
  0
LINE
  5
214
100
AcDbEntity
  8
0
100
AcDbLine
 62
7
  6
CONTINUOUS
 10
6.2873183383
 20
9.73647457
 11
6.2873183383
 21
10.16647457
  0
LINE
  5
215
100
AcDbEntity
  8
0
100
AcDbLine
 62
7
  6
CONTINUOUS
 10
11.2369857336
 20
11.6631005933
 11
11.2210126118
 21
11.6576006064
  0
LINE
  5
216
100
AcDbEntity
  8
0
100
AcDbLine
 62
7
  6
CONTINUOUS
 10
10.697471087
 20
11.4874916532
 11
10.6813157489
 21
11.4825524706
  0
LINE
  5
217
100
AcDbEntity
  8
0
100
AcDbLine
 62
7
  6
CONTINUOUS
 10
11.1299606996
 20
11.7013712338
 11
11.1161223513
 21
11.691681518
  0
LINE
  5
218
100
AcDbEntity
  8
0
100
AcDbLine
 62
7
  6
CONTINUOUS
 10
10.6597503193
 20
11.3838546956
 11
10.6455822347
 21
11.3746538339
  0
LINE
  5
219
100
AcDbEntity
  8
0
100
AcDbLine
 62
7
  6
CONTINUOUS
 10
11.1848112885
 20
11.6859778732
 11
11.1697590663
 21
11.6783083829
  0
LINE
  5
21A
100
AcDbEntity
  8
0
100
AcDbLine
 62
7
  6
CONTINUOUS
 10
10.6749872021
 20
11.4369920209
 11
10.659676488
 21
11.4298525176
  0
LINE
  5
21B
100
AcDbEntity
  8
0
100
AcDbLine
 62
7
  6
CONTINUOUS
 10
11.409289275
 20
11.1403147258
 11
11.4250607196
 21
11.1463688161
  0
LINE
  5
21C
100
AcDbEntity
  8
0
100
AcDbLine
 62
7
  6
CONTINUOUS
 10
10.6520570071
 20
11.2738352053
 11
10.6409738713
 21
11.261085516
  0
LINE
  5
21D
100
AcDbEntity
  8
0
100
AcDbLine
 62
7
  6
CONTINUOUS
 10
11.073501571
 20
11.7089810606
 11
11.0611464444
 21
11.6974597186
  0
LINE
  5
21E
100
AcDbEntity
  8
0
100
AcDbLine
 62
7
  6
CONTINUOUS
 10
10.6520570071
 20
11.3291139348
 11
10.6393073178
 21
11.318030799
  0
LINE
  5
21F
100
AcDbEntity
  8
0
100
AcDbLine
 62
7
  6
CONTINUOUS
 10
11.4396888081
 20
11.2463304967
 11
11.4531805603
 21
11.2564972612
  0
LINE
  5
220
100
AcDbEntity
  8
0
100
AcDbLine
 62
7
  6
CONTINUOUS
 10
10.9369819085
 20
10.9083168742
 11
10.9514624677
 21
10.9170176719
  0
LINE
  5
221
100
AcDbEntity
  8
0
100
AcDbLine
 62
7
  6
CONTINUOUS
 10
11.428195714
 20
11.19225974
 11
11.4429711055
 21
11.2004498732
  0
LINE
  5
222
100
AcDbEntity
  8
0
100
AcDbLine
 62
7
  6
CONTINUOUS
 10
10.8833387194
 20
10.9274989209
 11
10.8988892717
 21
10.9340997388
  0
LINE
  5
223
100
AcDbEntity
  8
0
100
AcDbLine
 62
7
  6
CONTINUOUS
 10
10.9601632655
 20
11.7004120273
 11
10.9514624677
 21
11.6859314681
  0
LINE
  5
224
100
AcDbEntity
  8
0
100
AcDbLine
 62
7
  6
CONTINUOUS
 10
10.6597503193
 20
11.2190944445
 11
10.6505494576
 21
11.2049263599
  0
LINE
  5
225
100
AcDbEntity
  8
0
100
AcDbLine
 62
7
  6
CONTINUOUS
 10
11.0165328156
 20
11.7086592372
 11
11.0059013891
 21
11.6955305188
  0
LINE
  5
226
100
AcDbEntity
  8
0
100
AcDbLine
 62
7
  6
CONTINUOUS
 10
11.0496251024
 20
10.8931342948
 11
11.0611464444
 21
10.9054894214
  0
LINE
  5
227
100
AcDbEntity
  8
0
100
AcDbLine
 62
7
  6
CONTINUOUS
 10
11.4435448574
 20
11.30147457
 11
11.4554903686
 21
11.3134200812
  0
LINE
  5
228
100
AcDbEntity
  8
0
100
AcDbLine
 62
7
  6
CONTINUOUS
 10
10.9927726708
 20
10.8967871948
 11
11.0059013891
 21
10.9074186213
  0
LINE
  5
229
100
AcDbEntity
  8
0
100
AcDbLine
 62
9
  6
CONTINUOUS
 10
11.5663669564
 20
4.97647492
 11
10.5282697202
 21
4.97647492
  0
LINE
  5
22A
100
AcDbEntity
  8
0
100
AcDbLine
 62
9
  6
CONTINUOUS
 10
11.5663669564
 20
5.0298721852
 11
10.5282697202
 21
5.0298721852
  0
LINE
  5
22B
100
AcDbEntity
  8
0
100
AcDbLine
 62
7
  6
CONTINUOUS
 10
10.9054900896
 20
11.6843999537
 11
10.8988892717
 21
11.6688494013
  0
LINE
  5
22C
100
AcDbEntity
  8
0
100
AcDbLine
 62
7
  6
CONTINUOUS
 10
10.6749872021
 20
11.1659571192
 11
10.6678476989
 21
11.150646405
  0
LINE
  5
22D
100
AcDbEntity
  8
0
100
AcDbLine
 62
7
  6
CONTINUOUS
 10
11.1064326355
 20
10.8974292738
 11
11.1161223513
 21
10.9112676221
  0
LINE
  5
22E
100
AcDbEntity
  8
0
100
AcDbLine
 62
7
  6
CONTINUOUS
 10
11.4396888081
 20
11.3566186434
 11
11.4498555726
 21
11.3701103955
  0
LINE
  5
22F
100
AcDbEntity
  8
0
100
AcDbLine
 62
7
  6
CONTINUOUS
 10
10.8535774393
 20
11.660934673
 11
10.8492050787
 21
11.6446168012
  0
LINE
  5
230
100
AcDbEntity
  8
0
100
AcDbLine
 62
7
  6
CONTINUOUS
 10
10.697471087
 20
11.1154574869
 11
10.6925319045
 21
11.0993021487
  0
LINE
  5
231
100
AcDbEntity
  8
0
100
AcDbLine
 62
7
  6
CONTINUOUS
 10
11.409289275
 20
11.4626344143
 11
11.4153433654
 21
11.4784058589
  0
LINE
  5
232
100
AcDbEntity
  8
0
100
AcDbLine
 62
7
  6
CONTINUOUS
 10
11.162089576
 20
10.9095885349
 11
11.1697590663
 21
10.9246407571
  0
LINE
  5
233
100
AcDbEntity
  8
0
100
AcDbLine
 62
7
  6
CONTINUOUS
 10
11.428195714
 20
11.4106894001
 11
11.4363858472
 21
11.4254647915
  0
LWPOLYLINE
  5
234
100
AcDbEntity
  8
0
100
AcDbPolyline
 62
7
  6
CONTINUOUS
 90
4
 70
0
 10
10.5457622645
 20
3.8914880056
 10
10.5467015685
 20
3.8761400601
 10
10.5480134514
 20
3.8594833818
 10
10.5497055714
 20
3.8430341709
  0
LINE
  5
235
100
AcDbEntity
  8
0
100
AcDbLine
 62
7
  6
CONTINUOUS
 10
10.5449889793
 20
3.9070884682
 11
10.5457622645
 21
3.8914880056
  0
LWPOLYLINE
  5
236
100
AcDbEntity
  8
0
100
AcDbPolyline
 62
7
  6
CONTINUOUS
 90
12
 70
0
 10
10.5375123399
 20
4.2430243396
 10
10.5382306872
 20
4.1964759392
 10
10.538936794
 20
4.1534164277
 10
10.5396309921
 20
4.1137987443
 10
10.5403137963
 20
4.0775559018
 10
10.5409860828
 20
4.0445994931
 10
10.5416493027
 20
4.0148169634
 10
10.5423058641
 20
3.9880665581
 10
10.5429598453
 20
3.9641683153
 10
10.5436174201
 20
3.9429048096
 10
10.5442875839
 20
3.9240130504
 10
10.5449889793
 20
3.9070884682
  0
LINE
  5
237
100
AcDbEntity
  8
0
100
AcDbLine
 62
7
  6
CONTINUOUS
 10
10.5360349848
 20
4.3467462559
 11
10.5375123399
 21
4.2430243396
  0
LINE
  5
238
100
AcDbEntity
  8
0
100
AcDbLine
 62
7
  6
CONTINUOUS
 10
10.5344953022
 20
4.4648331097
 11
10.5360349848
 21
4.3467462559
  0
LINE
  5
239
100
AcDbEntity
  8
0
100
AcDbLine
 62
7
  6
CONTINUOUS
 10
10.5328842958
 20
4.5973051019
 11
10.5344953022
 21
4.4648331097
  0
LINE
  5
23A
100
AcDbEntity
  8
0
100
AcDbLine
 62
7
  6
CONTINUOUS
 10
10.5303163571
 20
4.8216192774
 11
10.5328842958
 21
4.5973051019
  0
LINE
  5
23B
100
AcDbEntity
  8
0
100
AcDbLine
 62
7
  6
CONTINUOUS
 10
10.5164183367
 20
6.0689881465
 11
10.4872976332
 21
8.6638146281
  0
LINE
  5
23C
100
AcDbEntity
  8
0
100
AcDbLine
 62
7
  6
CONTINUOUS
 10
10.5164501453
 20
6.0689877215
 11
10.5280053002
 21
5.0298721864
  0
LINE
  5
23D
100
AcDbEntity
  8
0
100
AcDbLine
 62
7
  6
CONTINUOUS
 10
10.5285963355
 20
4.9764749691
 11
10.5303163571
 21
4.8216192774
  0
LINE
  5
23E
100
AcDbEntity
  8
0
100
AcDbLine
 62
7
  6
CONTINUOUS
 10
10.4873192949
 20
8.6638149973
 11
10.4873183383
 21
8.6639816184
  0
LINE
  5
23F
100
AcDbEntity
  8
0
100
AcDbLine
 62
7
  6
CONTINUOUS
 10
10.3673183383
 20
8.86947457
 11
10.3673183383
 21
9.1240332001
  0
LINE
  5
240
100
AcDbEntity
  8
0
100
AcDbLine
 62
7
  6
CONTINUOUS
 10
10.4873183383
 20
8.86947457
 11
10.4873183383
 21
8.6639816184
  0
LINE
  5
241
100
AcDbEntity
  8
0
100
AcDbLine
 62
7
  6
CONTINUOUS
 10
10.5282697202
 20
4.97647492
 11
10.5282697202
 21
5.0298721852
  0
LINE
  5
242
100
AcDbEntity
  8
0
100
AcDbLine
 62
7
  6
CONTINUOUS
 10
10.7707405397
 20
10.9967943606
 11
10.7701894098
 21
10.9902311292
  0
LINE
  5
243
100
AcDbEntity
  8
0
100
AcDbLine
 62
7
  6
CONTINUOUS
 10
10.8054357352
 20
11.6304729103
 11
10.803376935
 21
11.6137053279
  0
LINE
  5
244
100
AcDbEntity
  8
0
100
AcDbLine
 62
7
  6
CONTINUOUS
 10
10.7267643507
 20
11.0685784655
 11
10.7241216245
 21
11.0518929487
  0
LINE
  5
245
100
AcDbEntity
  8
0
100
AcDbLine
 62
7
  6
CONTINUOUS
 10
11.3833374834
 20
11.5114426355
 11
11.387137695
 21
11.52790316
  0
LINE
  5
246
100
AcDbEntity
  8
0
100
AcDbLine
 62
7
  6
CONTINUOUS
 10
11.2155126249
 20
10.9293754119
 11
11.2210126118
 21
10.9453485337
  0
LINE
  5
247
100
AcDbEntity
  8
0
100
AcDbLine
 62
7
  6
CONTINUOUS
 10
10.7620020009
 20
11.5936075691
 11
10.7622968332
 21
11.5767166381
  0
LINE
  5
248
100
AcDbEntity
  8
0
100
AcDbLine
 62
9
  6
CONTINUOUS
 10
11.0473183383
 20
6.1565957644
 11
11.0473183383
 21
5.0298722153
  0
LINE
  5
249
100
AcDbEntity
  8
0
100
AcDbLine
 62
9
  6
CONTINUOUS
 10
11.0473183383
 20
4.9764751607
 11
11.0473183383
 21
3.4054931521
  0
LINE
  5
24A
100
AcDbEntity
  8
0
100
AcDbLine
 62
7
  6
CONTINUOUS
 10
10.7622968332
 20
11.0262325019
 11
10.7620020009
 21
11.009341571
  0
LINE
  5
24B
100
AcDbEntity
  8
0
100
AcDbLine
 62
7
  6
CONTINUOUS
 10
11.3508454614
 20
11.5561640671
 11
11.3523178273
 21
11.5729932862
  0
LINE
  5
24C
100
AcDbEntity
  8
0
100
AcDbLine
 62
7
  6
CONTINUOUS
 10
11.2656619634
 20
10.9564047758
 11
11.2688853959
 21
10.9729878985
  0
LINE
  5
24D
100
AcDbEntity
  8
0
100
AcDbLine
 62
7
  6
CONTINUOUS
 10
11.3523178273
 20
11.0299558539
 11
11.3508454614
 21
11.0467850729
  0
LINE
  5
24E
100
AcDbEntity
  8
0
100
AcDbLine
 62
7
  6
CONTINUOUS
 10
11.3248053648
 20
10.9859666542
 11
11.3230842101
 21
11.0064633383
  0
LINE
  5
24F
100
AcDbEntity
  8
0
100
AcDbLine
 62
7
  6
CONTINUOUS
 10
11.3124456293
 20
11.5959282574
 11
11.3115614916
 21
11.6127986094
  0
LINE
  5
250
100
AcDbEntity
  8
0
100
AcDbLine
 62
7
  6
CONTINUOUS
 10
11.5663669564
 20
4.97647492
 11
11.5663669564
 21
5.0298721852
  0
LINE
  5
251
100
AcDbEntity
  8
0
100
AcDbLine
 62
7
  6
CONTINUOUS
 10
11.6073183383
 20
8.86947457
 11
11.6073183383
 21
8.6639816184
  0
LINE
  5
252
100
AcDbEntity
  8
0
100
AcDbLine
 62
7
  6
CONTINUOUS
 10
11.6073183383
 20
8.6639816184
 11
11.6073173816
 21
8.6638061156
  0
LINE
  5
253
100
AcDbEntity
  8
0
100
AcDbLine
 62
7
  6
CONTINUOUS
 10
11.5652403481
 20
4.9042553359
 11
11.5660403411
 21
4.9764749691
  0
LINE
  5
254
100
AcDbEntity
  8
0
100
AcDbLine
 62
7
  6
CONTINUOUS
 10
11.5666313764
 20
5.0298721864
 11
11.5781865312
 21
6.0689877215
  0
LINE
  5
255
100
AcDbEntity
  8
0
100
AcDbLine
 62
7
  6
CONTINUOUS
 10
11.5782183399
 20
6.0689881465
 11
11.6073389437
 21
8.663805749
  0
LINE
  5
256
100
AcDbEntity
  8
0
100
AcDbLine
 62
7
  6
CONTINUOUS
 10
11.56184084
 20
4.604800495
 11
11.5652403481
 21
4.9042553359
  0
LINE
  5
257
100
AcDbEntity
  8
0
100
AcDbLine
 62
7
  6
CONTINUOUS
 10
11.5602596772
 20
4.4742760476
 11
11.56184084
 21
4.604800495
  0
LINE
  5
258
100
AcDbEntity
  8
0
100
AcDbLine
 62
7
  6
CONTINUOUS
 10
11.5587474021
 20
4.3575126622
 11
11.5602596772
 21
4.4742760476
  0
LINE
  5
259
100
AcDbEntity
  8
0
100
AcDbLine
 62
7
  6
CONTINUOUS
 10
11.3115614916
 20
10.9901505307
 11
11.3124456293
 21
11.0070208827
  0
LINE
  5
25A
100
AcDbEntity
  8
0
100
AcDbLine
 62
7
  6
CONTINUOUS
 10
10.7241216245
 20
11.5510561914
 11
10.7267643507
 21
11.5343706745
  0
LINE
  5
25B
100
AcDbEntity
  8
0
100
AcDbLine
 62
7
  6
CONTINUOUS
 10
10.803376935
 20
10.9892438121
 11
10.8054357352
 21
10.9724762298
  0
LINE
  5
25C
100
AcDbEntity
  8
0
100
AcDbLine
 62
7
  6
CONTINUOUS
 10
11.7273183383
 20
8.86947457
 11
11.7273183383
 21
9.1240332001
  0
LWPOLYLINE
  5
25D
100
AcDbEntity
  8
0
100
AcDbPolyline
 62
7
  6
CONTINUOUS
 90
13
 70
0
 10
11.5499917286
 20
3.915039617
 10
11.5506554317
 20
3.932307976
 10
11.5513023647
 20
3.9517226941
 10
11.5519430569
 20
3.9735643163
 10
11.5525831921
 20
3.9980242475
 10
11.5532276805
 20
4.0252906227
 10
11.5538796163
 20
4.0555173616
 10
11.5545408538
 20
4.0888265164
 10
11.5552125174
 20
4.1253149317
 10
11.5558952812
 20
4.1650579206
 10
11.5565895289
 20
4.2081112679
 10
11.5572955953
 20
4.2545135162
 10
11.5587474021
 20
4.3575126622
  0
LINE
  5
25E
100
AcDbEntity
  8
0
100
AcDbLine
 62
7
  6
CONTINUOUS
 10
11.5492883401
 20
3.8994654126
 11
11.5499917286
 21
3.915039617
  0
LWPOLYLINE
  5
25F
100
AcDbEntity
  8
0
100
AcDbPolyline
 62
7
  6
CONTINUOUS
 90
5
 70
0
 10
11.5449285552
 20
3.8430122856
 10
11.5461330763
 20
3.8542630064
 10
11.5475196372
 20
3.8703606073
 10
11.5484968652
 20
3.8848947768
 10
11.5492883401
 20
3.8994654126
  0
LINE
  5
260
100
AcDbEntity
  8
0
100
AcDbLine
 62
7
  6
CONTINUOUS
 10
10.6925319045
 20
11.5036469913
 11
10.697471087
 21
11.4874916532
  0
LINE
  5
261
100
AcDbEntity
  8
0
100
AcDbLine
 62
7
  6
CONTINUOUS
 10
10.8492050787
 20
10.9583323388
 11
10.8535774393
 21
10.9420144671
  0
LINE
  5
262
100
AcDbEntity
  8
0
100
AcDbLine
 62
7
  6
CONTINUOUS
 10
11.387137695
 20
11.07504598
 11
11.3833374834
 21
11.0915065046
  0
LINE
  5
263
100
AcDbEntity
  8
0
100
AcDbLine
 62
7
  6
CONTINUOUS
 10
11.2688853959
 20
11.6299612416
 11
11.2656619634
 21
11.6465443643
  0
LINE
  5
264
100
AcDbEntity
  8
0
100
AcDbLine
 62
7
  6
CONTINUOUS
 10
17.2173183383
 20
10.3038486675
 11
16.7101583589
 21
10.2056341465
  0
LINE
  5
265
100
AcDbEntity
  8
0
100
AcDbLine
 62
7
  6
CONTINUOUS
 10
10.3673183383
 20
8.86947457
 11
11.7273183383
 21
8.86947457
  0
LINE
  5
266
100
AcDbEntity
  8
0
100
AcDbLine
 62
7
  6
CONTINUOUS
 10
4.8773183383
 20
10.3038486675
 11
5.3844783176
 21
10.2056341465
  0
LINE
  5
267
100
AcDbEntity
  8
0
100
AcDbLine
 62
7
  6
CONTINUOUS
 10
10.9514624677
 20
10.9170176719
 11
10.9601632655
 21
10.9025371127
  0
LINE
  5
268
100
AcDbEntity
  8
0
100
AcDbLine
 62
7
  6
CONTINUOUS
 10
10.6678476989
 20
11.4523027351
 11
10.6749872021
 21
11.4369920209
  0
LINE
  5
269
100
AcDbEntity
  8
0
100
AcDbLine
 62
7
  6
CONTINUOUS
 10
10.8988892717
 20
10.9340997388
 11
10.9054900896
 21
10.9185491864
  0
LINE
  5
26A
100
AcDbEntity
  8
0
100
AcDbLine
 62
7
  6
CONTINUOUS
 10
11.4153433654
 20
11.1245432811
 11
11.409289275
 21
11.1403147258
  0
LINE
  5
26B
100
AcDbEntity
  8
0
100
AcDbLine
 62
7
  6
CONTINUOUS
 10
11.2210126118
 20
11.6576006064
 11
11.2155126249
 21
11.6735737282
  0
LINE
  5
26C
100
AcDbEntity
  8
0
100
AcDbLine
 62
7
  6
CONTINUOUS
 10
18.1373183383
 20
9.70647457
 11
18.0839527346
 21
9.70647457
  0
LINE
  5
26D
100
AcDbEntity
  8
0
100
AcDbLine
 62
7
  6
CONTINUOUS
 10
3.9573183383
 20
9.70647457
 11
4.010683942
 21
9.70647457
  0
LINE
  5
26E
100
AcDbEntity
  8
0
100
AcDbLine
 62
7
  6
CONTINUOUS
 10
15.8673183383
 20
9.71647457
 11
15.8273183383
 21
9.71647457
  0
LINE
  5
26F
100
AcDbEntity
  8
0
100
AcDbLine
 62
7
  6
CONTINUOUS
 10
6.2273183383
 20
9.71647457
 11
6.2673183383
 21
9.71647457
  0
LINE
  5
270
100
AcDbEntity
  8
0
100
AcDbLine
 62
7
  6
CONTINUOUS
 10
16.1873183383
 20
9.74747457
 11
15.8873183383
 21
9.74747457
  0
LINE
  5
271
100
AcDbEntity
  8
0
100
AcDbLine
 62
7
  6
CONTINUOUS
 10
5.9073183383
 20
9.74747457
 11
6.2073183383
 21
9.74747457
  0
LINE
  5
272
100
AcDbEntity
  8
0
100
AcDbLine
 62
7
  6
CONTINUOUS
 10
15.8073183383
 20
9.76147457
 11
15.3880372512
 21
9.76147457
  0
LINE
  5
273
100
AcDbEntity
  8
0
100
AcDbLine
 62
7
  6
CONTINUOUS
 10
6.2873183383
 20
9.76147457
 11
6.7065994253
 21
9.76147457
  0
LINE
  5
274
100
AcDbEntity
  8
0
100
AcDbLine
 62
7
  6
CONTINUOUS
 10
10.6409738713
 20
11.3418636241
 11
10.6520570071
 21
11.3291139348
  0
LINE
  5
275
100
AcDbEntity
  8
0
100
AcDbLine
 62
7
  6
CONTINUOUS
 10
11.0059013891
 20
10.9074186213
 11
11.0165328156
 21
10.8942899029
  0
LINE
  5
276
100
AcDbEntity
  8
0
100
AcDbLine
 62
7
  6
CONTINUOUS
 10
10.6505494576
 20
11.3980227801
 11
10.6597503193
 21
11.3838546956
  0
LINE
  5
277
100
AcDbEntity
  8
0
100
AcDbLine
 62
7
  6
CONTINUOUS
 10
11.4363858472
 20
11.1774843485
 11
11.428195714
 21
11.19225974
  0
LINE
  5
278
100
AcDbEntity
  8
0
100
AcDbLine
 62
7
  6
CONTINUOUS
 10
11.1697590663
 20
11.6783083829
 11
11.162089576
 21
11.6933606052
  0
LINE
  5
279
100
AcDbEntity
  8
0
100
AcDbLine
 62
9
  6
CONTINUOUS
 10
6.6364325451
 20
9.9514747646
 11
6.6564755499
 21
9.951474703
  0
LINE
  5
27A
100
AcDbEntity
  8
0
100
AcDbLine
 62
9
  6
CONTINUOUS
 10
15.4582041314
 20
9.9514743754
 11
15.4381611266
 21
9.9514744371
  0
LINE
  5
27B
100
AcDbEntity
  8
0
100
AcDbLine
 62
7
  6
CONTINUOUS
 10
15.8073183383
 20
10.14147457
 11
15.3880372512
 21
10.14147457
  0
LINE
  5
27C
100
AcDbEntity
  8
0
100
AcDbLine
 62
7
  6
CONTINUOUS
 10
6.2873183383
 20
10.14147457
 11
6.7065994253
 21
10.14147457
  0
LINE
  5
27D
100
AcDbEntity
  8
0
100
AcDbLine
 62
7
  6
CONTINUOUS
 10
16.1873183383
 20
10.15547457
 11
15.8873183383
 21
10.15547457
  0
LINE
  5
27E
100
AcDbEntity
  8
0
100
AcDbLine
 62
7
  6
CONTINUOUS
 10
5.9073183383
 20
10.15547457
 11
6.2073183383
 21
10.15547457
  0
LINE
  5
27F
100
AcDbEntity
  8
0
100
AcDbLine
 62
7
  6
CONTINUOUS
 10
15.8673183383
 20
10.18647457
 11
15.8273183383
 21
10.18647457
  0
LINE
  5
280
100
AcDbEntity
  8
0
100
AcDbLine
 62
7
  6
CONTINUOUS
 10
6.2273183383
 20
10.18647457
 11
6.2673183383
 21
10.18647457
  0
LINE
  5
281
100
AcDbEntity
  8
0
100
AcDbLine
 62
7
  6
CONTINUOUS
 10
18.1373183383
 20
10.19647457
 11
18.0839527346
 21
10.19647457
  0
LINE
  5
282
100
AcDbEntity
  8
0
100
AcDbLine
 62
7
  6
CONTINUOUS
 10
3.9573183383
 20
10.19647457
 11
4.010683942
 21
10.19647457
  0
LINE
  5
283
100
AcDbEntity
  8
0
100
AcDbLine
 62
7
  6
CONTINUOUS
 10
10.6393073178
 20
11.2849183411
 11
10.6520570071
 21
11.2738352053
  0
LINE
  5
284
100
AcDbEntity
  8
0
100
AcDbLine
 62
7
  6
CONTINUOUS
 10
11.0611464444
 20
10.9054894214
 11
11.073501571
 21
10.8939680794
  0
LINE
  5
285
100
AcDbEntity
  8
0
100
AcDbLine
 62
7
  6
CONTINUOUS
 10
11.4498555726
 20
11.2328387445
 11
11.4396888081
 21
11.2463304967
  0
LINE
  5
286
100
AcDbEntity
  8
0
100
AcDbLine
 62
7
  6
CONTINUOUS
 10
11.1161223513
 20
11.691681518
 11
11.1064326355
 21
11.7055198663
  0
LINE
  5
287
100
AcDbEntity
  8
0
100
AcDbLine
 62
7
  6
CONTINUOUS
 10
4.8773183383
 20
9.5991004726
 11
5.3844783176
 21
9.6973149936
  0
LINE
  5
288
100
AcDbEntity
  8
0
100
AcDbLine
 62
7
  6
CONTINUOUS
 10
17.2173183383
 20
9.5991004726
 11
16.7101583589
 21
9.6973149936
  0
LINE
  5
289
100
AcDbEntity
  8
0
100
AcDbLine
 62
7
  6
CONTINUOUS
 10
10.6813157489
 20
11.1203966694
 11
10.697471087
 21
11.1154574869
  0
LINE
  5
28A
100
AcDbEntity
  8
0
100
AcDbLine
 62
7
  6
CONTINUOUS
 10
11.2210126118
 20
10.9453485337
 11
11.2369857336
 21
10.9398485468
  0
LINE
  5
28B
100
AcDbEntity
  8
0
100
AcDbLine
 62
7
  6
CONTINUOUS
 10
10.659676488
 20
11.1730966225
 11
10.6749872021
 21
11.1659571192
  0
LINE
  5
28C
100
AcDbEntity
  8
0
100
AcDbLine
 62
7
  6
CONTINUOUS
 10
11.1697590663
 20
10.9246407571
 11
11.1848112885
 21
10.9169712668
  0
LINE
  5
28D
100
AcDbEntity
  8
0
100
AcDbLine
 62
7
  6
CONTINUOUS
 10
10.6455822347
 20
11.2282953062
 11
10.6597503193
 21
11.2190944445
  0
LINE
  5
28E
100
AcDbEntity
  8
0
100
AcDbLine
 62
7
  6
CONTINUOUS
 10
11.1161223513
 20
10.9112676221
 11
11.1299606996
 21
10.9015779063
  0
LINE
  5
28F
100
AcDbEntity
  8
0
100
AcDbLine
 62
7
  6
CONTINUOUS
 10
11.4531805603
 20
11.3464518789
 11
11.4396888081
 21
11.3566186434
  0
LINE
  5
290
100
AcDbEntity
  8
0
100
AcDbLine
 62
7
  6
CONTINUOUS
 10
11.0059013891
 20
11.6955305188
 11
10.9927726708
 21
11.7061619453
  0
LINE
  5
291
100
AcDbEntity
  8
0
100
AcDbLine
 62
7
  6
CONTINUOUS
 10
11.4554903686
 20
11.2895290588
 11
11.4435448574
 21
11.30147457
  0
LINE
  5
292
100
AcDbEntity
  8
0
100
AcDbLine
 62
7
  6
CONTINUOUS
 10
11.0611464444
 20
11.6974597186
 11
11.0496251024
 21
11.7098148453
  0
LINE
  5
293
100
AcDbEntity
  8
0
100
AcDbLine
 62
7
  6
CONTINUOUS
 10
10.832887207
 20
10.9539599783
 11
10.8492050787
 21
10.9583323388
  0
LINE
  5
294
100
AcDbEntity
  8
0
100
AcDbLine
 62
7
  6
CONTINUOUS
 10
11.3833374834
 20
11.0915065046
 11
11.399798008
 21
11.0953067161
  0
LINE
  5
295
100
AcDbEntity
  8
0
100
AcDbLine
 62
7
  6
CONTINUOUS
 10
10.7866093526
 20
10.9871850119
 11
10.803376935
 21
10.9892438121
  0
LINE
  5
296
100
AcDbEntity
  8
0
100
AcDbLine
 62
7
  6
CONTINUOUS
 10
11.3508454614
 20
11.0467850729
 11
11.3676746805
 21
11.0482574388
  0
LINE
  5
297
100
AcDbEntity
  8
0
100
AcDbLine
 62
7
  6
CONTINUOUS
 10
10.7454059022
 20
11.0265273342
 11
10.7622968332
 21
11.0262325019
  0
LINE
  5
298
100
AcDbEntity
  8
0
100
AcDbLine
 62
7
  6
CONTINUOUS
 10
11.3124456293
 20
11.0070208827
 11
11.3293159812
 21
11.006136745
  0
LINE
  5
299
100
AcDbEntity
  8
0
100
AcDbLine
 62
7
  6
CONTINUOUS
 10
10.7100788338
 20
11.0712211918
 11
10.7267643507
 21
11.0685784655
  0
LINE
  5
29A
100
AcDbEntity
  8
0
100
AcDbLine
 62
7
  6
CONTINUOUS
 10
11.2688853959
 20
10.9729878985
 11
11.2854685186
 21
10.9697644659
  0
LINE
  5
29B
100
AcDbEntity
  8
0
100
AcDbLine
 62
7
  6
CONTINUOUS
 10
11.4250607196
 20
11.4565803239
 11
11.409289275
 21
11.4626344143
  0
LINE
  5
29C
100
AcDbEntity
  8
0
100
AcDbLine
 62
7
  6
CONTINUOUS
 10
10.8988892717
 20
11.6688494013
 11
10.8833387194
 21
11.6754502191
  0
LINE
  5
29D
100
AcDbEntity
  8
0
100
AcDbLine
 62
7
  6
CONTINUOUS
 10
11.4429711055
 20
11.4024992668
 11
11.428195714
 21
11.4106894001
  0
LINE
  5
29E
100
AcDbEntity
  8
0
100
AcDbLine
 62
7
  6
CONTINUOUS
 10
10.9514624677
 20
11.6859314681
 11
10.9369819085
 21
11.6946322659
  0
LINE
  5
29F
100
AcDbEntity
  8
0
100
AcDbLine
 62
7
  6
CONTINUOUS
 10
11.2854685186
 20
11.6331846741
 11
11.2688853959
 21
11.6299612416
  0
LINE
  5
2A0
100
AcDbEntity
  8
0
100
AcDbLine
 62
7
  6
CONTINUOUS
 10
10.7267643507
 20
11.5343706745
 11
10.7100788338
 21
11.5317279483
  0
LINE
  5
2A1
100
AcDbEntity
  8
0
100
AcDbLine
 62
7
  6
CONTINUOUS
 10
11.3293159812
 20
11.5968123951
 11
11.3124456293
 21
11.5959282574
  0
LINE
  5
2A2
100
AcDbEntity
  8
0
100
AcDbLine
 62
7
  6
CONTINUOUS
 10
10.7622968332
 20
11.5767166381
 11
10.7454059022
 21
11.5764218058
  0
LINE
  5
2A3
100
AcDbEntity
  8
0
100
AcDbLine
 62
7
  6
CONTINUOUS
 10
11.3676746805
 20
11.5546917012
 11
11.3508454614
 21
11.5561640671
  0
LINE
  5
2A4
100
AcDbEntity
  8
0
100
AcDbLine
 62
7
  6
CONTINUOUS
 10
10.803376935
 20
11.6137053279
 11
10.7866093526
 21
11.6157641282
  0
LINE
  5
2A5
100
AcDbEntity
  8
0
100
AcDbLine
 62
7
  6
CONTINUOUS
 10
11.399798008
 20
11.507642424
 11
11.3833374834
 21
11.5114426355
  0
LINE
  5
2A6
100
AcDbEntity
  8
0
100
AcDbLine
 62
7
  6
CONTINUOUS
 10
10.8492050787
 20
11.6446168012
 11
10.832887207
 21
11.6489891618
  0
LINE
  5
2A7
100
AcDbEntity
  8
0
100
AcDbLine
 62
7
  6
CONTINUOUS
 10
15.8073183383
 20
10.16647457
 11
15.8073183383
 21
9.73647457
  0
LINE
  5
2A8
100
AcDbEntity
  8
0
100
AcDbLine
 62
9
  6
CONTINUOUS
 10
15.8273183383
 20
10.18647457
 11
15.8273183383
 21
9.7165066503
  0
LINE
  5
2A9
100
AcDbEntity
  8
0
100
AcDbLine
 62
9
  6
CONTINUOUS
 10
15.8673183383
 20
9.71647457
 11
15.8673183383
 21
10.18647457
  0
LINE
  5
2AA
100
AcDbEntity
  8
0
100
AcDbLine
 62
7
  6
CONTINUOUS
 10
15.8873183383
 20
9.73647457
 11
15.8873183383
 21
10.16647457
  0
LINE
  5
2AB
100
AcDbEntity
  8
0
100
AcDbLine
 62
9
  6
CONTINUOUS
 10
16.1873183383
 20
9.74747457
 11
16.1873183383
 21
10.15547457
  0
LINE
  5
2AC
100
AcDbEntity
  8
0
100
AcDbLine
 62
9
  6
CONTINUOUS
 10
16.7101583589
 20
10.2056341465
 11
16.7101583589
 21
9.6973149936
  0
LINE
  5
2AD
100
AcDbEntity
  8
0
100
AcDbLine
 62
9
  6
CONTINUOUS
 10
17.2173183383
 20
9.5991004726
 11
17.2173183383
 21
10.3038486675
  0
LINE
  5
2AE
100
AcDbEntity
  8
0
100
AcDbLine
 62
7
  6
CONTINUOUS
 10
17.5883183383
 20
10.3362350727
 11
17.5883183383
 21
9.5667140674
  0
LINE
  5
2AF
100
AcDbEntity
  8
0
100
AcDbLine
 62
9
  6
CONTINUOUS
 10
18.0732163062
 20
10.1996006521
 11
18.0732163062
 21
9.7033628085
  0
LINE
  5
2B0
100
AcDbEntity
  8
0
100
AcDbLine
 62
9
  6
CONTINUOUS
 10
18.0839527346
 20
10.19647457
 11
18.0839527346
 21
9.7064887102
  0
LINE
  5
2B1
100
AcDbEntity
  8
0
100
AcDbLine
 62
9
  6
CONTINUOUS
 10
18.1373183383
 20
9.70647457
 11
18.1373183383
 21
10.19647457
  0
LINE
  5
2B2
100
AcDbEntity
  8
0
100
AcDbLine
 62
7
  6
CONTINUOUS
 10
18.1573183383
 20
9.72647457
 11
18.1573183383
 21
10.17647457
  0
ARC
  5
2B3
100
AcDbEntity
  8
0
100
AcDbCircle
 62
7
  6
CONTINUOUS
 10
5.9073183383
 20
6.99747457
 40
2.75
100
AcDbArc
 50
90.0
 51
100.96
  0
ARC
  5
2B4
100
AcDbEntity
  8
0
100
AcDbCircle
 62
7
  6
CONTINUOUS
 10
11.0331107322
 20
3.9010405675
 40
0.4889600717
100
AcDbArc
 50
183.2377807645
 51
186.8421255044
  0
ARC
  5
2B5
100
AcDbEntity
  8
0
100
AcDbCircle
 62
7
  6
CONTINUOUS
 10
11.0317361954
 20
3.9009624037
 40
0.4875833143
100
AcDbArc
 50
180.0011784064
 51
183.2377331198
  0
ARC
  5
2B6
100
AcDbEntity
  8
0
100
AcDbCircle
 62
7
  6
CONTINUOUS
 10
11.0310131796
 20
3.9009492542
 40
0.4868602985
100
AcDbArc
 50
179.0835877
 51
179.9996326681
  0
ARC
  5
2B7
100
AcDbEntity
  8
0
100
AcDbCircle
 62
7
  6
CONTINUOUS
 10
4.5369970157
 20
8.5464979918
 40
1.79
100
AcDbArc
 50
79.04
 51
90.9820362043
  0
ARC
  5
2B8
100
AcDbEntity
  8
0
100
AcDbCircle
 62
7
  6
CONTINUOUS
 10
4.4911391139
 20
9.4613667448
 40
0.875
100
AcDbArc
 50
89.0060010064
 51
122.4675202279
  0
ARC
  5
2B9
100
AcDbEntity
  8
0
100
AcDbCircle
 62
7
  6
CONTINUOUS
 10
4.4911391139
 20
10.4415823953
 40
0.875
100
AcDbArc
 50
237.5324797721
 51
270.9939989936
  0
ARC
  5
2BA
100
AcDbEntity
  8
0
100
AcDbCircle
 62
7
  6
CONTINUOUS
 10
4.3923183383
 20
9.95147457
 40
0.495
100
AcDbArc
 50
156.80823049
 51
203.19176951
  0
ARC
  5
2BB
100
AcDbEntity
  8
0
100
AcDbCircle
 62
7
  6
CONTINUOUS
 10
4.010683942
 20
10.21647457
 40
0.02
100
AcDbArc
 50
270.0
 51
302.4675202268
  0
ARC
  5
2BC
100
AcDbEntity
  8
0
100
AcDbCircle
 62
7
  6
CONTINUOUS
 10
4.010683942
 20
9.68647457
 40
0.02
100
AcDbArc
 50
57.5324797732
 51
90.0
  0
ARC
  5
2BD
100
AcDbEntity
  8
0
100
AcDbCircle
 62
7
  6
CONTINUOUS
 10
3.9573183383
 20
9.72647457
 40
0.02
100
AcDbArc
 50
180.0
 51
270.0
  0
ARC
  5
2BE
100
AcDbEntity
  8
0
100
AcDbCircle
 62
7
  6
CONTINUOUS
 10
3.9573183383
 20
10.17647457
 40
0.02
100
AcDbArc
 50
90.0
 51
180.0
  0
ARC
  5
2BF
100
AcDbEntity
  8
0
100
AcDbCircle
 62
7
  6
CONTINUOUS
 10
6.2273183383
 20
9.73647457
 40
0.02
100
AcDbArc
 50
180.0
 51
270.0
  0
ARC
  5
2C0
100
AcDbEntity
  8
0
100
AcDbCircle
 62
7
  6
CONTINUOUS
 10
6.2673183383
 20
9.73647457
 40
0.02
100
AcDbArc
 50
270.0
 51
360.0
  0
ARC
  5
2C1
100
AcDbEntity
  8
0
100
AcDbCircle
 62
7
  6
CONTINUOUS
 10
6.2273183383
 20
10.16647457
 40
0.02
100
AcDbArc
 50
90.0
 51
180.0
  0
ARC
  5
2C2
100
AcDbEntity
  8
0
100
AcDbCircle
 62
7
  6
CONTINUOUS
 10
6.2673183383
 20
10.16647457
 40
0.02
100
AcDbArc
 50
0.0
 51
90.0
  0
ARC
  5
2C3
100
AcDbEntity
  8
0
100
AcDbCircle
 62
7
  6
CONTINUOUS
 10
7.0473183383
 20
9.95147457
 40
1.055
100
AcDbArc
 50
191.1759208464
 51
168.8240791536
  0
ARC
  5
2C4
100
AcDbEntity
  8
0
100
AcDbCircle
 62
9
  6
CONTINUOUS
 10
7.0473183383
 20
9.95147457
 40
0.885
100
AcDbArc
 50
193.360042202
 51
166.6403467337
  0
ARC
  5
2C5
100
AcDbEntity
  8
0
100
AcDbCircle
 62
7
  6
CONTINUOUS
 10
7.0473183383
 20
9.95147457
 40
0.85
100
AcDbArc
 50
196.054834363
 51
163.945165637
  0
ARC
  5
2C6
100
AcDbEntity
  8
0
100
AcDbCircle
 62
7
  6
CONTINUOUS
 10
7.0473183383
 20
9.95147457
 40
0.6966258748
100
AcDbArc
 50
195.8480253863
 51
164.1519746137
  0
ARC
  5
2C7
100
AcDbEntity
  8
0
100
AcDbCircle
 62
7
  6
CONTINUOUS
 10
7.0473183383
 20
9.95147457
 40
0.665
100
AcDbArc
 50
196.6323775205
 51
163.3712510209
  0
ARC
  5
2C8
100
AcDbEntity
  8
0
100
AcDbCircle
 62
9
  6
CONTINUOUS
 10
7.0473183383
 20
9.95147457
 40
0.5899999734
100
AcDbArc
 50
198.7954494509
 51
161.1932922686
  0
ARC
  5
2C9
100
AcDbEntity
  8
0
100
AcDbCircle
 62
7
  6
CONTINUOUS
 10
7.0473183383
 20
9.95147457
 40
0.56
100
AcDbArc
 50
199.8799423916
 51
160.1325987074
  0
ARC
  5
2CA
100
AcDbEntity
  8
0
100
AcDbCircle
 62
9
  6
CONTINUOUS
 10
7.0473183383
 20
9.95147457
 40
0.5414224068
100
AcDbArc
 50
200.591431213
 51
159.4241750033
  0
CIRCLE
  5
2CB
100
AcDbEntity
  8
0
100
AcDbCircle
 62
7
  6
CONTINUOUS
 10
7.0473183383
 20
9.95147457
 40
0.3908427883
  0
CIRCLE
  5
2CC
100
AcDbEntity
  8
0
100
AcDbCircle
 62
7
  6
CONTINUOUS
 10
7.0473183383
 20
9.95147457
 40
0.357
  0
CIRCLE
  5
2CD
100
AcDbEntity
  8
0
100
AcDbCircle
 62
9
  6
CONTINUOUS
 10
7.0473183383
 20
9.95147457
 40
0.3469999946
  0
CIRCLE
  5
2CE
100
AcDbEntity
  8
0
100
AcDbCircle
 62
7
  6
CONTINUOUS
 10
7.0473183383
 20
9.95147457
 40
0.3
  0
CIRCLE
  5
2CF
100
AcDbEntity
  8
0
100
AcDbCircle
 62
9
  6
CONTINUOUS
 10
7.0473183383
 20
9.95147457
 40
0.2944615386
  0
ARC
  5
2D0
100
AcDbEntity
  8
0
100
AcDbCircle
 62
7
  6
CONTINUOUS
 10
5.9073183383
 20
12.90547457
 40
2.75
100
AcDbArc
 50
259.04
 51
270.0
  0
ARC
  5
2D1
100
AcDbEntity
  8
0
100
AcDbCircle
 62
7
  6
CONTINUOUS
 10
4.5369970157
 20
11.3564511483
 40
1.79
100
AcDbArc
 50
269.0179637957
 51
280.96
  0
ARC
  5
2D2
100
AcDbEntity
  8
0
100
AcDbCircle
 62
7
  6
CONTINUOUS
 10
10.7338429664
 20
11.0503532394
 40
0.0098425197
100
AcDbArc
 50
171.0
 51
218.6977958225
  0
ARC
  5
2D3
100
AcDbEntity
  8
0
100
AcDbCircle
 62
7
  6
CONTINUOUS
 10
10.7116185431
 20
11.0809425337
 40
0.0098425197
100
AcDbArc
 50
213.3022041774
 51
261.0000000004
  0
ARC
  5
2D4
100
AcDbEntity
  8
0
100
AcDbCircle
 62
7
  6
CONTINUOUS
 10
10.7019443529
 20
11.0964244745
 40
0.0098425197
100
AcDbArc
 50
162.9999999997
 51
210.6977958226
  0
ARC
  5
2D5
100
AcDbEntity
  8
0
100
AcDbCircle
 62
7
  6
CONTINUOUS
 10
10.6841934231
 20
11.1298091178
 40
0.0098425197
100
AcDbArc
 50
205.3022041774
 51
253.0000000001
  0
ARC
  5
2D6
100
AcDbEntity
  8
0
100
AcDbCircle
 62
7
  6
CONTINUOUS
 10
10.6767680511
 20
11.1464867764
 40
0.0098425197
100
AcDbArc
 50
155.0000000001
 51
202.6977958226
  0
ARC
  5
2D7
100
AcDbEntity
  8
0
100
AcDbCircle
 62
7
  6
CONTINUOUS
 10
10.6638361165
 20
11.1820169747
 40
0.0098425197
100
AcDbArc
 50
197.3022041774
 51
244.9999999999
  0
ARC
  5
2D8
100
AcDbEntity
  8
0
100
AcDbCircle
 62
7
  6
CONTINUOUS
 10
10.6588040892
 20
11.1995657395
 40
0.0098425197
100
AcDbArc
 50
147.0000000001
 51
194.6977958226
  0
ARC
  5
2D9
100
AcDbEntity
  8
0
100
AcDbCircle
 62
7
  6
CONTINUOUS
 10
10.6509428552
 20
11.2365499378
 40
0.0098425197
100
AcDbArc
 50
189.3022041774
 51
237.0
  0
ARC
  5
2DA
100
AcDbEntity
  8
0
100
AcDbCircle
 62
7
  6
CONTINUOUS
 10
10.6484021152
 20
11.2546282421
 40
0.0098425197
100
AcDbArc
 50
139.0000000002
 51
186.6977958226
  0
ARC
  5
2DB
100
AcDbEntity
  8
0
100
AcDbCircle
 62
7
  6
CONTINUOUS
 10
10.6457645917
 20
11.292346585
 40
0.0098425197
100
AcDbArc
 50
181.3022041774
 51
228.9999999999
  0
ARC
  5
2DC
100
AcDbEntity
  8
0
100
AcDbCircle
 62
7
  6
CONTINUOUS
 10
10.7718430215
 20
11.0091697953
 40
0.0098425197
100
AcDbArc
 50
179.0000000001
 51
226.6977958226
  0
ARC
  5
2DD
100
AcDbEntity
  8
0
100
AcDbCircle
 62
7
  6
CONTINUOUS
 10
10.7455776778
 20
11.0363683549
 40
0.0098425197
100
AcDbArc
 50
221.3022041774
 51
269.0000000004
  0
ARC
  5
2DE
100
AcDbEntity
  8
0
100
AcDbCircle
 62
7
  6
CONTINUOUS
 10
10.7854098512
 20
10.9969541669
 40
0.0098425197
100
AcDbArc
 50
229.3022041774
 51
276.9999999998
  0
ARC
  5
2DF
100
AcDbEntity
  8
0
100
AcDbCircle
 62
7
  6
CONTINUOUS
 10
10.8152048902
 20
10.9736757312
 40
0.0098425197
100
AcDbArc
 50
186.9999999996
 51
234.6977958226
  0
ARC
  5
2E0
100
AcDbEntity
  8
0
100
AcDbCircle
 62
7
  6
CONTINUOUS
 10
10.8303397754
 20
10.9634671222
 40
0.0098425197
100
AcDbArc
 50
237.3022041774
 51
285.0
  0
ARC
  5
2E1
100
AcDbEntity
  8
0
100
AcDbCircle
 62
7
  6
CONTINUOUS
 10
10.6484021152
 20
11.348320898
 40
0.0098425197
100
AcDbArc
 50
173.3022041774
 51
221.0
  0
ARC
  5
2E2
100
AcDbEntity
  8
0
100
AcDbCircle
 62
7
  6
CONTINUOUS
 10
10.6509428552
 20
11.3663992023
 40
0.0098425197
100
AcDbArc
 50
122.9999999999
 51
170.6977958226
  0
ARC
  5
2E3
100
AcDbEntity
  8
0
100
AcDbCircle
 62
7
  6
CONTINUOUS
 10
10.6588040892
 20
11.4033834005
 40
0.0098425197
100
AcDbArc
 50
165.3022041774
 51
212.9999999998
  0
ARC
  5
2E4
100
AcDbEntity
  8
0
100
AcDbCircle
 62
7
  6
CONTINUOUS
 10
10.6638361165
 20
11.4209321654
 40
0.0098425197
100
AcDbArc
 50
114.9999999999
 51
162.6977958225
  0
ARC
  5
2E5
100
AcDbEntity
  8
0
100
AcDbCircle
 62
7
  6
CONTINUOUS
 10
10.6767680511
 20
11.4564623636
 40
0.0098425197
100
AcDbArc
 50
157.3022041774
 51
205.0000000001
  0
ARC
  5
2E6
100
AcDbEntity
  8
0
100
AcDbCircle
 62
7
  6
CONTINUOUS
 10
10.6841934231
 20
11.4731400222
 40
0.0098425197
100
AcDbArc
 50
106.9999999997
 51
154.6977958226
  0
ARC
  5
2E7
100
AcDbEntity
  8
0
100
AcDbCircle
 62
7
  6
CONTINUOUS
 10
10.6457645917
 20
11.3106025551
 40
0.0098425197
100
AcDbArc
 50
131.0000000002
 51
178.6977958226
  0
ARC
  5
2E8
100
AcDbEntity
  8
0
100
AcDbCircle
 62
7
  6
CONTINUOUS
 10
10.7019443529
 20
11.5065246656
 40
0.0098425197
100
AcDbArc
 50
149.3022041774
 51
196.9999999997
  0
ARC
  5
2E9
100
AcDbEntity
  8
0
100
AcDbCircle
 62
7
  6
CONTINUOUS
 10
10.7116185431
 20
11.5220066063
 40
0.0098425197
100
AcDbArc
 50
99.0
 51
146.6977958226
  0
ARC
  5
2EA
100
AcDbEntity
  8
0
100
AcDbCircle
 62
7
  6
CONTINUOUS
 10
10.7338429664
 20
11.5525959007
 40
0.0098425197
100
AcDbArc
 50
141.3022041775
 51
188.9999999996
  0
ARC
  5
2EB
100
AcDbEntity
  8
0
100
AcDbCircle
 62
7
  6
CONTINUOUS
 10
10.7455776778
 20
11.5665807852
 40
0.0098425197
100
AcDbArc
 50
90.9999999999
 51
138.6977958226
  0
ARC
  5
2EC
100
AcDbEntity
  8
0
100
AcDbCircle
 62
7
  6
CONTINUOUS
 10
10.7718430215
 20
11.5937793448
 40
0.0098425197
100
AcDbArc
 50
133.3022041774
 51
181.0000000002
  0
ARC
  5
2ED
100
AcDbEntity
  8
0
100
AcDbCircle
 62
7
  6
CONTINUOUS
 10
10.7854098512
 20
11.6059949731
 40
0.0098425197
100
AcDbArc
 50
83.0000000004
 51
130.6977958226
  0
ARC
  5
2EE
100
AcDbEntity
  8
0
100
AcDbCircle
 62
7
  6
CONTINUOUS
 10
10.8152048902
 20
11.6292734089
 40
0.0098425197
100
AcDbArc
 50
125.3022041774
 51
173.0000000003
  0
ARC
  5
2EF
100
AcDbEntity
  8
0
100
AcDbCircle
 62
7
  6
CONTINUOUS
 10
10.8303397754
 20
11.6394820178
 40
0.0098425197
100
AcDbArc
 50
75.0000000001
 51
122.6977958226
  0
ARC
  5
2F0
100
AcDbEntity
  8
0
100
AcDbCircle
 62
7
  6
CONTINUOUS
 10
10.9319126361
 20
10.9167535602
 40
0.0098425197
100
AcDbArc
 50
253.3022041774
 51
300.9999999997
  0
ARC
  5
2F1
100
AcDbEntity
  8
0
100
AcDbCircle
 62
7
  6
CONTINUOUS
 10
10.8630845833
 20
10.9445618986
 40
0.0098425197
100
AcDbArc
 50
195.0000000001
 51
242.6977958226
  0
ARC
  5
2F2
100
AcDbEntity
  8
0
100
AcDbCircle
 62
7
  6
CONTINUOUS
 10
10.8794929405
 20
10.9365590081
 40
0.0098425197
100
AcDbArc
 50
245.3022041774
 51
293.0000000004
  0
ARC
  5
2F3
100
AcDbEntity
  8
0
100
AcDbCircle
 62
7
  6
CONTINUOUS
 10
10.9145501767
 20
10.9223949652
 40
0.0098425197
100
AcDbArc
 50
202.9999999999
 51
250.6977958226
  0
ARC
  5
2F4
100
AcDbEntity
  8
0
100
AcDbCircle
 62
7
  6
CONTINUOUS
 10
10.9685999515
 20
10.9076063851
 40
0.0098425197
100
AcDbArc
 50
210.9999999999
 51
258.6977958226
  0
ARC
  5
2F5
100
AcDbEntity
  8
0
100
AcDbCircle
 62
7
  6
CONTINUOUS
 10
10.9865785724
 20
10.9044362692
 40
0.0098425197
100
AcDbArc
 50
261.3022041774
 51
309.0
  0
ARC
  5
2F6
100
AcDbEntity
  8
0
100
AcDbCircle
 62
7
  6
CONTINUOUS
 10
11.0241818901
 20
10.9004840012
 40
0.0098425197
100
AcDbArc
 50
218.9999999998
 51
266.6977958226
  0
ARC
  5
2F7
100
AcDbEntity
  8
0
100
AcDbCircle
 62
7
  6
CONTINUOUS
 10
11.0424267392
 20
10.8998468771
 40
0.0098425197
100
AcDbArc
 50
269.3022041774
 51
317.0000000003
  0
ARC
  5
2F8
100
AcDbEntity
  8
0
100
AcDbCircle
 62
7
  6
CONTINUOUS
 10
10.8630845833
 20
11.6583872414
 40
0.0098425197
100
AcDbArc
 50
117.3022041774
 51
165.0
  0
ARC
  5
2F9
100
AcDbEntity
  8
0
100
AcDbCircle
 62
7
  6
CONTINUOUS
 10
10.8794929405
 20
11.666390132
 40
0.0098425197
100
AcDbArc
 50
67.0000000001
 51
114.6977958226
  0
ARC
  5
2FA
100
AcDbEntity
  8
0
100
AcDbCircle
 62
7
  6
CONTINUOUS
 10
10.9145501767
 20
11.6805541748
 40
0.0098425197
100
AcDbArc
 50
109.3022041774
 51
156.9999999998
  0
ARC
  5
2FB
100
AcDbEntity
  8
0
100
AcDbCircle
 62
7
  6
CONTINUOUS
 10
10.9319126361
 20
11.6861955799
 40
0.0098425197
100
AcDbArc
 50
59.0000000003
 51
106.6977958226
  0
ARC
  5
2FC
100
AcDbEntity
  8
0
100
AcDbCircle
 62
7
  6
CONTINUOUS
 10
10.9685999515
 20
11.6953427549
 40
0.0098425197
100
AcDbArc
 50
101.3022041774
 51
149.0000000001
  0
ARC
  5
2FD
100
AcDbEntity
  8
0
100
AcDbCircle
 62
7
  6
CONTINUOUS
 10
10.9865785724
 20
11.6985128709
 40
0.0098425197
100
AcDbArc
 50
51.0000000002
 51
98.6977958226
  0
ARC
  5
2FE
100
AcDbEntity
  8
0
100
AcDbCircle
 62
7
  6
CONTINUOUS
 10
11.0241818901
 20
11.7024651388
 40
0.0098425197
100
AcDbArc
 50
93.3022041774
 51
141.0000000001
  0
ARC
  5
2FF
100
AcDbEntity
  8
0
100
AcDbCircle
 62
7
  6
CONTINUOUS
 10
11.0424267392
 20
11.703102263
 40
0.0098425197
100
AcDbArc
 50
42.9999999997
 51
90.6977958226
  0
ARC
  5
300
100
AcDbEntity
  8
0
100
AcDbCircle
 62
7
  6
CONTINUOUS
 10
16.1873183383
 20
6.99747457
 40
2.75
100
AcDbArc
 50
79.04
 51
90.0
  0
ARC
  5
301
100
AcDbEntity
  8
0
100
AcDbCircle
 62
7
  6
CONTINUOUS
 10
11.0615223649
 20
3.9010405637
 40
0.4889636369
100
AcDbArc
 50
353.1553608459
 51
356.7375989262
  0
ARC
  5
302
100
AcDbEntity
  8
0
100
AcDbCircle
 62
7
  6
CONTINUOUS
 10
11.0628761146
 20
3.9009632389
 40
0.4876076807
100
AcDbArc
 50
356.7376176186
 51
359.9987234804
  0
ARC
  5
303
100
AcDbEntity
  8
0
100
AcDbCircle
 62
7
  6
CONTINUOUS
 10
11.063644932
 20
3.9009499284
 40
0.4868388632
100
AcDbArc
 50
0.0002879754
 51
0.9209060761
  0
ARC
  5
304
100
AcDbEntity
  8
0
100
AcDbCircle
 62
7
  6
CONTINUOUS
 10
11.0473183383
 20
9.95147457
 40
1.2595
100
AcDbArc
 50
239.4288835959
 51
243.5713463485
  0
ARC
  5
305
100
AcDbEntity
  8
0
100
AcDbCircle
 62
7
  6
CONTINUOUS
 10
11.0473183383
 20
9.95147457
 40
1.2595
100
AcDbArc
 50
296.4281376698
 51
300.571238667
  0
ARC
  5
306
100
AcDbEntity
  8
0
100
AcDbCircle
 62
7
  6
CONTINUOUS
 10
11.0473183383
 20
9.95147457
 40
1.2595
100
AcDbArc
 50
302.749975254
 51
72.2837933041
  0
ARC
  5
307
100
AcDbEntity
  8
0
100
AcDbCircle
 62
7
  6
CONTINUOUS
 10
11.0473183383
 20
9.95147457
 40
1.2595
100
AcDbArc
 50
107.5610106372
 51
237.2492704686
  0
ARC
  5
308
100
AcDbEntity
  8
0
100
AcDbCircle
 62
7
  6
CONTINUOUS
 10
11.0473183383
 20
9.95147457
 40
1.0734979868
100
AcDbArc
 50
104.4942800245
 51
75.7252318789
  0
ARC
  5
309
100
AcDbEntity
  8
0
100
AcDbCircle
 62
7
  6
CONTINUOUS
 10
11.0473183383
 20
9.95147457
 40
0.955
100
AcDbArc
 50
92.4739146122
 51
92.8094511021
  0
ARC
  5
30A
100
AcDbEntity
  8
0
100
AcDbCircle
 62
7
  6
CONTINUOUS
 10
11.0473183383
 20
9.95147457
 40
0.955
100
AcDbArc
 50
85.0275395662
 51
86.2481972731
  0
ARC
  5
30B
100
AcDbEntity
  8
0
100
AcDbCircle
 62
7
  6
CONTINUOUS
 10
11.0473183383
 20
9.95147457
 40
0.955
100
AcDbArc
 50
95.2384244646
 51
84.5526580599
  0
CIRCLE
  5
30C
100
AcDbEntity
  8
0
100
AcDbCircle
 62
9
  6
CONTINUOUS
 10
11.0473183383
 20
9.95147457
 40
0.8527371993
  0
CIRCLE
  5
30D
100
AcDbEntity
  8
0
100
AcDbCircle
 62
7
  6
CONTINUOUS
 10
11.0473183383
 20
9.95147457
 40
0.655
  0
CIRCLE
  5
30E
100
AcDbEntity
  8
0
100
AcDbCircle
 62
7
  6
CONTINUOUS
 10
11.0473183383
 20
9.95147457
 40
0.6131068422
  0
ARC
  5
30F
100
AcDbEntity
  8
0
100
AcDbCircle
 62
7
  6
CONTINUOUS
 10
11.0802141533
 20
10.9011664426
 40
0.0098425197
100
AcDbArc
 50
227.0000000001
 51
274.6977958226
  0
ARC
  5
310
100
AcDbEntity
  8
0
100
AcDbCircle
 62
7
  6
CONTINUOUS
 10
11.0983701154
 20
10.9030747112
 40
0.0098425197
100
AcDbArc
 50
277.3022041774
 51
324.9999999997
  0
ARC
  5
311
100
AcDbEntity
  8
0
100
AcDbCircle
 62
7
  6
CONTINUOUS
 10
11.1356061369
 20
10.9096404264
 40
0.0098425197
100
AcDbArc
 50
235.0000000001
 51
282.6977958226
  0
ARC
  5
312
100
AcDbEntity
  8
0
100
AcDbCircle
 62
7
  6
CONTINUOUS
 10
11.1533198267
 20
10.9140569453
 40
0.0098425197
100
AcDbArc
 50
285.3022041774
 51
332.9999999999
  0
ARC
  5
313
100
AcDbEntity
  8
0
100
AcDbCircle
 62
7
  6
CONTINUOUS
 10
11.189279699
 20
10.9257410161
 40
0.0098425197
100
AcDbArc
 50
243.0
 51
290.6977958226
  0
ARC
  5
314
100
AcDbEntity
  8
0
100
AcDbCircle
 62
7
  6
CONTINUOUS
 10
11.2062063397
 20
10.9325798229
 40
0.0098425197
100
AcDbArc
 50
293.3022041774
 51
341.0000000002
  0
ARC
  5
315
100
AcDbEntity
  8
0
100
AcDbCircle
 62
7
  6
CONTINUOUS
 10
11.2401901446
 20
10.949154832
 40
0.0098425197
100
AcDbArc
 50
251.0000000005
 51
298.6977958226
  0
ARC
  5
316
100
AcDbEntity
  8
0
100
AcDbCircle
 62
7
  6
CONTINUOUS
 10
11.0473183383
 20
11.30147457
 40
0.4115
100
AcDbArc
 50
346.6977958154
 51
349.3022041842
  0
ARC
  5
317
100
AcDbEntity
  8
0
100
AcDbCircle
 62
7
  6
CONTINUOUS
 10
11.0473183383
 20
11.30147457
 40
0.4115
100
AcDbArc
 50
266.6977958154
 51
269.3022041842
  0
ARC
  5
318
100
AcDbEntity
  8
0
100
AcDbCircle
 62
7
  6
CONTINUOUS
 10
11.0473183383
 20
11.30147457
 40
0.4115
100
AcDbArc
 50
250.6977958154
 51
253.3022041842
  0
ARC
  5
319
100
AcDbEntity
  8
0
100
AcDbCircle
 62
7
  6
CONTINUOUS
 10
11.0473183383
 20
11.30147457
 40
0.4115
100
AcDbArc
 50
242.6977958154
 51
245.3022041854
  0
ARC
  5
31A
100
AcDbEntity
  8
0
100
AcDbCircle
 62
7
  6
CONTINUOUS
 10
11.0473183383
 20
11.30147457
 40
0.4115
100
AcDbArc
 50
234.6977958154
 51
237.3022041842
  0
ARC
  5
31B
100
AcDbEntity
  8
0
100
AcDbCircle
 62
7
  6
CONTINUOUS
 10
11.0473183383
 20
11.30147457
 40
0.4115
100
AcDbArc
 50
226.6977958154
 51
229.3022041842
  0
ARC
  5
31C
100
AcDbEntity
  8
0
100
AcDbCircle
 62
7
  6
CONTINUOUS
 10
11.0473183383
 20
11.30147457
 40
0.4115
100
AcDbArc
 50
218.6977958154
 51
221.3022041842
  0
ARC
  5
31D
100
AcDbEntity
  8
0
100
AcDbCircle
 62
7
  6
CONTINUOUS
 10
11.0473183383
 20
11.30147457
 40
0.4115
100
AcDbArc
 50
210.6977958154
 51
213.3022041842
  0
ARC
  5
31E
100
AcDbEntity
  8
0
100
AcDbCircle
 62
7
  6
CONTINUOUS
 10
11.0473183383
 20
11.30147457
 40
0.4115
100
AcDbArc
 50
202.6977958154
 51
205.3022041842
  0
ARC
  5
31F
100
AcDbEntity
  8
0
100
AcDbCircle
 62
7
  6
CONTINUOUS
 10
11.0473183383
 20
11.30147457
 40
0.4115
100
AcDbArc
 50
194.6977958154
 51
197.3022041842
  0
ARC
  5
320
100
AcDbEntity
  8
0
100
AcDbCircle
 62
7
  6
CONTINUOUS
 10
11.0473183383
 20
11.30147457
 40
0.4115
100
AcDbArc
 50
186.6977958154
 51
189.3022041842
  0
ARC
  5
321
100
AcDbEntity
  8
0
100
AcDbCircle
 62
7
  6
CONTINUOUS
 10
11.0473183383
 20
11.30147457
 40
0.4115
100
AcDbArc
 50
258.6977958154
 51
261.3022041865
  0
ARC
  5
322
100
AcDbEntity
  8
0
100
AcDbCircle
 62
7
  6
CONTINUOUS
 10
11.0473183383
 20
11.30147457
 40
0.4115
100
AcDbArc
 50
274.6977958154
 51
277.3022041879
  0
ARC
  5
323
100
AcDbEntity
  8
0
100
AcDbCircle
 62
7
  6
CONTINUOUS
 10
11.0473183383
 20
11.30147457
 40
0.4115
100
AcDbArc
 50
282.6977958154
 51
285.3022041842
  0
ARC
  5
324
100
AcDbEntity
  8
0
100
AcDbCircle
 62
7
  6
CONTINUOUS
 10
11.0473183383
 20
11.30147457
 40
0.4115
100
AcDbArc
 50
290.6977958154
 51
293.3022041863
  0
ARC
  5
325
100
AcDbEntity
  8
0
100
AcDbCircle
 62
7
  6
CONTINUOUS
 10
11.0473183383
 20
11.30147457
 40
0.4115
100
AcDbArc
 50
298.6977958154
 51
301.3022041842
  0
ARC
  5
326
100
AcDbEntity
  8
0
100
AcDbCircle
 62
7
  6
CONTINUOUS
 10
11.0473183383
 20
11.30147457
 40
0.4115
100
AcDbArc
 50
306.6977958154
 51
309.3022041843
  0
ARC
  5
327
100
AcDbEntity
  8
0
100
AcDbCircle
 62
7
  6
CONTINUOUS
 10
11.0473183383
 20
11.30147457
 40
0.4115
100
AcDbArc
 50
314.6977958154
 51
317.3022041842
  0
ARC
  5
328
100
AcDbEntity
  8
0
100
AcDbCircle
 62
7
  6
CONTINUOUS
 10
11.0473183383
 20
11.30147457
 40
0.4115
100
AcDbArc
 50
322.6977958154
 51
325.3022041842
  0
ARC
  5
329
100
AcDbEntity
  8
0
100
AcDbCircle
 62
7
  6
CONTINUOUS
 10
11.0473183383
 20
11.30147457
 40
0.4115
100
AcDbArc
 50
330.6977958154
 51
333.3022041842
  0
ARC
  5
32A
100
AcDbEntity
  8
0
100
AcDbCircle
 62
7
  6
CONTINUOUS
 10
11.0473183383
 20
11.30147457
 40
0.4115
100
AcDbArc
 50
338.6977958154
 51
341.3022041842
  0
ARC
  5
32B
100
AcDbEntity
  8
0
100
AcDbCircle
 62
7
  6
CONTINUOUS
 10
11.0473183383
 20
11.30147457
 40
0.4115
100
AcDbArc
 50
354.6977958154
 51
357.3022041842
  0
ARC
  5
32C
100
AcDbEntity
  8
0
100
AcDbCircle
 62
7
  6
CONTINUOUS
 10
11.0473183383
 20
11.30147457
 40
0.4115
100
AcDbArc
 50
2.6977958154
 51
5.3022041842
  0
ARC
  5
32D
100
AcDbEntity
  8
0
100
AcDbCircle
 62
7
  6
CONTINUOUS
 10
11.0473183383
 20
11.30147457
 40
0.4115
100
AcDbArc
 50
178.6977958154
 51
181.3022041842
  0
ARC
  5
32E
100
AcDbEntity
  8
0
100
AcDbCircle
 62
7
  6
CONTINUOUS
 10
11.0473183383
 20
11.30147457
 40
0.4115
100
AcDbArc
 50
170.6977958154
 51
173.3022041842
  0
ARC
  5
32F
100
AcDbEntity
  8
0
100
AcDbCircle
 62
7
  6
CONTINUOUS
 10
11.0473183383
 20
11.30147457
 40
0.4115
100
AcDbArc
 50
162.6977958154
 51
165.3022041842
  0
ARC
  5
330
100
AcDbEntity
  8
0
100
AcDbCircle
 62
7
  6
CONTINUOUS
 10
11.0473183383
 20
11.30147457
 40
0.4115
100
AcDbArc
 50
154.6977958154
 51
157.3022041842
  0
ARC
  5
331
100
AcDbEntity
  8
0
100
AcDbCircle
 62
7
  6
CONTINUOUS
 10
11.0473183383
 20
11.30147457
 40
0.4115
100
AcDbArc
 50
146.6977958154
 51
149.3022041842
  0
ARC
  5
332
100
AcDbEntity
  8
0
100
AcDbCircle
 62
7
  6
CONTINUOUS
 10
11.0473183383
 20
11.30147457
 40
0.4115
100
AcDbArc
 50
138.6977958154
 51
141.3022041842
  0
ARC
  5
333
100
AcDbEntity
  8
0
100
AcDbCircle
 62
7
  6
CONTINUOUS
 10
11.0473183383
 20
11.30147457
 40
0.4115
100
AcDbArc
 50
130.6977958154
 51
133.3022041842
  0
ARC
  5
334
100
AcDbEntity
  8
0
100
AcDbCircle
 62
7
  6
CONTINUOUS
 10
11.0473183383
 20
11.30147457
 40
0.4115
100
AcDbArc
 50
122.6977958154
 51
125.3022041842
  0
ARC
  5
335
100
AcDbEntity
  8
0
100
AcDbCircle
 62
7
  6
CONTINUOUS
 10
11.0473183383
 20
11.30147457
 40
0.4115
100
AcDbArc
 50
114.6977958154
 51
117.3022041842
  0
ARC
  5
336
100
AcDbEntity
  8
0
100
AcDbCircle
 62
7
  6
CONTINUOUS
 10
11.0473183383
 20
11.30147457
 40
0.4115
100
AcDbArc
 50
106.6977958154
 51
109.3022041842
  0
ARC
  5
337
100
AcDbEntity
  8
0
100
AcDbCircle
 62
7
  6
CONTINUOUS
 10
11.0473183383
 20
11.30147457
 40
0.4115
100
AcDbArc
 50
98.6977958116
 51
101.3022041842
  0
ARC
  5
338
100
AcDbEntity
  8
0
100
AcDbCircle
 62
7
  6
CONTINUOUS
 10
11.0473183383
 20
11.30147457
 40
0.4115
100
AcDbArc
 50
90.6977958154
 51
93.3022041842
  0
ARC
  5
339
100
AcDbEntity
  8
0
100
AcDbCircle
 62
7
  6
CONTINUOUS
 10
11.0473183383
 20
11.30147457
 40
0.4115
100
AcDbArc
 50
82.6977958134
 51
85.3022041842
  0
ARC
  5
33A
100
AcDbEntity
  8
0
100
AcDbCircle
 62
7
  6
CONTINUOUS
 10
11.0473183383
 20
11.30147457
 40
0.4115
100
AcDbArc
 50
74.6977958154
 51
77.3022041842
  0
ARC
  5
33B
100
AcDbEntity
  8
0
100
AcDbCircle
 62
7
  6
CONTINUOUS
 10
11.0473183383
 20
11.30147457
 40
0.4115
100
AcDbArc
 50
66.6977958121
 51
69.3022041842
  0
ARC
  5
33C
100
AcDbEntity
  8
0
100
AcDbCircle
 62
7
  6
CONTINUOUS
 10
11.0473183383
 20
11.30147457
 40
0.4115
100
AcDbArc
 50
58.6977958154
 51
61.3022041842
  0
ARC
  5
33D
100
AcDbEntity
  8
0
100
AcDbCircle
 62
7
  6
CONTINUOUS
 10
11.0473183383
 20
11.30147457
 40
0.4115
100
AcDbArc
 50
50.6977958152
 51
53.3022041842
  0
ARC
  5
33E
100
AcDbEntity
  8
0
100
AcDbCircle
 62
7
  6
CONTINUOUS
 10
11.0473183383
 20
11.30147457
 40
0.4115
100
AcDbArc
 50
42.6977958154
 51
45.3022041842
  0
ARC
  5
33F
100
AcDbEntity
  8
0
100
AcDbCircle
 62
7
  6
CONTINUOUS
 10
11.0473183383
 20
11.30147457
 40
0.4115
100
AcDbArc
 50
34.6977958154
 51
37.3022041842
  0
ARC
  5
340
100
AcDbEntity
  8
0
100
AcDbCircle
 62
7
  6
CONTINUOUS
 10
11.0473183383
 20
11.30147457
 40
0.4115
100
AcDbArc
 50
26.6977958154
 51
29.3022041842
  0
ARC
  5
341
100
AcDbEntity
  8
0
100
AcDbCircle
 62
7
  6
CONTINUOUS
 10
11.0473183383
 20
11.30147457
 40
0.4115
100
AcDbArc
 50
18.6977958153
 51
21.3022041842
  0
ARC
  5
342
100
AcDbEntity
  8
0
100
AcDbCircle
 62
7
  6
CONTINUOUS
 10
11.0473183383
 20
11.30147457
 40
0.4115
100
AcDbArc
 50
10.6977958154
 51
13.3022041842
  0
CIRCLE
  5
343
100
AcDbEntity
  8
0
100
AcDbCircle
 62
9
  6
CONTINUOUS
 10
11.0473183383
 20
11.30147457
 40
0.3815000002
  0
CIRCLE
  5
344
100
AcDbEntity
  8
0
100
AcDbCircle
 62
7
  6
CONTINUOUS
 10
11.0473183383
 20
11.30147457
 40
0.3531288717
  0
ARC
  5
345
100
AcDbEntity
  8
0
100
AcDbCircle
 62
7
  6
CONTINUOUS
 10
11.1356061369
 20
11.6933087136
 40
0.0098425197
100
AcDbArc
 50
77.3022041774
 51
125.0
  0
ARC
  5
346
100
AcDbEntity
  8
0
100
AcDbCircle
 62
7
  6
CONTINUOUS
 10
11.0983701154
 20
11.6998744289
 40
0.0098425197
100
AcDbArc
 50
35.0000000002
 51
82.6977958226
  0
ARC
  5
347
100
AcDbEntity
  8
0
100
AcDbCircle
 62
7
  6
CONTINUOUS
 10
11.0802141533
 20
11.7017826974
 40
0.0098425197
100
AcDbArc
 50
85.3022041774
 51
132.9999999999
  0
ARC
  5
348
100
AcDbEntity
  8
0
100
AcDbCircle
 62
7
  6
CONTINUOUS
 10
11.2401901446
 20
11.6537943081
 40
0.0098425197
100
AcDbArc
 50
61.3022041774
 51
108.9999999998
  0
ARC
  5
349
100
AcDbEntity
  8
0
100
AcDbCircle
 62
7
  6
CONTINUOUS
 10
11.2062063397
 20
11.6703693172
 40
0.0098425197
100
AcDbArc
 50
18.9999999998
 51
66.6977958226
  0
ARC
  5
34A
100
AcDbEntity
  8
0
100
AcDbCircle
 62
7
  6
CONTINUOUS
 10
11.189279699
 20
11.677208124
 40
0.0098425197
100
AcDbArc
 50
69.3022041774
 51
117.0000000001
  0
ARC
  5
34B
100
AcDbEntity
  8
0
100
AcDbCircle
 62
7
  6
CONTINUOUS
 10
11.1533198267
 20
11.6888921947
 40
0.0098425197
100
AcDbArc
 50
26.9999999997
 51
74.6977958226
  0
ARC
  5
34C
100
AcDbEntity
  8
0
100
AcDbCircle
 62
7
  6
CONTINUOUS
 10
11.2560002785
 20
10.9582828171
 40
0.0098425197
100
AcDbArc
 50
301.3022041774
 51
349.0000000004
  0
ARC
  5
34D
100
AcDbEntity
  8
0
100
AcDbCircle
 62
7
  6
CONTINUOUS
 10
11.2873465599
 20
10.9794261508
 40
0.0098425197
100
AcDbArc
 50
259.0000000001
 51
306.6977958226
  0
ARC
  5
34E
100
AcDbEntity
  8
0
100
AcDbCircle
 62
7
  6
CONTINUOUS
 10
11.3017324607
 20
10.9906656483
 40
0.0098425197
100
AcDbArc
 50
309.3022041774
 51
357.0000000001
  0
ARC
  5
34F
100
AcDbEntity
  8
0
100
AcDbCircle
 62
7
  6
CONTINUOUS
 10
11.3298310989
 20
11.0159657758
 40
0.0098425197
100
AcDbArc
 50
267.0
 51
314.6977958226
  0
ARC
  5
350
100
AcDbEntity
  8
0
100
AcDbCircle
 62
7
  6
CONTINUOUS
 10
11.3425127614
 20
11.0290980218
 40
0.0098425197
100
AcDbArc
 50
317.3022041774
 51
4.9999999998
  0
ARC
  5
351
100
AcDbEntity
  8
0
100
AcDbCircle
 62
7
  6
CONTINUOUS
 10
11.3668168484
 20
11.0580625047
 40
0.0098425197
100
AcDbArc
 50
274.9999999999
 51
322.6977958226
  0
ARC
  5
352
100
AcDbEntity
  8
0
100
AcDbCircle
 62
7
  6
CONTINUOUS
 10
11.3775474384
 20
11.0728318948
 40
0.0098425197
100
AcDbArc
 50
325.3022041774
 51
13.0000000002
  0
ARC
  5
353
100
AcDbEntity
  8
0
100
AcDbCircle
 62
7
  6
CONTINUOUS
 10
11.3975839228
 20
11.1048969726
 40
0.0098425197
100
AcDbArc
 50
282.9999999998
 51
330.6977958226
  0
ARC
  5
354
100
AcDbEntity
  8
0
100
AcDbCircle
 62
7
  6
CONTINUOUS
 10
11.4472571841
 20
11.2643578469
 40
0.0098425197
100
AcDbArc
 50
307.0000000002
 51
354.6977958226
  0
ARC
  5
355
100
AcDbEntity
  8
0
100
AcDbCircle
 62
7
  6
CONTINUOUS
 10
11.4061545816
 20
11.1210160375
 40
0.0098425197
100
AcDbArc
 50
333.3022041774
 51
20.9999999994
  0
ARC
  5
356
100
AcDbEntity
  8
0
100
AcDbCircle
 62
7
  6
CONTINUOUS
 10
11.421533476
 20
11.1555575999
 40
0.0098425197
100
AcDbArc
 50
291.0000000004
 51
338.6977958226
  0
ARC
  5
357
100
AcDbEntity
  8
0
100
AcDbCircle
 62
7
  6
CONTINUOUS
 10
11.4277773855
 20
11.1727126003
 40
0.0098425197
100
AcDbArc
 50
341.3022041775
 51
29.0000000003
  0
ARC
  5
358
100
AcDbEntity
  8
0
100
AcDbCircle
 62
7
  6
CONTINUOUS
 10
11.4381993572
 20
11.2090583349
 40
0.0098425197
100
AcDbArc
 50
298.9999999996
 51
346.6977958226
  0
ARC
  5
359
100
AcDbEntity
  8
0
100
AcDbCircle
 62
7
  6
CONTINUOUS
 10
11.4419949869
 20
11.2269153683
 40
0.0098425197
100
AcDbArc
 50
349.3022041774
 51
37.0000000001
  0
ARC
  5
35A
100
AcDbEntity
  8
0
100
AcDbCircle
 62
7
  6
CONTINUOUS
 10
11.4485306562
 20
11.2825693464
 40
0.0098425197
100
AcDbArc
 50
357.3022041774
 51
45.0000000001
  0
ARC
  5
35B
100
AcDbEntity
  8
0
100
AcDbCircle
 62
7
  6
CONTINUOUS
 10
11.3425127614
 20
11.5738511183
 40
0.0098425197
100
AcDbArc
 50
355.0000000001
 51
42.6977958226
  0
ARC
  5
35C
100
AcDbEntity
  8
0
100
AcDbCircle
 62
7
  6
CONTINUOUS
 10
11.3298310989
 20
11.5869833642
 40
0.0098425197
100
AcDbArc
 50
45.3022041774
 51
92.9999999999
  0
ARC
  5
35D
100
AcDbEntity
  8
0
100
AcDbCircle
 62
7
  6
CONTINUOUS
 10
11.3017324607
 20
11.6122834917
 40
0.0098425197
100
AcDbArc
 50
2.9999999995
 51
50.6977958226
  0
ARC
  5
35E
100
AcDbEntity
  8
0
100
AcDbCircle
 62
7
  6
CONTINUOUS
 10
11.2873465599
 20
11.6235229892
 40
0.0098425197
100
AcDbArc
 50
53.3022041774
 51
101.0000000002
  0
ARC
  5
35F
100
AcDbEntity
  8
0
100
AcDbCircle
 62
7
  6
CONTINUOUS
 10
11.2560002785
 20
11.644666323
 40
0.0098425197
100
AcDbArc
 50
10.9999999999
 51
58.6977958226
  0
ARC
  5
360
100
AcDbEntity
  8
0
100
AcDbCircle
 62
7
  6
CONTINUOUS
 10
11.4485306562
 20
11.3203797936
 40
0.0098425197
100
AcDbArc
 50
315.0000000001
 51
2.6977958226
  0
ARC
  5
361
100
AcDbEntity
  8
0
100
AcDbCircle
 62
7
  6
CONTINUOUS
 10
11.4472571841
 20
11.3385912932
 40
0.0098425197
100
AcDbArc
 50
5.3022041774
 51
52.9999999999
  0
ARC
  5
362
100
AcDbEntity
  8
0
100
AcDbCircle
 62
7
  6
CONTINUOUS
 10
11.4419949869
 20
11.3760337717
 40
0.0098425197
100
AcDbArc
 50
323.0000000002
 51
10.6977958226
  0
ARC
  5
363
100
AcDbEntity
  8
0
100
AcDbCircle
 62
7
  6
CONTINUOUS
 10
11.4381993572
 20
11.3938908051
 40
0.0098425197
100
AcDbArc
 50
13.3022041774
 51
60.9999999999
  0
ARC
  5
364
100
AcDbEntity
  8
0
100
AcDbCircle
 62
7
  6
CONTINUOUS
 10
11.4277773855
 20
11.4302365398
 40
0.0098425197
100
AcDbArc
 50
330.9999999997
 51
18.6977958226
  0
ARC
  5
365
100
AcDbEntity
  8
0
100
AcDbCircle
 62
7
  6
CONTINUOUS
 10
11.421533476
 20
11.4473915402
 40
0.0098425197
100
AcDbArc
 50
21.3022041774
 51
68.9999999998
  0
ARC
  5
366
100
AcDbEntity
  8
0
100
AcDbCircle
 62
7
  6
CONTINUOUS
 10
11.4061545816
 20
11.4819331025
 40
0.0098425197
100
AcDbArc
 50
339.0000000003
 51
26.6977958226
  0
ARC
  5
367
100
AcDbEntity
  8
0
100
AcDbCircle
 62
7
  6
CONTINUOUS
 10
11.3975839228
 20
11.4980521674
 40
0.0098425197
100
AcDbArc
 50
29.3022041774
 51
76.9999999998
  0
ARC
  5
368
100
AcDbEntity
  8
0
100
AcDbCircle
 62
7
  6
CONTINUOUS
 10
11.3775474384
 20
11.5301172452
 40
0.0098425197
100
AcDbArc
 50
347.0000000002
 51
34.6977958225
  0
ARC
  5
369
100
AcDbEntity
  8
0
100
AcDbCircle
 62
7
  6
CONTINUOUS
 10
11.3668168484
 20
11.5448866353
 40
0.0098425197
100
AcDbArc
 50
37.3022041774
 51
84.9999999996
  0
ARC
  5
36A
100
AcDbEntity
  8
0
100
AcDbCircle
 62
7
  6
CONTINUOUS
 10
15.0473183383
 20
9.95147457
 40
1.055
100
AcDbArc
 50
11.1759208464
 51
348.8240791536
  0
ARC
  5
36B
100
AcDbEntity
  8
0
100
AcDbCircle
 62
9
  6
CONTINUOUS
 10
15.0473183383
 20
9.95147457
 40
0.885
100
AcDbArc
 50
13.360042202
 51
346.6403467337
  0
ARC
  5
36C
100
AcDbEntity
  8
0
100
AcDbCircle
 62
7
  6
CONTINUOUS
 10
15.0473183383
 20
9.95147457
 40
0.85
100
AcDbArc
 50
16.054834363
 51
343.945165637
  0
ARC
  5
36D
100
AcDbEntity
  8
0
100
AcDbCircle
 62
7
  6
CONTINUOUS
 10
15.0473183383
 20
9.95147457
 40
0.6966258748
100
AcDbArc
 50
15.8480253863
 51
344.1519746137
  0
ARC
  5
36E
100
AcDbEntity
  8
0
100
AcDbCircle
 62
7
  6
CONTINUOUS
 10
15.0473183383
 20
9.95147457
 40
0.665
100
AcDbArc
 50
16.6323775205
 51
343.3712510209
  0
ARC
  5
36F
100
AcDbEntity
  8
0
100
AcDbCircle
 62
9
  6
CONTINUOUS
 10
15.0473183383
 20
9.95147457
 40
0.5899999734
100
AcDbArc
 50
18.7954494509
 51
341.1932922686
  0
ARC
  5
370
100
AcDbEntity
  8
0
100
AcDbCircle
 62
7
  6
CONTINUOUS
 10
15.0473183383
 20
9.95147457
 40
0.56
100
AcDbArc
 50
19.8799423916
 51
340.1325987074
  0
ARC
  5
371
100
AcDbEntity
  8
0
100
AcDbCircle
 62
9
  6
CONTINUOUS
 10
15.0473183383
 20
9.95147457
 40
0.5414224068
100
AcDbArc
 50
20.591431213
 51
339.4241750033
  0
CIRCLE
  5
372
100
AcDbEntity
  8
0
100
AcDbCircle
 62
7
  6
CONTINUOUS
 10
15.0473183383
 20
9.95147457
 40
0.3908427883
  0
CIRCLE
  5
373
100
AcDbEntity
  8
0
100
AcDbCircle
 62
7
  6
CONTINUOUS
 10
15.0473183383
 20
9.95147457
 40
0.357
  0
CIRCLE
  5
374
100
AcDbEntity
  8
0
100
AcDbCircle
 62
9
  6
CONTINUOUS
 10
15.0473183383
 20
9.95147457
 40
0.3469999946
  0
CIRCLE
  5
375
100
AcDbEntity
  8
0
100
AcDbCircle
 62
7
  6
CONTINUOUS
 10
15.0473183383
 20
9.95147457
 40
0.3
  0
CIRCLE
  5
376
100
AcDbEntity
  8
0
100
AcDbCircle
 62
9
  6
CONTINUOUS
 10
15.0473183383
 20
9.95147457
 40
0.2944615386
  0
ARC
  5
377
100
AcDbEntity
  8
0
100
AcDbCircle
 62
7
  6
CONTINUOUS
 10
15.8673183383
 20
9.73647457
 40
0.02
100
AcDbArc
 50
270.0
 51
360.0
  0
ARC
  5
378
100
AcDbEntity
  8
0
100
AcDbCircle
 62
7
  6
CONTINUOUS
 10
15.8273183383
 20
9.73647457
 40
0.02
100
AcDbArc
 50
180.0
 51
270.0
  0
ARC
  5
379
100
AcDbEntity
  8
0
100
AcDbCircle
 62
7
  6
CONTINUOUS
 10
15.8673183383
 20
10.16647457
 40
0.02
100
AcDbArc
 50
0.0
 51
90.0
  0
ARC
  5
37A
100
AcDbEntity
  8
0
100
AcDbCircle
 62
7
  6
CONTINUOUS
 10
15.8273183383
 20
10.16647457
 40
0.02
100
AcDbArc
 50
90.0
 51
180.0
  0
ARC
  5
37B
100
AcDbEntity
  8
0
100
AcDbCircle
 62
7
  6
CONTINUOUS
 10
17.5576396608
 20
8.5464979918
 40
1.79
100
AcDbArc
 50
89.0179637957
 51
100.96
  0
ARC
  5
37C
100
AcDbEntity
  8
0
100
AcDbCircle
 62
7
  6
CONTINUOUS
 10
17.6034975626
 20
9.4613667448
 40
0.875
100
AcDbArc
 50
57.5324797721
 51
90.9939989936
  0
ARC
  5
37D
100
AcDbEntity
  8
0
100
AcDbCircle
 62
7
  6
CONTINUOUS
 10
17.6034975626
 20
10.4415823953
 40
0.875
100
AcDbArc
 50
269.0060010064
 51
302.4675202279
  0
ARC
  5
37E
100
AcDbEntity
  8
0
100
AcDbCircle
 62
7
  6
CONTINUOUS
 10
17.7023183383
 20
9.95147457
 40
0.495
100
AcDbArc
 50
336.80823049
 51
23.19176951
  0
ARC
  5
37F
100
AcDbEntity
  8
0
100
AcDbCircle
 62
7
  6
CONTINUOUS
 10
18.0839527346
 20
9.68647457
 40
0.02
100
AcDbArc
 50
90.0
 51
122.4675202268
  0
ARC
  5
380
100
AcDbEntity
  8
0
100
AcDbCircle
 62
7
  6
CONTINUOUS
 10
18.0839527346
 20
10.21647457
 40
0.02
100
AcDbArc
 50
237.5324797732
 51
270.0
  0
ARC
  5
381
100
AcDbEntity
  8
0
100
AcDbCircle
 62
7
  6
CONTINUOUS
 10
18.1373183383
 20
10.17647457
 40
0.02
100
AcDbArc
 50
0.0
 51
90.0
  0
ARC
  5
382
100
AcDbEntity
  8
0
100
AcDbCircle
 62
7
  6
CONTINUOUS
 10
18.1373183383
 20
9.72647457
 40
0.02
100
AcDbArc
 50
270.0
 51
360.0
  0
ARC
  5
383
100
AcDbEntity
  8
0
100
AcDbCircle
 62
7
  6
CONTINUOUS
 10
16.1873183383
 20
12.90547457
 40
2.75
100
AcDbArc
 50
270.0
 51
280.96
  0
ARC
  5
384
100
AcDbEntity
  8
0
100
AcDbCircle
 62
7
  6
CONTINUOUS
 10
17.5576396608
 20
11.3564511483
 40
1.79
100
AcDbArc
 50
259.04
 51
270.9820362043
  0
SPLINE
  5
385
100
AcDbEntity
  8
0
100
AcDbSpline
 62
9
  6
CONTINUOUS
 70
0
 71
3
 72
18
 73
14
 74
0
 42
0.0000001
 43
0.0000001
 44
0.0000000001
 40
0.0
 40
0.0
 40
0.0
 40
0.0
 40
0.0695542283
 40
0.1388496621
 40
0.2075921968
 40
0.2754942147
 40
0.34239941
 40
0.408207778
 40
0.4728014374
 40
0.5361263424
 40
0.65901994
 40
0.7770559957
 40
1.0
 40
1.0
 40
1.0
 40
1.0
 10
6.6364324234
 20
9.9514745701
 30
0.0
 10
6.6364327292
 20
9.9490984552
 30
0.0
 10
6.6365506254
 20
9.9443543029
 30
0.0
 10
6.6370664231
 20
9.9372788037
 30
0.0
 10
6.6379073664
 20
9.9302912474
 30
0.0
 10
6.6390631801
 20
9.9234317446
 30
0.0
 10
6.6405104898
 20
9.9167305204
 30
0.0
 10
6.6422208728
 20
9.9102086011
 30
0.0
 10
6.6441689267
 20
9.9038816168
 30
0.0
 10
6.6470218316
 20
9.8958003007
 30
0.0
 10
6.6510459279
 20
9.8862049612
 30
0.0
 10
6.6581934732
 20
9.8720516907
 30
0.0
 10
6.6644209643
 20
9.8621658745
 30
0.0
 10
6.6688295765
 20
9.8559553184
 30
0.0
  0
SPLINE
  5
386
100
AcDbEntity
  8
0
100
AcDbSpline
 62
9
  6
CONTINUOUS
 70
0
 71
3
 72
18
 73
14
 74
0
 42
0.0000001
 43
0.0000001
 44
0.0000000001
 40
0.0
 40
0.0
 40
0.0
 40
0.0
 40
0.2229443939
 40
0.3409806907
 40
0.4638748206
 40
0.5271997897
 40
0.5917931365
 40
0.6576009775
 40
0.7245059188
 40
0.792408455
 40
0.8611520984
 40
0.9304478237
 40
1.0
 40
1.0
 40
1.0
 40
1.0
 10
6.6688293056
 20
10.0469934685
 30
0.0
 10
6.6644207086
 20
10.040782925
 30
0.0
 10
6.6581932477
 20
10.030897122
 30
0.0
 10
6.6510457495
 20
10.016743858
 30
0.0
 10
6.647021705
 20
10.0071485134
 30
0.0
 10
6.6441688328
 20
9.9990672144
 30
0.0
 10
6.6422208011
 20
9.9927402805
 30
0.0
 10
6.6405104355
 20
9.9862184249
 30
0.0
 10
6.6390631384
 20
9.9795172368
 30
0.0
 10
6.6379073315
 20
9.9726577152
 30
0.0
 10
6.6370663868
 20
9.9656701234
 30
0.0
 10
6.6365505846
 20
9.9585946772
 30
0.0
 10
6.6364326914
 20
9.9538506047
 30
0.0
 10
6.6364323968
 20
9.95147457
 30
0.0
  0
SPLINE
  5
387
100
AcDbEntity
  8
0
100
AcDbSpline
 62
9
  6
CONTINUOUS
 70
0
 71
3
 72
25
 73
21
 74
0
 42
0.0000001
 43
0.0000001
 44
0.0000000001
 40
0.0
 40
0.0
 40
0.0
 40
0.0
 40
0.0779036537
 40
0.1553602471
 40
0.231792177
 40
0.3067487061
 40
0.379802375
 40
0.4505420376
 40
0.5186185147
 40
0.5837481801
 40
0.6457323576
 40
0.7044646724
 40
0.7599621152
 40
0.8123767749
 40
0.8620193131
 40
0.9093709594
 40
0.9324020269
 40
0.9551151324
 40
0.9776123321
 40
1.0
 40
1.0
 40
1.0
 40
1.0
 10
6.506424537
 20
9.95147457
 30
0.0
 10
6.506424537
 20
9.9452663841
 30
0.0
 10
6.5060757248
 20
9.9328828276
 30
0.0
 10
6.5045156913
 20
9.9144676314
 30
0.0
 10
6.5019287915
 20
9.8964045832
 30
0.0
 10
6.4983424633
 20
9.878870723
 30
0.0
 10
6.4937912317
 20
9.8620306934
 30
0.0
 10
6.4883167468
 20
9.8460450205
 30
0.0
 10
6.4819723812
 20
9.8310659577
 30
0.0
 10
6.4748153329
 20
9.8172366443
 30
0.0
 10
6.4669148615
 20
9.804686752
 30
0.0
 10
6.4583401506
 20
9.7935372325
 30
0.0
 10
6.4491710982
 20
9.7838933198
 30
0.0
 10
6.4394869747
 20
9.7758506639
 30
0.0
 10
6.4293767257
 20
9.7694922551
 30
0.0
 10
6.4205856626
 20
9.7656195487
 30
0.0
 10
6.4134791691
 20
9.763465031
 30
0.0
 10
6.4081565711
 20
9.7623182244
 30
0.0
 10
6.4028078789
 20
9.761628447
 30
0.0
 10
6.3992290999
 20
9.76147457
 30
0.0
 10
6.3974450141
 20
9.76147457
 30
0.0
  0
SPLINE
  5
388
100
AcDbEntity
  8
0
100
AcDbSpline
 62
9
  6
CONTINUOUS
 70
0
 71
3
 72
25
 73
21
 74
0
 42
0.0000001
 43
0.0000001
 44
0.0000000001
 40
0.0
 40
0.0
 40
0.0
 40
0.0
 40
0.0223876679
 40
0.0448848676
 40
0.0675979731
 40
0.0906290406
 40
0.1379806869
 40
0.1876232251
 40
0.2400378848
 40
0.2955353276
 40
0.3542676424
 40
0.4162518199
 40
0.4813814853
 40
0.5494579624
 40
0.620197625
 40
0.6932512939
 40
0.768207823
 40
0.8446397529
 40
0.9220963463
 40
1.0
 40
1.0
 40
1.0
 40
1.0
 10
6.3974450141
 20
10.14147457
 30
0.0
 10
6.3992290999
 20
10.14147457
 30
0.0
 10
6.4028078789
 20
10.1413206931
 30
0.0
 10
6.4081565711
 20
10.1406309156
 30
0.0
 10
6.4134791691
 20
10.1394841091
 30
0.0
 10
6.4205856626
 20
10.1373295913
 30
0.0
 10
6.4293767257
 20
10.1334568849
 30
0.0
 10
6.4394869747
 20
10.1270984762
 30
0.0
 10
6.4491710982
 20
10.1190558203
 30
0.0
 10
6.4583401506
 20
10.1094119075
 30
0.0
 10
6.4669148615
 20
10.0982623881
 30
0.0
 10
6.4748153329
 20
10.0857124958
 30
0.0
 10
6.4819723812
 20
10.0718831824
 30
0.0
 10
6.4883167468
 20
10.0569041195
 30
0.0
 10
6.4937912317
 20
10.0409184467
 30
0.0
 10
6.4983424633
 20
10.0240784171
 30
0.0
 10
6.5019287915
 20
10.0065445568
 30
0.0
 10
6.5045156913
 20
9.9884815087
 30
0.0
 10
6.5060757248
 20
9.9700663124
 30
0.0
 10
6.506424537
 20
9.957682756
 30
0.0
 10
6.506424537
 20
9.95147457
 30
0.0
  0
SPLINE
  5
389
100
AcDbEntity
  8
0
100
AcDbSpline
 62
9
  6
CONTINUOUS
 70
0
 71
3
 72
18
 73
14
 74
0
 42
0.0000001
 43
0.0000001
 44
0.0000000001
 40
0.0
 40
0.0
 40
0.0
 40
0.0
 40
0.0695542283
 40
0.1388496621
 40
0.2075921968
 40
0.2754942147
 40
0.34239941
 40
0.408207778
 40
0.4728014374
 40
0.5361263424
 40
0.65901994
 40
0.7770559957
 40
1.0
 40
1.0
 40
1.0
 40
1.0
 10
15.4582042532
 20
9.9514745699
 30
0.0
 10
15.4582039474
 20
9.9538506849
 30
0.0
 10
15.4580860511
 20
9.9585948372
 30
0.0
 10
15.4575702535
 20
9.9656703364
 30
0.0
 10
15.4567293102
 20
9.9726578926
 30
0.0
 10
15.4555734965
 20
9.9795173954
 30
0.0
 10
15.4541261868
 20
9.9862186197
 30
0.0
 10
15.4524158038
 20
9.992740539
 30
0.0
 10
15.4504677499
 20
9.9990675233
 30
0.0
 10
15.447614845
 20
10.0071488393
 30
0.0
 10
15.4435907486
 20
10.0167441789
 30
0.0
 10
15.4364432034
 20
10.0308974493
 30
0.0
 10
15.4302157122
 20
10.0407832656
 30
0.0
 10
15.4258071001
 20
10.0469938217
 30
0.0
  0
SPLINE
  5
38A
100
AcDbEntity
  8
0
100
AcDbSpline
 62
9
  6
CONTINUOUS
 70
0
 71
3
 72
18
 73
14
 74
0
 42
0.0000001
 43
0.0000001
 44
0.0000000001
 40
0.0
 40
0.0
 40
0.0
 40
0.0
 40
0.2229443939
 40
0.3409806907
 40
0.4638748206
 40
0.5271997897
 40
0.5917931365
 40
0.6576009775
 40
0.7245059188
 40
0.792408455
 40
0.8611520984
 40
0.9304478237
 40
1.0
 40
1.0
 40
1.0
 40
1.0
 10
15.4258073709
 20
9.8559556715
 30
0.0
 10
15.430215968
 20
9.862166215
 30
0.0
 10
15.4364434289
 20
9.872052018
 30
0.0
 10
15.443590927
 20
9.8862052821
 30
0.0
 10
15.4476149716
 20
9.8958006266
 30
0.0
 10
15.4504678438
 20
9.9038819257
 30
0.0
 10
15.4524158754
 20
9.9102088595
 30
0.0
 10
15.454126241
 20
9.9167307151
 30
0.0
 10
15.4555735382
 20
9.9234319032
 30
0.0
 10
15.4567293451
 20
9.9302914248
 30
0.0
 10
15.4575702898
 20
9.9372790167
 30
0.0
 10
15.458086092
 20
9.9443544629
 30
0.0
 10
15.4582039851
 20
9.9490985354
 30
0.0
 10
15.4582042797
 20
9.9514745701
 30
0.0
  0
SPLINE
  5
38B
100
AcDbEntity
  8
0
100
AcDbSpline
 62
9
  6
CONTINUOUS
 70
0
 71
3
 72
25
 73
21
 74
0
 42
0.0000001
 43
0.0000001
 44
0.0000000001
 40
0.0
 40
0.0
 40
0.0
 40
0.0
 40
0.0779036537
 40
0.1553602471
 40
0.231792177
 40
0.3067487061
 40
0.379802375
 40
0.4505420376
 40
0.5186185147
 40
0.5837481801
 40
0.6457323576
 40
0.7044646724
 40
0.7599621152
 40
0.8123767749
 40
0.8620193131
 40
0.9093709594
 40
0.9324020269
 40
0.9551151324
 40
0.9776123321
 40
1.0
 40
1.0
 40
1.0
 40
1.0
 10
15.5882121396
 20
9.95147457
 30
0.0
 10
15.5882121396
 20
9.957682756
 30
0.0
 10
15.5885609518
 20
9.9700663124
 30
0.0
 10
15.5901209853
 20
9.9884815087
 30
0.0
 10
15.5927078851
 20
10.0065445568
 30
0.0
 10
15.5962942132
 20
10.0240784171
 30
0.0
 10
15.6008454448
 20
10.0409184467
 30
0.0
 10
15.6063199297
 20
10.0569041195
 30
0.0
 10
15.6126642954
 20
10.0718831824
 30
0.0
 10
15.6198213437
 20
10.0857124958
 30
0.0
 10
15.6277218151
 20
10.0982623881
 30
0.0
 10
15.636296526
 20
10.1094119075
 30
0.0
 10
15.6454655784
 20
10.1190558203
 30
0.0
 10
15.6551497018
 20
10.1270984762
 30
0.0
 10
15.6652599509
 20
10.1334568849
 30
0.0
 10
15.6740510139
 20
10.1373295913
 30
0.0
 10
15.6811575075
 20
10.1394841091
 30
0.0
 10
15.6864801055
 20
10.1406309156
 30
0.0
 10
15.6918287977
 20
10.1413206931
 30
0.0
 10
15.6954075767
 20
10.14147457
 30
0.0
 10
15.6971916625
 20
10.14147457
 30
0.0
  0
SPLINE
  5
38C
100
AcDbEntity
  8
0
100
AcDbSpline
 62
9
  6
CONTINUOUS
 70
0
 71
3
 72
25
 73
21
 74
0
 42
0.0000001
 43
0.0000001
 44
0.0000000001
 40
0.0
 40
0.0
 40
0.0
 40
0.0
 40
0.0223876679
 40
0.0448848676
 40
0.0675979731
 40
0.0906290406
 40
0.1379806869
 40
0.1876232251
 40
0.2400378848
 40
0.2955353276
 40
0.3542676424
 40
0.4162518199
 40
0.4813814853
 40
0.5494579624
 40
0.620197625
 40
0.6932512939
 40
0.768207823
 40
0.8446397529
 40
0.9220963463
 40
1.0
 40
1.0
 40
1.0
 40
1.0
 10
15.6971916625
 20
9.76147457
 30
0.0
 10
15.6954075767
 20
9.76147457
 30
0.0
 10
15.6918287977
 20
9.761628447
 30
0.0
 10
15.6864801055
 20
9.7623182244
 30
0.0
 10
15.6811575075
 20
9.763465031
 30
0.0
 10
15.6740510139
 20
9.7656195487
 30
0.0
 10
15.6652599509
 20
9.7694922551
 30
0.0
 10
15.6551497018
 20
9.7758506639
 30
0.0
 10
15.6454655784
 20
9.7838933198
 30
0.0
 10
15.636296526
 20
9.7935372325
 30
0.0
 10
15.6277218151
 20
9.804686752
 30
0.0
 10
15.6198213437
 20
9.8172366443
 30
0.0
 10
15.6126642954
 20
9.8310659577
 30
0.0
 10
15.6063199297
 20
9.8460450205
 30
0.0
 10
15.6008454448
 20
9.8620306934
 30
0.0
 10
15.5962942132
 20
9.878870723
 30
0.0
 10
15.5927078851
 20
9.8964045832
 30
0.0
 10
15.5901209853
 20
9.9144676314
 30
0.0
 10
15.5885609518
 20
9.9328828276
 30
0.0
 10
15.5882121396
 20
9.9452663841
 30
0.0
 10
15.5882121396
 20
9.95147457
 30
0.0
  0
LINE
  5
38D
100
AcDbEntity
  8
0
100
AcDbLine
 62
9
  6
CONTINUOUS
 10
11.2611139792
 20
11.6530761541
 11
11.2613221241
 21
11.61874823
  0
LINE
  5
38E
100
AcDbEntity
  8
0
100
AcDbLine
 62
9
  6
CONTINUOUS
 10
11.2613221241
 20
11.61874823
 11
11.2932283936
 21
11.6314147081
  0
LINE
  5
38F
100
AcDbEntity
  8
0
100
AcDbLine
 62
9
  6
CONTINUOUS
 10
11.3079668175
 20
11.6198997893
 11
11.3033954131
 21
11.5858769741
  0
LINE
  5
390
100
AcDbEntity
  8
0
100
AcDbLine
 62
9
  6
CONTINUOUS
 10
11.3033954131
 20
11.5858769741
 11
11.3367540059
 21
11.5939796884
  0
LINE
  5
391
100
AcDbEntity
  8
0
100
AcDbLine
 62
9
  6
CONTINUOUS
 10
11.1377696081
 20
10.9000386252
 11
11.1332703044
 21
10.904587382
  0
LINE
  5
392
100
AcDbEntity
  8
0
100
AcDbLine
 62
9
  6
CONTINUOUS
 10
11.1332703044
 20
10.904587382
 11
11.1137737013
 21
10.9245874777
  0
LINE
  5
393
100
AcDbEntity
  8
0
100
AcDbLine
 62
9
  6
CONTINUOUS
 10
11.3497464296
 20
11.5805256399
 11
11.3404844531
 21
11.5474701488
  0
LINE
  5
394
100
AcDbEntity
  8
0
100
AcDbLine
 62
9
  6
CONTINUOUS
 10
11.3404844531
 20
11.5474701488
 11
11.3746460823
 21
11.5508513893
  0
LINE
  5
395
100
AcDbEntity
  8
0
100
AcDbLine
 62
9
  6
CONTINUOUS
 10
11.1137737013
 20
10.9245874777
 11
11.0996211269
 21
10.8933120187
  0
LINE
  5
396
100
AcDbEntity
  8
0
100
AcDbLine
 62
9
  6
CONTINUOUS
 10
11.3856396229
 20
11.5357200788
 11
11.3718673481
 21
11.5042752995
  0
LINE
  5
397
100
AcDbEntity
  8
0
100
AcDbLine
 62
9
  6
CONTINUOUS
 10
11.3718673481
 20
11.5042752995
 11
11.4061670964
 21
11.5028692541
  0
LINE
  5
398
100
AcDbEntity
  8
0
100
AcDbLine
 62
7
  6
CONTINUOUS
 10
10.8117039559
 20
10.9999019129
 11
10.803376935
 21
10.9892438121
  0
LINE
  5
399
100
AcDbEntity
  8
0
100
AcDbLine
 62
9
  6
CONTINUOUS
 10
11.4149477773
 20
11.4863551953
 11
11.4116226179
 21
11.4808890955
  0
LINE
  5
39A
100
AcDbEntity
  8
0
100
AcDbLine
 62
9
  6
CONTINUOUS
 10
11.4116226179
 20
11.4808890955
 11
11.3969332659
 21
11.4571331646
  0
LINE
  5
39B
100
AcDbEntity
  8
0
100
AcDbLine
 62
9
  6
CONTINUOUS
 10
11.3969332659
 20
11.4571331646
 11
11.4307035277
 21
11.4509672004
  0
LINE
  5
39C
100
AcDbEntity
  8
0
100
AcDbLine
 62
9
  6
CONTINUOUS
 10
11.4151943267
 20
11.1959878278
 11
11.4330577018
 21
11.1744921332
  0
LINE
  5
39D
100
AcDbEntity
  8
0
100
AcDbLine
 62
9
  6
CONTINUOUS
 10
11.4330577018
 20
11.1744921332
 11
11.4371004428
 21
11.1695573193
  0
LINE
  5
39E
100
AcDbEntity
  8
0
100
AcDbLine
 62
9
  6
CONTINUOUS
 10
11.4371004428
 20
11.4333918207
 11
11.4330468928
 21
11.4284417395
  0
LINE
  5
39F
100
AcDbEntity
  8
0
100
AcDbLine
 62
9
  6
CONTINUOUS
 10
11.4330468928
 20
11.4284417395
 11
11.4151943267
 21
11.4069613122
  0
LINE
  5
3A0
100
AcDbEntity
  8
0
100
AcDbLine
 62
9
  6
CONTINUOUS
 10
11.4151943267
 20
11.4069613122
 11
11.4477778023
 21
11.3961554427
  0
LINE
  5
3A1
100
AcDbEntity
  8
0
100
AcDbLine
 62
9
  6
CONTINUOUS
 10
11.0810202573
 20
10.8913569885
 11
11.060674417
 21
10.919006518
  0
LINE
  5
3A2
100
AcDbEntity
  8
0
100
AcDbLine
 62
9
  6
CONTINUOUS
 10
11.060674417
 20
10.919006518
 11
11.0423068718
 21
10.8900050873
  0
LINE
  5
3A3
100
AcDbEntity
  8
0
100
AcDbLine
 62
7
  6
CONTINUOUS
 10
10.7377065677
 20
11.5264206886
 11
10.7267643507
 21
11.5343706745
  0
LINE
  5
3A4
100
AcDbEntity
  8
0
100
AcDbLine
 62
7
  6
CONTINUOUS
 10
11.3969332767
 20
11.1458159706
 11
11.409289275
 21
11.1403147258
  0
LINE
  5
3A5
100
AcDbEntity
  8
0
100
AcDbLine
 62
7
  6
CONTINUOUS
 10
11.1137737013
 20
10.9245874777
 11
11.1161223513
 21
10.9112676221
  0
LINE
  5
3A6
100
AcDbEntity
  8
0
100
AcDbLine
 62
7
  6
CONTINUOUS
 10
10.6876968493
 20
11.1705830524
 11
10.6749872021
 21
11.1659571192
  0
LINE
  5
3A7
100
AcDbEntity
  8
0
100
AcDbLine
 62
7
  6
CONTINUOUS
 10
11.4151943381
 20
11.4069613155
 11
11.428195714
 21
11.4106894001
  0
LINE
  5
3A8
100
AcDbEntity
  8
0
100
AcDbLine
 62
9
  6
CONTINUOUS
 10
11.0236149369
 20
10.8906578241
 11
11.0073151717
 21
10.9208698639
  0
LINE
  5
3A9
100
AcDbEntity
  8
0
100
AcDbLine
 62
9
  6
CONTINUOUS
 10
11.0073151717
 20
10.9208698639
 11
10.989782223
 21
10.9001657987
  0
LINE
  5
3AA
100
AcDbEntity
  8
0
100
AcDbLine
 62
9
  6
CONTINUOUS
 10
10.989782223
 20
10.9001657987
 11
10.9850901592
 21
10.8947069414
  0
LINE
  5
3AB
100
AcDbEntity
  8
0
100
AcDbLine
 62
9
  6
CONTINUOUS
 10
11.4307035277
 20
11.1519819396
 11
11.3969332659
 21
11.1458159755
  0
LINE
  5
3AC
100
AcDbEntity
  8
0
100
AcDbLine
 62
9
  6
CONTINUOUS
 10
10.9666709763
 20
10.8979547403
 11
10.9547345426
 21
10.9301412475
  0
LINE
  5
3AD
100
AcDbEntity
  8
0
100
AcDbLine
 62
9
  6
CONTINUOUS
 10
10.9547345426
 20
10.9301412475
 11
10.9338754614
 21
10.9115385869
  0
LINE
  5
3AE
100
AcDbEntity
  8
0
100
AcDbLine
 62
9
  6
CONTINUOUS
 10
10.9338754614
 20
10.9115385869
 11
10.9290846473
 21
10.9073260646
  0
LINE
  5
3AF
100
AcDbEntity
  8
0
100
AcDbLine
 62
9
  6
CONTINUOUS
 10
11.3969332659
 20
11.1458159755
 11
11.4116311688
 21
11.1220434724
  0
LINE
  5
3B0
100
AcDbEntity
  8
0
100
AcDbLine
 62
9
  6
CONTINUOUS
 10
11.4116311688
 20
11.1220434724
 11
11.4149477773
 21
11.1165939448
  0
LINE
  5
3B1
100
AcDbEntity
  8
0
100
AcDbLine
 62
7
  6
CONTINUOUS
 10
10.8559677407
 20
10.970045613
 11
10.8492050787
 21
10.9583323388
  0
LINE
  5
3B2
100
AcDbEntity
  8
0
100
AcDbLine
 62
9
  6
CONTINUOUS
 10
10.9112967249
 20
10.913105711
 11
10.9039559517
 21
10.9466402118
  0
LINE
  5
3B3
100
AcDbEntity
  8
0
100
AcDbLine
 62
7
  6
CONTINUOUS
 10
10.772026137
 20
11.5673211586
 11
10.7622968332
 21
11.5767166381
  0
LINE
  5
3B4
100
AcDbEntity
  8
0
100
AcDbLine
 62
9
  6
CONTINUOUS
 10
10.9039559517
 20
10.9466402118
 11
10.8807111516
 21
10.9311220535
  0
LINE
  5
3B5
100
AcDbEntity
  8
0
100
AcDbLine
 62
9
  6
CONTINUOUS
 10
10.8807111516
 20
10.9311220535
 11
10.8753804197
 21
10.9276168402
  0
LINE
  5
3B6
100
AcDbEntity
  8
0
100
AcDbLine
 62
7
  6
CONTINUOUS
 10
11.4151943381
 20
11.1959878245
 11
11.428195714
 21
11.19225974
  0
LINE
  5
3B7
100
AcDbEntity
  8
0
100
AcDbLine
 62
7
  6
CONTINUOUS
 10
11.3969332767
 20
11.4571331694
 11
11.409289275
 21
11.4626344143
  0
LINE
  5
3B8
100
AcDbEntity
  8
0
100
AcDbLine
 62
7
  6
CONTINUOUS
 10
11.1655795113
 20
10.9375041046
 11
11.1697590663
 21
10.9246407571
  0
LINE
  5
3B9
100
AcDbEntity
  8
0
100
AcDbLine
 62
9
  6
CONTINUOUS
 10
10.8585699795
 20
10.9358158397
 11
10.8559677467
 21
10.9700456233
  0
LINE
  5
3BA
100
AcDbEntity
  8
0
100
AcDbLine
 62
9
  6
CONTINUOUS
 10
10.8559677467
 20
10.9700456233
 11
10.8307891227
 21
10.9579131402
  0
LINE
  5
3BB
100
AcDbEntity
  8
0
100
AcDbLine
 62
9
  6
CONTINUOUS
 10
10.8307891227
 20
10.9579131402
 11
10.8250227681
 21
10.9551843312
  0
LINE
  5
3BC
100
AcDbEntity
  8
0
100
AcDbLine
 62
7
  6
CONTINUOUS
 10
10.7094132393
 20
11.1218072419
 11
10.697471087
 21
11.1154574869
  0
LINE
  5
3BD
100
AcDbEntity
  8
0
100
AcDbLine
 62
9
  6
CONTINUOUS
 10
11.4061670964
 20
11.100079886
 11
11.3718673481
 21
11.0986738406
  0
LINE
  5
3BE
100
AcDbEntity
  8
0
100
AcDbLine
 62
9
  6
CONTINUOUS
 10
10.8095170061
 20
10.9656430997
 11
10.8117039632
 21
10.9999019222
  0
LINE
  5
3BF
100
AcDbEntity
  8
0
100
AcDbLine
 62
7
  6
CONTINUOUS
 10
11.3718673582
 20
11.5042753058
 11
11.3833374834
 21
11.5114426355
  0
LINE
  5
3C0
100
AcDbEntity
  8
0
100
AcDbLine
 62
7
  6
CONTINUOUS
 10
11.4262951117
 20
11.248212858
 11
11.4396888081
 21
11.2463304967
  0
LINE
  5
3C1
100
AcDbEntity
  8
0
100
AcDbLine
 62
7
  6
CONTINUOUS
 10
10.665549384
 20
11.3281704559
 11
10.6520570071
 21
11.3291139348
  0
LINE
  5
3C2
100
AcDbEntity
  8
0
100
AcDbLine
 62
7
  6
CONTINUOUS
 10
10.9039559473
 20
10.9466402007
 11
10.8988892717
 21
10.9340997388
  0
LINE
  5
3C3
100
AcDbEntity
  8
0
100
AcDbLine
 62
9
  6
CONTINUOUS
 10
10.8117039632
 20
10.9999019222
 11
10.778991847
 21
10.9894919679
  0
LINE
  5
3C4
100
AcDbEntity
  8
0
100
AcDbLine
 62
7
  6
CONTINUOUS
 10
10.8117039559
 20
11.6030472272
 11
10.803376935
 21
11.6137053279
  0
LINE
  5
3C5
100
AcDbEntity
  8
0
100
AcDbLine
 62
7
  6
CONTINUOUS
 10
11.2150834964
 20
10.9575050218
 11
11.2210126118
 21
10.9453485337
  0
LINE
  5
3C6
100
AcDbEntity
  8
0
100
AcDbLine
 62
9
  6
CONTINUOUS
 10
11.3718673481
 20
11.0986738406
 11
11.3856396229
 21
11.0672290613
  0
LINE
  5
3C7
100
AcDbEntity
  8
0
100
AcDbLine
 62
9
  6
CONTINUOUS
 10
10.7650925652
 20
11.0020069373
 11
10.7720261455
 21
11.0356279897
  0
LINE
  5
3C8
100
AcDbEntity
  8
0
100
AcDbLine
 62
9
  6
CONTINUOUS
 10
10.7720261455
 20
11.0356279897
 11
10.7381835957
 21
11.029871991
  0
LINE
  5
3C9
100
AcDbEntity
  8
0
100
AcDbLine
 62
9
  6
CONTINUOUS
 10
11.4300195215
 20
11.30147457
 11
11.4583622672
 21
11.2821060785
  0
LINE
  5
3CA
100
AcDbEntity
  8
0
100
AcDbLine
 62
7
  6
CONTINUOUS
 10
11.3404844622
 20
11.5474701565
 11
11.3508454614
 21
11.5561640671
  0
LINE
  5
3CB
100
AcDbEntity
  8
0
100
AcDbLine
 62
7
  6
CONTINUOUS
 10
10.6729800825
 20
11.3810426226
 11
10.6597503193
 21
11.3838546956
  0
LINE
  5
3CC
100
AcDbEntity
  8
0
100
AcDbLine
 62
9
  6
CONTINUOUS
 10
10.726161328
 20
11.0441995718
 11
10.7377065773
 21
11.0765284585
  0
LINE
  5
3CD
100
AcDbEntity
  8
0
100
AcDbLine
 62
9
  6
CONTINUOUS
 10
10.7377065773
 20
11.0765284585
 11
10.7033923007
 21
11.0755384493
  0
LINE
  5
3CE
100
AcDbEntity
  8
0
100
AcDbLine
 62
7
  6
CONTINUOUS
 10
10.8559677407
 20
11.6329035271
 11
10.8492050787
 21
11.6446168012
  0
LINE
  5
3CF
100
AcDbEntity
  8
0
100
AcDbLine
 62
7
  6
CONTINUOUS
 10
11.2613221307
 20
10.9842009002
 11
11.2688853959
 21
10.9729878985
  0
LINE
  5
3D0
100
AcDbEntity
  8
0
100
AcDbLine
 62
7
  6
CONTINUOUS
 10
10.6876968493
 20
11.4323660876
 11
10.6749872021
 21
11.4369920209
  0
LINE
  5
3D1
100
AcDbEntity
  8
0
100
AcDbLine
 62
7
  6
CONTINUOUS
 10
10.9547345397
 20
10.930141236
 11
10.9514624677
 21
10.9170176719
  0
LINE
  5
3D2
100
AcDbEntity
  8
0
100
AcDbLine
 62
7
  6
CONTINUOUS
 10
11.303395421
 20
11.5858769829
 11
11.3124456293
 21
11.5959282574
  0
LINE
  5
3D3
100
AcDbEntity
  8
0
100
AcDbLine
 62
9
  6
CONTINUOUS
 10
11.3746460823
 20
11.0520977507
 11
11.3404844531
 21
11.0554789912
  0
LINE
  5
3D4
100
AcDbEntity
  8
0
100
AcDbLine
 62
9
  6
CONTINUOUS
 10
10.6934810466
 20
11.0913997714
 11
10.6964168102
 21
11.0970845074
  0
LINE
  5
3D5
100
AcDbEntity
  8
0
100
AcDbLine
 62
9
  6
CONTINUOUS
 10
10.6964168102
 20
11.0970845074
 11
10.7094132497
 21
11.1218072474
  0
LINE
  5
3D6
100
AcDbEntity
  8
0
100
AcDbLine
 62
7
  6
CONTINUOUS
 10
10.7377065677
 20
11.0765284515
 11
10.7267643507
 21
11.0685784655
  0
LINE
  5
3D7
100
AcDbEntity
  8
0
100
AcDbLine
 62
9
  6
CONTINUOUS
 10
10.7094132497
 20
11.1218072474
 11
10.6752951347
 21
11.1256024973
  0
LINE
  5
3D8
100
AcDbEntity
  8
0
100
AcDbLine
 62
9
  6
CONTINUOUS
 10
11.3404844531
 20
11.0554789912
 11
11.3497464296
 21
11.0224235002
  0
LINE
  5
3D9
100
AcDbEntity
  8
0
100
AcDbLine
 62
9
  6
CONTINUOUS
 10
10.6676878057
 20
11.142688838
 11
10.6713861609
 21
11.1479096712
  0
LINE
  5
3DA
100
AcDbEntity
  8
0
100
AcDbLine
 62
9
  6
CONTINUOUS
 10
10.6713861609
 20
11.1479096712
 11
10.6876968604
 21
11.1705830565
  0
LINE
  5
3DB
100
AcDbEntity
  8
0
100
AcDbLine
 62
7
  6
CONTINUOUS
 10
10.9039559473
 20
11.6563089393
 11
10.8988892717
 21
11.6688494013
  0
LINE
  5
3DC
100
AcDbEntity
  8
0
100
AcDbLine
 62
7
  6
CONTINUOUS
 10
10.7094132393
 20
11.4811418982
 11
10.697471087
 21
11.4874916532
  0
LINE
  5
3DD
100
AcDbEntity
  8
0
100
AcDbLine
 62
7
  6
CONTINUOUS
 10
11.2613221307
 20
11.6187482398
 11
11.2688853959
 21
11.6299612416
  0
LINE
  5
3DE
100
AcDbEntity
  8
0
100
AcDbLine
 62
9
  6
CONTINUOUS
 10
10.6876968604
 20
11.1705830565
 11
10.6544389772
 21
11.1790896951
  0
LINE
  5
3DF
100
AcDbEntity
  8
0
100
AcDbLine
 62
7
  6
CONTINUOUS
 10
11.3033954205
 20
11.0170721577
 11
11.3124456293
 21
11.0070208827
  0
LINE
  5
3E0
100
AcDbEntity
  8
0
100
AcDbLine
 62
9
  6
CONTINUOUS
 10
10.6386267693
 20
11.2534802842
 11
10.6655493959
 21
11.274778685
  0
LINE
  5
3E1
100
AcDbEntity
  8
0
100
AcDbLine
 62
9
  6
CONTINUOUS
 10
10.6492836412
 20
11.1970684883
 11
10.6536726039
 21
11.2017238011
  0
LINE
  5
3E2
100
AcDbEntity
  8
0
100
AcDbLine
 62
9
  6
CONTINUOUS
 10
10.6536726039
 20
11.2017238011
 11
10.6729800941
 21
11.2219065199
  0
LINE
  5
3E3
100
AcDbEntity
  8
0
100
AcDbLine
 62
9
  6
CONTINUOUS
 10
10.6729800941
 20
11.2219065199
 11
10.6412297696
 21
11.2349589753
  0
LINE
  5
3E4
100
AcDbEntity
  8
0
100
AcDbLine
 62
9
  6
CONTINUOUS
 10
11.3367540059
 20
11.0089694516
 11
11.3033954131
 21
11.017072166
  0
LINE
  5
3E5
100
AcDbEntity
  8
0
100
AcDbLine
 62
7
  6
CONTINUOUS
 10
10.665549384
 20
11.2747786842
 11
10.6520570071
 21
11.2738352053
  0
LINE
  5
3E6
100
AcDbEntity
  8
0
100
AcDbLine
 62
7
  6
CONTINUOUS
 10
11.0073151717
 20
10.9208698637
 11
11.0059013891
 21
10.9074186213
  0
LINE
  5
3E7
100
AcDbEntity
  8
0
100
AcDbLine
 62
9
  6
CONTINUOUS
 10
11.3033954131
 20
11.017072166
 11
11.3079668175
 21
10.9830493507
  0
LINE
  5
3E8
100
AcDbEntity
  8
0
100
AcDbLine
 62
9
  6
CONTINUOUS
 10
11.457057589
 20
11.2634483105
 11
11.4262950999
 21
11.2482128596
  0
LINE
  5
3E9
100
AcDbEntity
  8
0
100
AcDbLine
 62
7
  6
CONTINUOUS
 10
11.2150835001
 20
11.6454441257
 11
11.2210126118
 21
11.6576006064
  0
LINE
  5
3EA
100
AcDbEntity
  8
0
100
AcDbLine
 62
7
  6
CONTINUOUS
 10
11.4300195334
 20
11.30147457
 11
11.4435448574
 21
11.30147457
  0
LINE
  5
3EB
100
AcDbEntity
  8
0
100
AcDbLine
 62
9
  6
CONTINUOUS
 10
11.2932283936
 20
10.9715344319
 11
11.2613221241
 21
10.9842009101
  0
LINE
  5
3EC
100
AcDbEntity
  8
0
100
AcDbLine
 62
7
  6
CONTINUOUS
 10
10.9547345397
 20
11.6728079041
 11
10.9514624677
 21
11.6859314681
  0
LINE
  5
3ED
100
AcDbEntity
  8
0
100
AcDbLine
 62
7
  6
CONTINUOUS
 10
11.3404844622
 20
11.0554789836
 11
11.3508454614
 21
11.0467850729
  0
LINE
  5
3EE
100
AcDbEntity
  8
0
100
AcDbLine
 62
9
  6
CONTINUOUS
 10
11.451666443
 20
11.3778608269
 11
11.4262950999
 21
11.3547362804
  0
LINE
  5
3EF
100
AcDbEntity
  8
0
100
AcDbLine
 62
9
  6
CONTINUOUS
 10
11.4262950999
 20
11.3547362804
 11
11.457057589
 21
11.3395008296
  0
LINE
  5
3F0
100
AcDbEntity
  8
0
100
AcDbLine
 62
9
  6
CONTINUOUS
 10
11.0073151717
 20
11.6820792762
 11
10.9898534158
 21
11.7027008835
  0
LINE
  5
3F1
100
AcDbEntity
  8
0
100
AcDbLine
 62
9
  6
CONTINUOUS
 10
10.9898534158
 20
11.7027008835
 11
10.9850901592
 21
11.7082421987
  0
LINE
  5
3F2
100
AcDbEntity
  8
0
100
AcDbLine
 62
7
  6
CONTINUOUS
 10
10.772026137
 20
11.0356279815
 11
10.7622968332
 21
11.0262325019
  0
LINE
  5
3F3
100
AcDbEntity
  8
0
100
AcDbLine
 62
7
  6
CONTINUOUS
 10
11.1655795113
 20
11.6654450354
 11
11.1697590663
 21
11.6783083829
  0
LINE
  5
3F4
100
AcDbEntity
  8
0
100
AcDbLine
 62
9
  6
CONTINUOUS
 10
11.4583622672
 20
11.3208430615
 11
11.4333307637
 21
11.3037060536
  0
LINE
  5
3F5
100
AcDbEntity
  8
0
100
AcDbLine
 62
9
  6
CONTINUOUS
 10
11.4333307637
 20
11.3037060536
 11
11.4300195215
 21
11.30147457
  0
LINE
  5
3F6
100
AcDbEntity
  8
0
100
AcDbLine
 62
9
  6
CONTINUOUS
 10
11.2613221241
 20
10.9842009101
 11
11.2611139792
 21
10.9498729859
  0
LINE
  5
3F7
100
AcDbEntity
  8
0
100
AcDbLine
 62
9
  6
CONTINUOUS
 10
10.635924614
 20
11.3108262342
 11
10.6655493959
 21
11.3281704551
  0
LINE
  5
3F8
100
AcDbEntity
  8
0
100
AcDbLine
 62
9
  6
CONTINUOUS
 10
10.6655493959
 20
11.3281704551
 11
10.6386267693
 21
11.3494688559
  0
LINE
  5
3F9
100
AcDbEntity
  8
0
100
AcDbLine
 62
9
  6
CONTINUOUS
 10
11.4262950999
 20
11.2482128596
 11
11.451666443
 21
11.2250883131
  0
LINE
  5
3FA
100
AcDbEntity
  8
0
100
AcDbLine
 62
9
  6
CONTINUOUS
 10
10.6412297696
 20
11.3679901648
 11
10.6729800941
 21
11.3810426201
  0
LINE
  5
3FB
100
AcDbEntity
  8
0
100
AcDbLine
 62
7
  6
CONTINUOUS
 10
11.0073151705
 20
11.682079288
 11
11.0059013891
 21
11.6955305188
  0
LINE
  5
3FC
100
AcDbEntity
  8
0
100
AcDbLine
 62
9
  6
CONTINUOUS
 10
10.6729800941
 20
11.3810426201
 11
10.6536607943
 21
11.4012397711
  0
LINE
  5
3FD
100
AcDbEntity
  8
0
100
AcDbLine
 62
9
  6
CONTINUOUS
 10
10.6536607943
 20
11.4012397711
 11
10.6492836412
 21
11.4058806518
  0
LINE
  5
3FE
100
AcDbEntity
  8
0
100
AcDbLine
 62
7
  6
CONTINUOUS
 10
11.1137737034
 20
11.6783616741
 11
11.1161223513
 21
11.691681518
  0
LINE
  5
3FF
100
AcDbEntity
  8
0
100
AcDbLine
 62
9
  6
CONTINUOUS
 10
10.6544389772
 20
11.423859445
 11
10.6876968604
 21
11.4323660836
  0
LINE
  5
400
100
AcDbEntity
  8
0
100
AcDbLine
 62
9
  6
CONTINUOUS
 10
10.6876968604
 20
11.4323660836
 11
10.6713764748
 21
11.4550554041
  0
LINE
  5
401
100
AcDbEntity
  8
0
100
AcDbLine
 62
9
  6
CONTINUOUS
 10
10.6713764748
 20
11.4550554041
 11
10.6676878057
 21
11.4602603021
  0
LINE
  5
402
100
AcDbEntity
  8
0
100
AcDbLine
 62
9
  6
CONTINUOUS
 10
10.6752951347
 20
11.4773466428
 11
10.7094132497
 21
11.4811418926
  0
LINE
  5
403
100
AcDbEntity
  8
0
100
AcDbLine
 62
9
  6
CONTINUOUS
 10
10.7094132497
 20
11.4811418926
 11
10.6964094361
 21
11.5058817609
  0
LINE
  5
404
100
AcDbEntity
  8
0
100
AcDbLine
 62
9
  6
CONTINUOUS
 10
10.6964094361
 20
11.5058817609
 11
10.6934810466
 21
11.5115493687
  0
LINE
  5
405
100
AcDbEntity
  8
0
100
AcDbLine
 62
9
  6
CONTINUOUS
 10
11.2449164217
 20
10.9405213217
 11
11.2393376058
 21
10.9436536913
  0
LINE
  5
406
100
AcDbEntity
  8
0
100
AcDbLine
 62
9
  6
CONTINUOUS
 10
11.2393376058
 20
10.9436536913
 11
11.2150834949
 21
10.957505025
  0
LINE
  5
407
100
AcDbEntity
  8
0
100
AcDbLine
 62
9
  6
CONTINUOUS
 10
10.7033923007
 20
11.5274106907
 11
10.7377065773
 21
11.5264206816
  0
LINE
  5
408
100
AcDbEntity
  8
0
100
AcDbLine
 62
9
  6
CONTINUOUS
 10
10.7377065773
 20
11.5264206816
 11
10.726161328
 21
11.5587495683
  0
LINE
  5
409
100
AcDbEntity
  8
0
100
AcDbLine
 62
7
  6
CONTINUOUS
 10
10.6729800825
 20
11.2219065175
 11
10.6597503193
 21
11.2190944445
  0
LINE
  5
40A
100
AcDbEntity
  8
0
100
AcDbLine
 62
9
  6
CONTINUOUS
 10
10.7381835957
 20
11.5730771491
 11
10.7720261455
 21
11.5673211504
  0
LINE
  5
40B
100
AcDbEntity
  8
0
100
AcDbLine
 62
7
  6
CONTINUOUS
 10
11.0606744174
 20
11.6839426339
 11
11.0611464444
 21
11.6974597186
  0
LINE
  5
40C
100
AcDbEntity
  8
0
100
AcDbLine
 62
9
  6
CONTINUOUS
 10
10.7720261455
 20
11.5673211504
 11
10.7650925652
 21
11.6009422027
  0
LINE
  5
40D
100
AcDbEntity
  8
0
100
AcDbLine
 62
7
  6
CONTINUOUS
 10
11.4262951117
 20
11.3547362821
 11
11.4396888081
 21
11.3566186434
  0
LINE
  5
40E
100
AcDbEntity
  8
0
100
AcDbLine
 62
9
  6
CONTINUOUS
 10
10.778991847
 20
11.6134571722
 11
10.8117039632
 21
11.6030472178
  0
LINE
  5
40F
100
AcDbEntity
  8
0
100
AcDbLine
 62
9
  6
CONTINUOUS
 10
10.8117039632
 20
11.6030472178
 11
10.8095170061
 21
11.6373060403
  0
LINE
  5
410
100
AcDbEntity
  8
0
100
AcDbLine
 62
9
  6
CONTINUOUS
 10
10.8250227681
 20
11.6477648088
 11
10.8308064978
 21
11.645029228
  0
LINE
  5
411
100
AcDbEntity
  8
0
100
AcDbLine
 62
9
  6
CONTINUOUS
 10
10.8308064978
 20
11.645029228
 11
10.8559677467
 21
11.6329035168
  0
LINE
  5
412
100
AcDbEntity
  8
0
100
AcDbLine
 62
9
  6
CONTINUOUS
 10
10.8559677467
 20
11.6329035168
 11
10.8585699795
 21
11.6671333003
  0
LINE
  5
413
100
AcDbEntity
  8
0
100
AcDbLine
 62
9
  6
CONTINUOUS
 10
11.2150834949
 20
10.957505025
 11
11.210099852
 21
10.9235401461
  0
LINE
  5
414
100
AcDbEntity
  8
0
100
AcDbLine
 62
9
  6
CONTINUOUS
 10
10.8753804197
 20
11.6753322999
 11
10.8807271433
 21
11.671818402
  0
LINE
  5
415
100
AcDbEntity
  8
0
100
AcDbLine
 62
9
  6
CONTINUOUS
 10
10.8807271433
 20
11.671818402
 11
10.9039559517
 21
11.6563089283
  0
LINE
  5
416
100
AcDbEntity
  8
0
100
AcDbLine
 62
9
  6
CONTINUOUS
 10
10.9039559517
 20
11.6563089283
 11
10.9112967249
 21
11.6898434291
  0
LINE
  5
417
100
AcDbEntity
  8
0
100
AcDbLine
 62
7
  6
CONTINUOUS
 10
11.0606744174
 20
10.9190065061
 11
11.0611464444
 21
10.9054894214
  0
LINE
  5
418
100
AcDbEntity
  8
0
100
AcDbLine
 62
9
  6
CONTINUOUS
 10
10.9290846473
 20
11.6956230754
 11
10.9338902968
 21
11.6913992545
  0
LINE
  5
419
100
AcDbEntity
  8
0
100
AcDbLine
 62
9
  6
CONTINUOUS
 10
10.9338902968
 20
11.6913992545
 11
10.9547345426
 21
11.6728078926
  0
LINE
  5
41A
100
AcDbEntity
  8
0
100
AcDbLine
 62
9
  6
CONTINUOUS
 10
10.9547345426
 20
11.6728078926
 11
10.9666709763
 21
11.7049943998
  0
LINE
  5
41B
100
AcDbEntity
  8
0
100
AcDbLine
 62
9
  6
CONTINUOUS
 10
10.6655493959
 20
11.274778685
 11
10.635924614
 21
11.2921229058
  0
LINE
  5
41C
100
AcDbEntity
  8
0
100
AcDbLine
 62
9
  6
CONTINUOUS
 10
11.0073151717
 20
11.6820792762
 11
11.0236149369
 21
11.712291316
  0
LINE
  5
41D
100
AcDbEntity
  8
0
100
AcDbLine
 62
7
  6
CONTINUOUS
 10
11.3718673582
 20
11.0986738343
 11
11.3833374834
 21
11.0915065046
  0
LINE
  5
41E
100
AcDbEntity
  8
0
100
AcDbLine
 62
9
  6
CONTINUOUS
 10
11.0423068718
 20
11.7129440527
 11
11.060674417
 21
11.6839426221
  0
LINE
  5
41F
100
AcDbEntity
  8
0
100
AcDbLine
 62
9
  6
CONTINUOUS
 10
11.060674417
 20
11.6839426221
 11
11.0810202573
 21
11.7115921515
  0
LINE
  5
420
100
AcDbEntity
  8
0
100
AcDbLine
 62
9
  6
CONTINUOUS
 10
11.1927584278
 20
10.9165337559
 11
11.1876698457
 21
10.9204120627
  0
LINE
  5
421
100
AcDbEntity
  8
0
100
AcDbLine
 62
9
  6
CONTINUOUS
 10
11.1876698457
 20
10.9204120627
 11
11.1655795077
 21
10.9375041159
  0
LINE
  5
422
100
AcDbEntity
  8
0
100
AcDbLine
 62
9
  6
CONTINUOUS
 10
11.0996211269
 20
11.7096371214
 11
11.1137737013
 21
11.6783616624
  0
LINE
  5
423
100
AcDbEntity
  8
0
100
AcDbLine
 62
9
  6
CONTINUOUS
 10
11.1137737013
 20
11.6783616624
 11
11.1377696081
 21
11.7029105148
  0
LINE
  5
424
100
AcDbEntity
  8
0
100
AcDbLine
 62
9
  6
CONTINUOUS
 10
11.1655795077
 20
10.9375041159
 11
11.1559173677
 21
10.9045633699
  0
LINE
  5
425
100
AcDbEntity
  8
0
100
AcDbLine
 62
9
  6
CONTINUOUS
 10
11.1559173677
 20
11.6983857702
 11
11.1655795077
 21
11.6654450242
  0
LINE
  5
426
100
AcDbEntity
  8
0
100
AcDbLine
 62
9
  6
CONTINUOUS
 10
11.1655795077
 20
11.6654450242
 11
11.1876854332
 21
11.6825473137
  0
LINE
  5
427
100
AcDbEntity
  8
0
100
AcDbLine
 62
9
  6
CONTINUOUS
 10
11.1876854332
 20
11.6825473137
 11
11.1927584278
 21
11.6864153841
  0
LINE
  5
428
100
AcDbEntity
  8
0
100
AcDbLine
 62
9
  6
CONTINUOUS
 10
11.4477778023
 20
11.2067936973
 11
11.4151943267
 21
11.1959878278
  0
LINE
  5
429
100
AcDbEntity
  8
0
100
AcDbLine
 62
9
  6
CONTINUOUS
 10
11.210099852
 20
11.679408994
 11
11.2150834949
 21
11.6454441151
  0
LINE
  5
42A
100
AcDbEntity
  8
0
100
AcDbLine
 62
9
  6
CONTINUOUS
 10
11.2150834949
 20
11.6454441151
 11
11.2393544665
 21
11.6593034162
  0
LINE
  5
42B
100
AcDbEntity
  8
0
100
AcDbLine
 62
9
  6
CONTINUOUS
 10
11.2393544665
 20
11.6593034162
 11
11.2449164217
 21
11.6624278183
  0
SPLINE
  5
42C
100
AcDbEntity
  8
0
100
AcDbSpline
 62
7
  6
CONTINUOUS
 70
0
 71
3
 72
15
 73
11
 74
0
 42
0.0000001
 43
0.0000001
 44
0.0000000001
 40
0.0
 40
0.0
 40
0.0
 40
0.0
 40
0.1253254743
 40
0.2505278784
 40
0.3756206463
 40
0.500617653
 40
0.6255346748
 40
0.7503915199
 40
0.8752059597
 40
1.0
 40
1.0
 40
1.0
 40
1.0
 10
11.5585901807
 20
4.2184018602
 30
0.0
 10
11.5669888592
 20
4.2060393218
 30
0.0
 10
11.5828698587
 20
4.1806950782
 30
0.0
 10
11.6037913339
 20
4.1410421367
 30
0.0
 10
11.6216861251
 20
4.0999745492
 30
0.0
 10
11.6364686161
 20
4.0577234547
 30
0.0
 10
11.648044732
 20
4.0145126419
 30
0.0
 10
11.6563605321
 20
3.9705795386
 30
0.0
 10
11.6613707765
 20
3.9261649511
 30
0.0
 10
11.6624828757
 20
3.896385977
 30
0.0
 10
11.6624828757
 20
3.8815037795
 30
0.0
  0
SPLINE
  5
42D
100
AcDbEntity
  8
0
100
AcDbSpline
 62
7
  6
CONTINUOUS
 70
0
 71
3
 72
23
 73
19
 74
0
 42
0.0000001
 43
0.0000001
 44
0.0000000001
 40
0.0
 40
0.0
 40
0.0
 40
0.0
 40
0.0620227703
 40
0.1240639861
 40
0.1861411152
 40
0.248270967
 40
0.3104671502
 40
0.3727421428
 40
0.4351039184
 40
0.4975582668
 40
0.5601047838
 40
0.6227433715
 40
0.6854704743
 40
0.7482745499
 40
0.8111378495
 40
0.8740640162
 40
0.9370498935
 40
1.0
 40
1.0
 40
1.0
 40
1.0
 10
10.4321547251
 20
3.857540332
 30
0.0
 10
10.4321547408
 20
3.8377222476
 30
0.0
 10
10.4341297494
 20
3.7980514986
 30
0.0
 10
10.4430096383
 20
3.7391458338
 30
0.0
 10
10.4577010771
 20
3.6813733206
 30
0.0
 10
10.4780803103
 20
3.6253029307
 30
0.0
 10
10.5039353605
 20
3.571467457
 30
0.0
 10
10.5350286105
 20
3.5203913052
 30
0.0
 10
10.5710522182
 20
3.4725617406
 30
0.0
 10
10.6116629201
 20
3.4284425443
 30
0.0
 10
10.6564671407
 20
3.3884568934
 30
0.0
 10
10.7050330818
 20
3.3529875236
 30
0.0
 10
10.7568972743
 20
3.3223825835
 30
0.0
 10
10.811551665
 20
3.296925235
 30
0.0
 10
10.8684772775
 20
3.2768692956
 30
0.0
 10
10.927133643
 20
3.2623980572
 30
0.0
 10
10.9869372009
 20
3.2536742986
 30
0.0
 10
11.0272039429
 20
3.2517196681
 30
0.0
 10
11.0473183383
 20
3.2517196681
 30
0.0
  0
SPLINE
  5
42E
100
AcDbEntity
  8
0
100
AcDbSpline
 62
7
  6
CONTINUOUS
 70
0
 71
3
 72
15
 73
11
 74
0
 42
0.0000001
 43
0.0000001
 44
0.0000000001
 40
0.0
 40
0.0
 40
0.0
 40
0.0
 40
0.1247940363
 40
0.2496084727
 40
0.374465315
 40
0.4993823354
 40
0.6243793421
 40
0.7494721118
 40
0.8746745198
 40
1.0
 40
1.0
 40
1.0
 40
1.0
 10
10.4321538008
 20
3.8815037795
 30
0.0
 10
10.4321538008
 20
3.8963861312
 30
0.0
 10
10.4332659232
 20
3.9261654141
 30
0.0
 10
10.4382762714
 20
3.970580457
 30
0.0
 10
10.4465922428
 20
4.0145140007
 30
0.0
 10
10.4581685965
 20
4.0577252315
 30
0.0
 10
10.4729513884
 20
4.0999767146
 30
0.0
 10
10.4908465403
 20
4.1410446544
 30
0.0
 10
10.5117684332
 20
4.1806979048
 30
0.0
 10
10.5276497446
 20
4.206042322
 30
0.0
 10
10.5360485867
 20
4.2184049379
 30
0.0
  0
SPLINE
  5
42F
100
AcDbEntity
  8
0
100
AcDbSpline
 62
7
  6
CONTINUOUS
 70
0
 71
3
 72
25
 73
21
 74
0
 42
0.0000001
 43
0.0000001
 44
0.0000000001
 40
0.0
 40
0.0
 40
0.0
 40
0.0
 40
0.0629471336
 40
0.1259292101
 40
0.1888517773
 40
0.2517121274
 40
0.3145134666
 40
0.3458957154
 40
0.3772565642
 40
0.4398927785
 40
0.4711859017
 40
0.5024560843
 40
0.5649086448
 40
0.6272688057
 40
0.6895422931
 40
0.7517369483
 40
0.8138651641
 40
0.8759404343
 40
0.9379795707
 40
1.0
 40
1.0
 40
1.0
 40
1.0
 10
11.0473183383
 20
3.2517196681
 30
0.0
 10
11.0674325389
 20
3.2517196681
 30
0.0
 10
11.1076986665
 20
3.2536740916
 30
0.0
 10
11.1675010484
 20
3.2623976606
 30
0.0
 10
11.2261569347
 20
3.2768687136
 30
0.0
 10
11.283080229
 20
3.2969227906
 30
0.0
 10
11.3286468642
 20
3.3181486697
 30
0.0
 10
11.363694633
 20
3.3376964474
 30
0.0
 10
11.3977007103
 20
3.3589029427
 30
0.0
 10
11.4300929607
 20
3.3825597242
 30
0.0
 10
11.4605944856
 20
3.4084671731
 30
0.0
 10
11.4897452041
 20
3.4358017258
 30
0.0
 10
11.5235838626
 20
3.4725597264
 30
0.0
 10
11.5596059532
 20
3.5203887187
 30
0.0
 10
11.5907004747
 20
3.5714655902
 30
0.0
 10
11.6165557614
 20
3.625301644
 30
0.0
 10
11.6369353809
 20
3.681372597
 30
0.0
 10
11.6516269764
 20
3.7391455364
 30
0.0
 10
11.6605068865
 20
3.7980514259
 30
0.0
 10
11.6624819671
 20
3.8377222495
 30
0.0
 10
11.6624819514
 20
3.85754033
 30
0.0
  0
SPLINE
  5
430
100
AcDbEntity
  8
0
100
AcDbSpline
 62
9
  6
CONTINUOUS
 70
0
 71
3
 72
30
 73
26
 74
0
 42
0.0000001
 43
0.0000001
 44
0.0000000001
 40
0.0
 40
0.0
 40
0.0
 40
0.0
 40
0.0946225059
 40
0.1883697899
 40
0.2803664931
 40
0.3697385376
 40
0.4556172795
 40
0.5372144
 40
0.6138360605
 40
0.684800791
 40
0.7494396634
 40
0.8071389777
 40
0.8332632308
 40
0.8575226798
 40
0.8798874576
 40
0.9003339279
 40
0.9188476135
 40
0.9354279159
 40
0.950095993
 40
0.9629097769
 40
0.9740047017
 40
0.9836157738
 40
0.9921024166
 40
0.9960891495
 40
1.0
 40
1.0
 40
1.0
 40
1.0
 10
11.0473183383
 20
6.1565957644
 30
0.0
 10
11.0299542864
 20
6.1565957644
 30
0.0
 10
10.9953861386
 20
6.1563124515
 30
0.0
 10
10.9439496528
 20
6.1550543097
 30
0.0
 10
10.8935035667
 20
6.1529823575
 30
0.0
 10
10.8445424323
 20
6.1501171462
 30
0.0
 10
10.7975465284
 20
6.1464738367
 30
0.0
 10
10.7529645605
 20
6.1420842877
 30
0.0
 10
10.7112107477
 20
6.1370082307
 30
0.0
 10
10.6726807937
 20
6.1312999907
 30
0.0
 10
10.6377624852
 20
6.1250169176
 30
0.0
 10
10.6111447277
 20
6.1191616031
 30
0.0
 10
10.5919475072
 20
6.1141669018
 30
0.0
 10
10.5791261572
 20
6.110439925
 30
0.0
 10
10.5674241796
 20
6.1066168794
 30
0.0
 10
10.5568678465
 20
6.102707317
 30
0.0
 10
10.5474826254
 20
6.0987210199
 30
0.0
 10
10.5392929847
 20
6.0946670827
 30
0.0
 10
10.5323208098
 20
6.090553824
 30
0.0
 10
10.526584145
 20
6.086382157
 30
0.0
 10
10.5220911055
 20
6.0821491064
 30
0.0
 10
10.518842617
 20
6.0778496815
 30
0.0
 10
10.5171622859
 20
6.074108576
 30
0.0
 10
10.5165344565
 20
6.0711588058
 30
0.0
 10
10.5164421545
 20
6.0697061351
 30
0.0
 10
10.5164501366
 20
6.0689885045
 30
0.0
  0
SPLINE
  5
431
100
AcDbEntity
  8
0
100
AcDbSpline
 62
7
  6
CONTINUOUS
 70
0
 71
3
 72
25
 73
21
 74
0
 42
0.0000001
 43
0.0000001
 44
0.0000000001
 40
0.0
 40
0.0
 40
0.0
 40
0.0
 40
0.0629473309
 40
0.1259297133
 40
0.1888523616
 40
0.2517125713
 40
0.3145138499
 40
0.3458962903
 40
0.3772575765
 40
0.4398949762
 40
0.4711884811
 40
0.5024586976
 40
0.5649106465
 40
0.6272700384
 40
0.6895429136
 40
0.751737082
 40
0.813864953
 40
0.8759401079
 40
0.9379793209
 40
1.0
 40
1.0
 40
1.0
 40
1.0
 10
11.0473183383
 20
3.2756831166
 30
0.0
 10
11.0272040582
 20
3.2756831166
 30
0.0
 10
10.9869377399
 20
3.277637593
 30
0.0
 10
10.9271351178
 20
3.286361147
 30
0.0
 10
10.8684791117
 20
3.300832257
 30
0.0
 10
10.8115558012
 20
3.320886308
 30
0.0
 10
10.7659890957
 20
3.3421121312
 30
0.0
 10
10.7309411553
 20
3.3616600441
 30
0.0
 10
10.6969346175
 20
3.382866963
 30
0.0
 10
10.6645419389
 20
3.406524293
 30
0.0
 10
10.6340399491
 20
3.4324320309
 30
0.0
 10
10.6048892023
 20
3.4597665156
 30
0.0
 10
10.5710510486
 20
3.4965244546
 30
0.0
 10
10.5350293417
 20
3.5443529864
 30
0.0
 10
10.5039351549
 20
3.5954294207
 30
0.0
 10
10.4780800093
 20
3.6492650796
 30
0.0
 10
10.4577004325
 20
3.7053357804
 30
0.0
 10
10.4430088656
 20
3.763108648
 30
0.0
 10
10.4341288386
 20
3.8220146394
 30
0.0
 10
10.4321538008
 20
3.8616856031
 30
0.0
 10
10.4321538008
 20
3.8815037795
 30
0.0
  0
SPLINE
  5
432
100
AcDbEntity
  8
0
100
AcDbSpline
 62
7
  6
CONTINUOUS
 70
0
 71
3
 72
22
 73
18
 74
0
 42
0.0000001
 43
0.0000001
 44
0.0000000001
 40
0.0
 40
0.0
 40
0.0
 40
0.0
 40
0.1257606772
 40
0.2514163248
 40
0.3142122519
 40
0.3769513694
 40
0.4396134714
 40
0.4709195019
 40
0.5022035444
 40
0.5646914488
 40
0.6270958744
 40
0.689412702
 40
0.7516491091
 40
0.8138195367
 40
0.8759301091
 40
0.9379841663
 40
1.0
 40
1.0
 40
1.0
 40
1.0
 10
11.047318872
 20
3.4054301991
 30
0.0
 10
11.0776848814
 20
3.4054301991
 30
0.0
 10
11.1385136731
 20
3.4109872474
 30
0.0
 10
11.2120675385
 20
3.4312393267
 30
0.0
 10
11.2678838173
 20
3.4551585242
 30
0.0
 10
11.3079142622
 20
3.476797067
 30
0.0
 10
11.3394900312
 20
3.4977470063
 30
0.0
 10
11.3635073548
 20
3.5161416765
 30
0.0
 10
11.3866376712
 20
3.5355744454
 30
0.0
 10
11.4138347564
 20
3.5617784094
 30
0.0
 10
11.4434341767
 20
3.5960240237
 30
0.0
 10
11.4697494052
 20
3.6327818614
 30
0.0
 10
11.4925432263
 20
3.6717548623
 30
0.0
 10
11.5116749215
 20
3.7125938857
 30
0.0
 10
11.5269958839
 20
3.754964435
 30
0.0
 10
11.5383626783
 20
3.7985219353
 30
0.0
 10
11.5432015915
 20
3.8281379602
 30
0.0
 10
11.5449342527
 20
3.8430116424
 30
0.0
  0
SPLINE
  5
433
100
AcDbEntity
  8
0
100
AcDbSpline
 62
7
  6
CONTINUOUS
 70
0
 71
3
 72
23
 73
19
 74
0
 42
0.0000001
 43
0.0000001
 44
0.0000000001
 40
0.0
 40
0.0
 40
0.0
 40
0.0
 40
0.0629010199
 40
0.1258528383
 40
0.1887576957
 40
0.2515974299
 40
0.3143812249
 40
0.377103457
 40
0.439747902
 40
0.5023081177
 40
0.5647821291
 40
0.6271714905
 40
0.6894765765
 40
0.7517024911
 40
0.8138565829
 40
0.8759491871
 40
0.9379925329
 40
1.0
 40
1.0
 40
1.0
 40
1.0
 10
11.0473178132
 20
3.4054301991
 30
0.0
 10
11.0320994251
 20
3.4054301991
 30
0.0
 10
11.0016332612
 20
3.406799798
 30
0.0
 10
10.9563167572
 20
3.4129075787
 30
0.0
 10
10.9117403618
 20
3.423049836
 30
0.0
 10
10.8682897794
 20
3.4371265554
 30
0.0
 10
10.8263187714
 20
3.4550303311
 30
0.0
 10
10.7861641988
 20
3.4766036731
 30
0.0
 10
10.7481608688
 20
3.5016768885
 30
0.0
 10
10.7126243285
 20
3.5300425684
 30
0.0
 10
10.679843822
 20
3.5614643114
 30
0.0
 10
10.6500949129
 20
3.5956884859
 30
0.0
 10
10.6236134792
 20
3.6324257224
 30
0.0
 10
10.6006325253
 20
3.6713825022
 30
0.0
 10
10.5813245849
 20
3.7122274846
 30
0.0
 10
10.5658682996
 20
3.7546342426
 30
0.0
 10
10.5543714112
 20
3.7982404478
 30
0.0
 10
10.5494202305
 20
3.8278934461
 30
0.0
 10
10.5476329433
 20
3.8427888018
 30
0.0
  0
SPLINE
  5
434
100
AcDbEntity
  8
0
100
AcDbSpline
 62
7
  6
CONTINUOUS
 70
0
 71
3
 72
63
 73
59
 74
0
 42
0.0000001
 43
0.0000001
 44
0.0000000001
 40
0.0
 40
0.0
 40
0.0
 40
0.0
 40
0.0037603435
 40
0.0073844749
 40
0.0110283527
 40
0.014837404
 40
0.0189342391
 40
0.0234151506
 40
0.0283526218
 40
0.0337936972
 40
0.0463036399
 40
0.0611308914
 40
0.0694566807
 40
0.0784033276
 40
0.0879198172
 40
0.0979316825
 40
0.1191807506
 40
0.1303260867
 40
0.1417801896
 40
0.1476224684
 40
0.153546143
 40
0.1656763068
 40
0.1782325254
 40
0.1912491311
 40
0.2047473749
 40
0.2187470468
 40
0.2332761967
 40
0.2407527592
 40
0.2483776158
 40
0.2640598431
 40
0.2802801015
 40
0.3140958604
 40
0.3315676184
 40
0.3493437847
 40
0.3583345337
 40
0.3673916579
 40
0.3857186808
 40
0.4043493474
 40
0.4232974183
 40
0.462162787
 40
0.4820773211
 40
0.5023065101
 40
0.5228416801
 40
0.5436700931
 40
0.5861547514
 40
0.6296574242
 40
0.6517585767
 40
0.6740753222
 40
0.6965900805
 40
0.719283396
 40
0.7651302278
 40
0.788250257
 40
0.8114825397
 40
0.8348170678
 40
0.858245304
 40
0.9053308865
 40
0.9526267739
 40
1.0
 40
1.0
 40
1.0
 40
1.0
 10
10.4873184163
 20
8.6639969871
 30
0.0
 10
10.4873185126
 20
8.6647238426
 30
0.0
 10
10.4874234481
 20
8.6661545933
 30
0.0
 10
10.4879381082
 20
8.6682337624
 30
0.0
 10
10.4888028984
 20
8.6702032037
 30
0.0
 10
10.4900099169
 20
8.6720902094
 30
0.0
 10
10.4915517995
 20
8.6739287052
 30
0.0
 10
10.4934248057
 20
8.6757544396
 30
0.0
 10
10.4956258595
 20
8.677602716
 30
0.0
 10
10.4991668757
 20
8.6802578072
 30
0.0
 10
10.5044653161
 20
8.6837400188
 30
0.0
 10
10.5103632983
 20
8.687308432
 30
0.0
 10
10.5157045137
 20
8.6904660601
 30
0.0
 10
10.5201665824
 20
8.6930934124
 30
0.0
 10
10.5249423325
 20
8.6958305319
 30
0.0
 10
10.5318706543
 20
8.6995892363
 30
0.0
 10
10.5392761608
 20
8.7031311485
 30
0.0
 10
10.5471830476
 20
8.706194749
 30
0.0
 10
10.5524239875
 20
8.7078693957
 30
0.0
 10
10.5567651558
 20
8.709012576
 30
0.0
 10
10.5612715929
 20
8.7100299079
 30
0.0
 10
10.5670977722
 20
8.7110763763
 30
0.0
 10
10.5743152462
 20
8.712091679
 30
0.0
 10
10.5818123896
 20
8.7130030743
 30
0.0
 10
10.5895878938
 20
8.7139359065
 30
0.0
 10
10.5976399474
 20
8.7150155925
 30
0.0
 10
10.6045111379
 20
8.7161312828
 30
0.0
 10
10.610135249
 20
8.7172165777
 30
0.0
 10
10.6159517313
 20
8.7184735025
 30
0.0
 10
10.6233751578
 20
8.7202864833
 30
0.0
 10
10.6356510691
 20
8.7235532397
 30
0.0
 10
10.6482256949
 20
8.727041899
 30
0.0
 10
10.6611730515
 20
8.7302984951
 30
0.0
 10
10.6695199925
 20
8.7321635246
 30
0.0
 10
10.676317955
 20
8.7334841686
 30
0.0
 10
10.6832463294
 20
8.734684024
 30
0.0
 10
10.6920504992
 20
8.7359607231
 30
0.0
 10
10.702787464
 20
8.7371931754
 30
0.0
 10
10.7175033505
 20
8.738538731
 30
0.0
 10
10.7324965573
 20
8.7395302463
 30
0.0
 10
10.7477422084
 20
8.7404245531
 30
0.0
 10
10.7594505916
 20
8.7411193355
 30
0.0
 10
10.7713324167
 20
8.7418712906
 30
0.0
 10
10.7875038197
 20
8.7429519997
 30
0.0
 10
10.8080967787
 20
8.7444472721
 30
0.0
 10
10.8289220273
 20
8.7461312924
 30
0.0
 10
10.8458520896
 20
8.7476117036
 30
0.0
 10
10.8587351499
 20
8.7488002551
 30
0.0
 10
10.8717301072
 20
8.7500215761
 30
0.0
 10
10.8892562004
 20
8.751636912
 30
0.0
 10
10.9069119165
 20
8.7531270447
 30
0.0
 10
10.9246943414
 20
8.754316352
 30
0.0
 10
10.9381468342
 20
8.7550166975
 30
0.0
 10
10.9516697073
 20
8.7554741794
 30
0.0
 10
10.9698095332
 20
8.7557175896
 30
0.0
 10
10.9925844506
 20
8.7553755046
 30
0.0
 10
11.0199563685
 20
8.7540327904
 30
0.0
 10
11.038200796
 20
8.7525820931
 30
0.0
 10
11.0473183383
 20
8.7517328621
 30
0.0
  0
SPLINE
  5
435
100
AcDbEntity
  8
0
100
AcDbSpline
 62
7
  6
CONTINUOUS
 70
0
 71
3
 72
25
 73
21
 74
0
 42
0.0000001
 43
0.0000001
 44
0.0000000001
 40
0.0
 40
0.0
 40
0.0
 40
0.0
 40
0.0620206791
 40
0.1240598921
 40
0.186135047
 40
0.248262918
 40
0.3104570864
 40
0.3727299616
 40
0.4350893535
 40
0.4975413024
 40
0.5288115189
 40
0.5601050238
 40
0.6227424235
 40
0.6541037097
 40
0.6854861501
 40
0.7482874287
 40
0.8111476384
 40
0.8740702867
 40
0.9370526691
 40
1.0
 40
1.0
 40
1.0
 40
1.0
 10
11.6624828757
 20
3.8815037795
 30
0.0
 10
11.6624828757
 20
3.8616856031
 30
0.0
 10
11.660507838
 20
3.8220146394
 30
0.0
 10
11.6516278109
 20
3.763108648
 30
0.0
 10
11.6369362441
 20
3.7053357804
 30
0.0
 10
11.6165566672
 20
3.6492650796
 30
0.0
 10
11.5907015216
 20
3.5954294207
 30
0.0
 10
11.5596073348
 20
3.5443529864
 30
0.0
 10
11.523585628
 20
3.4965244546
 30
0.0
 10
11.4897474743
 20
3.4597665156
 30
0.0
 10
11.4605967274
 20
3.4324320309
 30
0.0
 10
11.4300947377
 20
3.406524293
 30
0.0
 10
11.397702059
 20
3.382866963
 30
0.0
 10
11.3636955213
 20
3.3616600441
 30
0.0
 10
11.3286475808
 20
3.3421121312
 30
0.0
 10
11.2830808754
 20
3.320886308
 30
0.0
 10
11.2261575648
 20
3.300832257
 30
0.0
 10
11.1675015588
 20
3.286361147
 30
0.0
 10
11.1076989366
 20
3.277637593
 30
0.0
 10
11.0674326184
 20
3.2756831166
 30
0.0
 10
11.0473183383
 20
3.2756831166
 30
0.0
  0
SPLINE
  5
436
100
AcDbEntity
  8
0
100
AcDbSpline
 62
7
  6
CONTINUOUS
 70
0
 71
3
 72
63
 73
59
 74
0
 42
0.0000001
 43
0.0000001
 44
0.0000000001
 40
0.0
 40
0.0
 40
0.0
 40
0.0
 40
0.0473753888
 40
0.0946729434
 40
0.1182519271
 40
0.1417635061
 40
0.1651937025
 40
0.1885303765
 40
0.21176501
 40
0.2348872041
 40
0.2807371504
 40
0.3034313958
 40
0.3259468455
 40
0.3482642503
 40
0.3703665513
 40
0.4138729694
 40
0.4563622625
 40
0.4771930177
 40
0.4977304202
 40
0.517961702
 40
0.5378783221
 40
0.5767478832
 40
0.5956981968
 40
0.6143314188
 40
0.6326616221
 40
0.6417207168
 40
0.6507137504
 40
0.6684949604
 40
0.6859712303
 40
0.7197878501
 40
0.7360016092
 40
0.7516720253
 40
0.7592893314
 40
0.7667590823
 40
0.7812798939
 40
0.7952766295
 40
0.8087761946
 40
0.8217984574
 40
0.8343664186
 40
0.8465183111
 40
0.858315377
 40
0.8697898683
 40
0.8809349308
 40
0.9021213699
 40
0.9120773632
 40
0.9215302779
 40
0.9304207058
 40
0.9387326045
 40
0.9536306864
 40
0.9662558766
 40
0.9717336358
 40
0.9766772668
 40
0.9811428838
 40
0.9852099254
 40
0.9889831958
 40
0.9925972735
 40
0.996212682
 40
1.0
 40
1.0
 40
1.0
 40
1.0
 10
11.0473183383
 20
8.7517328621
 30
0.0
 10
11.0564342482
 20
8.7525971953
 30
0.0
 10
11.0746772483
 20
8.754061443
 30
0.0
 10
11.0975107887
 20
8.7551693921
 30
0.0
 10
11.1157505397
 20
8.7555788781
 30
0.0
 10
11.1293815841
 20
8.7556366696
 30
0.0
 10
11.1429645345
 20
8.7554359762
 30
0.0
 10
11.1564871089
 20
8.7549627285
 30
0.0
 10
11.1699395773
 20
8.7542557422
 30
0.0
 10
11.1877221782
 20
8.7530658281
 30
0.0
 10
11.2053786553
 20
8.7515859062
 30
0.0
 10
11.2229059682
 20
8.7499870675
 30
0.0
 10
11.235901778
 20
8.7487797887
 30
0.0
 10
11.2487858638
 20
8.7476069055
 30
0.0
 10
11.2657171429
 20
8.746141697
 30
0.0
 10
11.286543441
 20
8.74446608
 30
0.0
 10
11.307137083
 20
8.7429713707
 30
0.0
 10
11.3233090933
 20
8.7418897784
 30
0.0
 10
11.3351913619
 20
8.7411373813
 30
0.0
 10
11.3469002282
 20
8.7404434231
 30
0.0
 10
11.3621464541
 20
8.7395492967
 30
0.0
 10
11.3771402041
 20
8.7385561979
 30
0.0
 10
11.3918563579
 20
8.7372054542
 30
0.0
 10
11.4025934534
 20
8.7359669732
 30
0.0
 10
11.411397495
 20
8.7346830871
 30
0.0
 10
11.4183255864
 20
8.7334759935
 30
0.0
 10
11.4251232928
 20
8.7321470975
 30
0.0
 10
11.4334695201
 20
8.7302711029
 30
0.0
 10
11.4464143158
 20
8.7270000508
 30
0.0
 10
11.4589863432
 20
8.7235063246
 30
0.0
 10
11.4712626362
 20
8.7202573015
 30
0.0
 10
11.4786860257
 20
8.7184668392
 30
0.0
 10
11.4845030987
 20
8.7172386851
 30
0.0
 10
11.4901277485
 20
8.7161818806
 30
0.0
 10
11.4969988248
 20
8.715091533
 30
0.0
 10
11.5050503189
 20
8.7140271962
 30
0.0
 10
11.5128257267
 20
8.713091878
 30
0.0
 10
11.5203234857
 20
8.7121593905
 30
0.0
 10
11.5275421223
 20
8.7111011517
 30
0.0
 10
11.5344817393
 20
8.7097946489
 30
0.0
 10
11.5411195713
 20
8.7080954178
 30
0.0
 10
11.5474496116
 20
8.7060379472
 30
0.0
 10
11.5553503479
 20
8.7029844939
 30
0.0
 10
11.5627589737
 20
8.6995085869
 30
0.0
 10
11.5696965899
 20
8.6958428514
 30
0.0
 10
11.5744751516
 20
8.6931806475
 30
0.0
 10
11.578947443
 20
8.6906229149
 30
0.0
 10
11.5842964748
 20
8.6874789341
 30
0.0
 10
11.5901915506
 20
8.6838406848
 30
0.0
 10
11.5954683464
 20
8.6802497069
 30
0.0
 10
11.5990062392
 20
8.6775412234
 30
0.0
 10
11.6012084489
 20
8.6756869954
 30
0.0
 10
11.6030822372
 20
8.6738735562
 30
0.0
 10
11.604625846
 20
8.6720574427
 30
0.0
 10
11.6058350951
 20
8.6701938691
 30
0.0
 10
11.6067014011
 20
8.668240563
 30
0.0
 10
11.6072154843
 20
8.6661633331
 30
0.0
 10
11.6073183563
 20
8.6647290018
 30
0.0
 10
11.6073182603
 20
8.6639969826
 30
0.0
  0
SPLINE
  5
437
100
AcDbEntity
  8
0
100
AcDbSpline
 62
7
  6
CONTINUOUS
 70
0
 71
3
 72
22
 73
18
 74
0
 42
0.0000001
 43
0.0000001
 44
0.0000000001
 40
0.0
 40
0.0
 40
0.0
 40
0.0
 40
0.0620152261
 40
0.1240690649
 40
0.1861789286
 40
0.2483482154
 40
0.3105837974
 40
0.3729004016
 40
0.435304354
 40
0.4977919177
 40
0.5290760897
 40
0.5603824091
 40
0.6230453238
 40
0.6857848297
 40
0.7485810024
 40
0.8742388962
 40
1.0
 40
1.0
 40
1.0
 40
1.0
 10
10.5496989748
 20
3.8430334262
 30
0.0
 10
10.5514310682
 20
3.8281593708
 30
0.0
 10
10.5562702635
 20
3.7985426516
 30
0.0
 10
10.5676358325
 20
3.7549839008
 30
0.0
 10
10.5829541229
 20
3.7126114777
 30
0.0
 10
10.6020841765
 20
3.6717708451
 30
0.0
 10
10.6248778028
 20
3.632796724
 30
0.0
 10
10.6511930024
 20
3.5960377131
 30
0.0
 10
10.6807909829
 20
3.5617893744
 30
0.0
 10
10.7079884393
 20
3.5355843376
 30
0.0
 10
10.731118949
 20
3.516150368
 30
0.0
 10
10.7551367619
 20
3.4977543378
 30
0.0
 10
10.7867132428
 20
3.4768027932
 30
0.0
 10
10.8267443567
 20
3.4551618015
 30
0.0
 10
10.8825630803
 20
3.4312418123
 30
0.0
 10
10.9561194744
 20
3.4109878456
 30
0.0
 10
11.0169507849
 20
3.4054301991
 30
0.0
 10
11.0473178132
 20
3.4054301991
 30
0.0
  0
SPLINE
  5
438
100
AcDbEntity
  8
0
100
AcDbSpline
 62
9
  6
CONTINUOUS
 70
0
 71
3
 72
30
 73
26
 74
0
 42
0.0000001
 43
0.0000001
 44
0.0000000001
 40
0.0
 40
0.0
 40
0.0
 40
0.0
 40
0.0039108505
 40
0.0078975834
 40
0.0163842262
 40
0.0259952983
 40
0.0370902231
 40
0.049904007
 40
0.0645720841
 40
0.0811523865
 40
0.0996660721
 40
0.1201125424
 40
0.1424773202
 40
0.1667367692
 40
0.1928610223
 40
0.2505603366
 40
0.315199209
 40
0.3861639395
 40
0.4627856
 40
0.5443827205
 40
0.6302614624
 40
0.7196335069
 40
0.8116302101
 40
0.9053774941
 40
1.0
 40
1.0
 40
1.0
 40
1.0
 10
11.57818654
 20
6.0689885045
 30
0.0
 10
11.578194522
 20
6.0697061351
 30
0.0
 10
11.57810222
 20
6.0711588058
 30
0.0
 10
11.5774743907
 20
6.074108576
 30
0.0
 10
11.5757940595
 20
6.0778496815
 30
0.0
 10
11.5725455711
 20
6.0821491064
 30
0.0
 10
11.5680525316
 20
6.086382157
 30
0.0
 10
11.5623158668
 20
6.090553824
 30
0.0
 10
11.5553436919
 20
6.0946670827
 30
0.0
 10
11.5471540512
 20
6.0987210199
 30
0.0
 10
11.5377688301
 20
6.102707317
 30
0.0
 10
11.527212497
 20
6.1066168794
 30
0.0
 10
11.5155105194
 20
6.110439925
 30
0.0
 10
11.5026891694
 20
6.1141669018
 30
0.0
 10
11.4834919489
 20
6.1191616031
 30
0.0
 10
11.4568741913
 20
6.1250169176
 30
0.0
 10
11.4219558828
 20
6.1312999907
 30
0.0
 10
11.3834259289
 20
6.1370082307
 30
0.0
 10
11.3416721161
 20
6.1420842877
 30
0.0
 10
11.2970901482
 20
6.1464738367
 30
0.0
 10
11.2500942442
 20
6.1501171462
 30
0.0
 10
11.2011331099
 20
6.1529823575
 30
0.0
 10
11.1506870237
 20
6.1550543097
 30
0.0
 10
11.099250538
 20
6.1563124515
 30
0.0
 10
11.0646823902
 20
6.1565957644
 30
0.0
 10
11.0473183383
 20
6.1565957644
 30
0.0
  0
SPLINE
  5
439
100
AcDbEntity
  8
0
100
AcDbSpline
 62
7
  6
CONTINUOUS
 70
0
 71
3
 72
23
 73
19
 74
0
 42
0.0000001
 43
0.0000001
 44
0.0000000001
 40
0.0
 40
0.0
 40
0.0
 40
0.0
 40
0.0620070081
 40
0.1240496706
 40
0.1861414053
 40
0.2482945638
 40
0.3105195342
 40
0.3728238657
 40
0.4352126282
 40
0.4976863684
 40
0.5602466611
 40
0.6228915062
 40
0.6856142179
 40
0.7483984873
 40
0.8112391939
 40
0.8741455808
 40
0.9370986285
 40
1.0
 40
1.0
 40
1.0
 40
1.0
 10
11.5470011376
 20
3.8427670745
 30
0.0
 10
11.5452132614
 20
3.8278723578
 30
0.0
 10
11.5402609273
 20
3.7982207588
 30
0.0
 10
11.5287628996
 20
3.7546167735
 30
0.0
 10
11.5133057091
 20
3.7122124397
 30
0.0
 10
11.4939973843
 20
3.6713698994
 30
0.0
 10
11.47101646
 20
3.6324154238
 30
0.0
 10
11.4445351282
 20
3.5956805069
 30
0.0
 10
11.414786987
 20
3.5614579968
 30
0.0
 10
11.3820068165
 20
3.5300381767
 30
0.0
 10
11.3464712334
 20
3.5016734227
 30
0.0
 10
11.3084683261
 20
3.4766016447
 30
0.0
 10
11.2683147239
 20
3.4550287407
 30
0.0
 10
11.2263443642
 20
3.43712575
 30
0.0
 10
11.1828943997
 20
3.4230492836
 30
0.0
 10
11.1383183936
 20
3.4129074385
 30
0.0
 10
11.093002508
 20
3.4067998542
 30
0.0
 10
11.0625368855
 20
3.4054301991
 30
0.0
 10
11.047318872
 20
3.4054301991
 30
0.0
  0
ENDSEC
  0
SECTION
  2
OBJECTS
  0
DICTIONARY
  5
C
100
AcDbDictionary
280
0
281
1
  3
ACAD_GROUP
350
D
  3
ACAD_MLINESTYLE
350
17
  3
ACAD_LAYOUT
350
1A
  3
ACAD_PLOTSETTINGS
350
19
  3
ACAD_PLOTSTYLENAME
350
E
  0
DICTIONARY
  5
D
102
{ACAD_REACTORS
330
C
102
}
100
AcDbDictionary
280
0
281
1
  0
ACDBDICTIONARYWDFLT
  5
E
102
{ACAD_REACTORS
330
C
102
}
100
AcDbDictionary
281
1
  3
Normal
350
F
100
AcDbDictionaryWithDefault
340
F
  0
DICTIONARY
  5
17
102
{ACAD_REACTORS
330
C
102
}
100
AcDbDictionary
280
0
281
1
  3
Standard
350
18
  0
DICTIONARY
  5
19
102
{ACAD_REACTORS
330
C
102
}
100
AcDbDictionary
281
1
  0
DICTIONARY
  5
1A
102
{ACAD_REACTORS
330
C
102
}
100
AcDbDictionary
281
1
  3
Model
350
43A
  3
Layout1
350
43B
  0
ACDBPLACEHOLDER
  5
F
102
{ACAD_REACTORS
330
E
102
}
  0
MLINESTYLE
  5
18
102
{ACAD_REACTORS
330
17
102
}
100
AcDbMlineStyle
  2
STANDARD
 70
0
  3

 62
256
 51
90.0
 52
90.0
 71
2
 49
0.5
 62
256
  6
BYLAYER
 49
-0.5
 62
256
  6
BYLAYER
  0
LAYOUT
  5
43A
102
{ACAD_REACTORS
330
1A
102
}
100
AcDbPlotSettings
  1

  2
none_device
  4
ANSI_C_(22.00_x_17.00_Inches)
  6

 40
0.0
 41
0.0
 42
0.0
 43
0.0
 44
558.8
 45
431.8
 46
0.0
 47
0.0
 48
0.0
 49
0.0
140
0.0
141
0.0
142
1.0
143
1.0
 70
1024
 72
0
 73
0
 74
0
  7

 75
0
147
1.0
148
0.0
149
0.0
100
AcDbLayout
  1
Model
 70
0
 71
0
 10
0.0
 20
0.0
 11
22.0
 21
17.0
 12
0.0
 22
0.0
 32
0.0
 14
0.0
 24
0.0
 34
0.0
 15
0.0
 25
0.0
 35
0.0
146
0.0
 13
0.0
 23
0.0
 33
0.0
 16
1.0
 26
0.0
 36
0.0
 17
0.0
 27
1.0
 37
0.0
 76
0
330
202
345
0
346
0
  0
LAYOUT
  5
43B
102
{ACAD_REACTORS
330
1A
102
}
100
AcDbPlotSettings
  1

  2
none_device
  4
ANSI_C_(22.00_x_17.00_Inches)
  6

 40
0.0
 41
0.0
 42
0.0
 43
0.0
 44
558.8
 45
431.8
 46
0.0
 47
0.0
 48
0.0
 49
0.0
140
0.0
141
0.0
142
1.0
143
1.0
 70
0
 72
0
 73
0
 74
0
  7

 75
0
147
1.0
148
0.0
149
0.0
100
AcDbLayout
  1
Layout1
 70
0
 71
1
 10
0.0
 20
0.0
 11
22.0
 21
17.0
 12
0.0
 22
0.0
 32
0.0
 14
0.0
 24
0.0
 34
0.0
 15
0.0
 25
0.0
 35
0.0
146
0.0
 13
0.0
 23
0.0
 33
0.0
 16
1.0
 26
0.0
 36
0.0
 17
0.0
 27
1.0
 37
0.0
 76
0
330
203
345
0
346
0
  0
ENDSEC
  0
EOF
