999
DXF file: E:\BT Custom\CADOUTPUT\_RIGHT.dxf
999
Pro/ENGINEER 2018400 by Parametric Technology Corporation
  0
SECTION
  2
HEADER
  9
$ACADVER
  1
AC1018
  9
$DWGCODEPAGE
  3
ANSI_1252
  9
$EXTMAX
 10
22.0
 20
17.0
 30
0.0
  9
$EXTMIN
 10
0.0
 20
0.0
 30
0.0
  9
$LIMMIN
 10
0.0
 20
0.0
  9
$LIMMAX
 10
22.0
 20
17.0
  9
$VIEWCTR
 10
11.0
 20
8.5
  9
$VIEWSIZE
 40
17.0
  9
$CLAYER
  8
0
  9
$LTSCALE
 40
1.21
  9
$CELTYPE
  6
BYLAYER
  9
$DIMSCALE
 40
1.0
  9
$DIMASZ
 40
0.1
  9
$DIMEXO
 40
0.0625
  9
$DIMDLI
 40
0.836
  9
$DIMEXE
 40
0.125
  9
$DIMCEN
 40
0.198
  9
$DIMLFAC
 40
1.0
  9
$DIMBLK
  1
_FILLED
  9
$DIMALT
 70
1
  9
$DIMALTD
 70
2
  9
$DIMALTTD
 70
2
  9
$DIMALTF
 40
25.4
  9
$DIMTXT
 40
0.08
  9
$DIMTOL
 70
1
  9
$DIMLIM
 70
0
  9
$DIMTFAC
 40
1.0
  9
$DIMTP
 40
0.001
  9
$DIMTM
 40
0.001
  9
$DIMGAP
 40
0.09
  9
$DIMDSEP
 70
46
  9
$AUNITS
 70
0
  9
$PDMODE
 70
3
  9
$PDSIZE
 40
0.06
  9
$HANDSEED
  5
54A
  9
$TILEMODE
 70
1
  9
$MEASUREMENT
 70
0
  9
$INSUNITS
 70
1
  0
ENDSEC
  0
SECTION
  2
CLASSES
  0
CLASS
  1
ACDBDICTIONARYWDFLT
  2
AcDbDictionaryWithDefault
  3
AutoCAD 2000
 90
0
 91
1
280
0
281
0
  0
CLASS
  1
ACDBPLACEHOLDER
  2
AcDbPlaceHolder
  3
AutoCAD 2000
 90
0
 91
1
280
0
281
0
  0
CLASS
  1
LAYOUT
  2
AcDbLayout
  3
AutoCAD 2000
 90
0
 91
0
280
0
281
0
  0
ENDSEC
  0
SECTION
  2
TABLES
  0
TABLE
  2
VPORT
  5
8
100
AcDbSymbolTable
 70
2
  0
VPORT
  5
1F4
100
AcDbSymbolTableRecord
100
AcDbViewportTableRecord
  2
*ACTIVE
 70
0
 10
0.0
 20
0.0
 11
1.0
 21
1.0
 12
11.0
 22
8.5
 13
0.0
 23
0.0
 14
1.0
 24
1.0
 15
0.0
 25
0.0
 16
0.0
 26
0.0
 36
1.0
 17
0.0
 27
0.0
 37
0.0
 40
17.0
 41
1.2941176471
 42
50.0
 43
0.0
 44
0.0
 50
0.0
 51
0.0
 71
0
 72
100
 73
1
 74
1
 75
0
 76
0
 77
0
 78
0
  0
ENDTAB
  0
TABLE
  2
LTYPE
  5
5
100
AcDbSymbolTable
 70
6
  0
LTYPE
  5
14
100
AcDbSymbolTableRecord
100
AcDbLinetypeTableRecord
  2
BYBLOCK
 70
0
  3

 72
65
 73
0
 40
0.0
  0
LTYPE
  5
15
100
AcDbSymbolTableRecord
100
AcDbLinetypeTableRecord
  2
BYLAYER
 70
0
  3

 72
65
 73
0
 40
0.0
  0
LTYPE
  5
16
100
AcDbSymbolTableRecord
100
AcDbLinetypeTableRecord
  2
CONTINUOUS
 70
64
  3
Solid line
 72
65
 73
0
 40
0.0
  0
LTYPE
  5
1F5
100
AcDbSymbolTableRecord
100
AcDbLinetypeTableRecord
  2
CENTER
 70
64
  3
____ _ ____ _ ____ _ ____ _ ____ _ ____ _ ____
 72
65
 73
4
 40
0.6
 49
0.375
 74
0
 49
-0.075
 74
0
 49
0.075
 74
0
 49
-0.075
 74
0
  0
LTYPE
  5
1F6
100
AcDbSymbolTableRecord
100
AcDbLinetypeTableRecord
  2
HIDDEN
 70
64
  3
- - - - - - - - - - - - - - - - - - - -
 72
65
 73
2
 40
0.2
 49
0.1
 74
0
 49
-0.1
 74
0
  0
LTYPE
  5
1F7
100
AcDbSymbolTableRecord
100
AcDbLinetypeTableRecord
  2
PHANTOM
 70
64
  3
_____ _ _ _____ _ _ _____ _ _ _____
 72
65
 73
6
 40
0.8
 49
0.45
 74
0
 49
-0.05
 74
0
 49
0.1
 74
0
 49
-0.05
 74
0
 49
0.1
 74
0
 49
-0.05
 74
0
  0
LTYPE
  5
1F8
100
AcDbSymbolTableRecord
100
AcDbLinetypeTableRecord
  2
DOT
 70
64
  3
. . . . . . . . . . . . . . . . . . . .
 72
65
 73
2
 40
0.2
 49
0.1
 74
0
 49
-0.1
 74
0
  0
LTYPE
  5
1F9
100
AcDbSymbolTableRecord
100
AcDbLinetypeTableRecord
  2
DASHED
 70
64
  3
- - - - - - - - - - - - - - - - - - - -
 72
65
 73
2
 40
0.2
 49
0.1
 74
0
 49
-0.1
 74
0
  0
ENDTAB
  0
TABLE
  2
LAYER
  5
2
100
AcDbSymbolTable
 70
36
  0
LAYER
  5
10
100
AcDbSymbolTableRecord
100
AcDbLayerTableRecord
  2
0
 70
0
 62
7
  6
CONTINUOUS
370
-3
390
F
  0
LAYER
  5
1FA
100
AcDbSymbolTableRecord
100
AcDbLayerTableRecord
  2
DEFAULT_1
 70
0
 62
7
  6
CENTER
370
-3
390
F
  0
LAYER
  5
1FB
100
AcDbSymbolTableRecord
100
AcDbLayerTableRecord
  2
DEFAULT_2
 70
0
 62
8
  6
HIDDEN
370
-3
390
F
  0
LAYER
  5
1FC
100
AcDbSymbolTableRecord
100
AcDbLayerTableRecord
  2
DEFAULT_3
 70
0
 62
7
  6
PHANTOM
370
-3
390
F
  0
LAYER
  5
1FD
100
AcDbSymbolTableRecord
100
AcDbLayerTableRecord
  2
ALL_FEATURES
 70
0
 62
7
  6
CONTINUOUS
370
-3
390
F
  0
LAYER
  5
1FE
100
AcDbSymbolTableRecord
100
AcDbLayerTableRecord
  2
AXES_FEATURES
 70
0
 62
7
  6
CONTINUOUS
370
-3
390
F
  0
LAYER
  5
1FF
100
AcDbSymbolTableRecord
100
AcDbLayerTableRecord
  2
DIMENSIONS
 70
0
 62
7
  6
CONTINUOUS
370
-3
390
F
  0
ENDTAB
  0
TABLE
  2
STYLE
  5
3
100
AcDbSymbolTable
 70
1
  0
STYLE
  5
11
100
AcDbSymbolTableRecord
100
AcDbTextStyleTableRecord
  2
STANDARD
 70
0
 40
0.0
 41
0.8
 50
0.0
 71
0
 42
0.2
  3
txt
  4

  0
STYLE
  5
200
100
AcDbSymbolTableRecord
100
AcDbTextStyleTableRecord
  2
TEXTSTYLE_1
 70
0
 40
0.0
 41
0.8
 50
0.0
 71
0
 42
0.2
  3
gdt
  4

  0
ENDTAB
  0
TABLE
  2
VIEW
  5
6
100
AcDbSymbolTable
 70
0
  0
ENDTAB
  0
TABLE
  2
UCS
  5
7
100
AcDbSymbolTable
 70
0
  0
ENDTAB
  0
TABLE
  2
APPID
  5
9
100
AcDbSymbolTable
 70
1
  0
APPID
  5
201
100
AcDbSymbolTableRecord
100
AcDbRegAppTableRecord
  2
ACAD
 70
0
  0
ENDTAB
  0
TABLE
  2
BLOCK_RECORD
  5
1
100
AcDbSymbolTable
 70
0
  0
BLOCK_RECORD
  5
202
100
AcDbSymbolTableRecord
100
AcDbBlockTableRecord
  2
*Model_Space
  0
BLOCK_RECORD
  5
203
100
AcDbSymbolTableRecord
100
AcDbBlockTableRecord
  2
*Paper_Space
  0
BLOCK_RECORD
  5
204
100
AcDbSymbolTableRecord
100
AcDbBlockTableRecord
  2
_FILLED
  0
ENDTAB
  0
TABLE
  2
DIMSTYLE
  5
A
100
AcDbSymbolTable
 70
1
100
AcDbDimStyleTable
 71
0
  0
DIMSTYLE
105
205
100
AcDbSymbolTableRecord
100
AcDbDimStyleTableRecord
  2
STANDARD
 70
0
  3

  4

 40
1.0
 41
0.1
 42
0.0625
 43
0.38
 44
0.125
 45
0.0
 46
0.0
 47
0.001
 48
0.001
140
0.08
141
0.09
142
0.0
143
25.4
144
1.0
145
0.0
146
1.0
147
0.09
 71
1.0
 72
0.0
 73
1
 74
1
 75
0
 76
0
 77
0
 78
4
 79
1
170
1
171
2
172
0
173
0
174
0
175
0
176
0
177
0
178
0
270
2
179
3
271
3
272
3
273
2
274
2
275
0
280
0
281
0
282
0
283
1
284
4
285
0
286
0
287
3
288
0
340
11
278
46
341
204
342
204
343
204
344
204
  0
ENDTAB
  0
ENDSEC
  0
SECTION
  2
BLOCKS
  0
BLOCK
  5
20
100
AcDbEntity
  8
0
100
AcDbBlockBegin
  2
*Model_Space
 70
0
 10
0.0
 20
0.0
 30
0.0
  3
*Model_Space
  1

  0
ENDBLK
  5
21
100
AcDbEntity
  8
0
100
AcDbBlockEnd
  0
BLOCK
  5
1C
100
AcDbEntity
  8
0
100
AcDbBlockBegin
  2
*Paper_Space
 70
0
 10
0.0
 20
0.0
 30
0.0
  3
*Paper_Space
  1

  0
ENDBLK
  5
1D
100
AcDbEntity
  8
0
100
AcDbBlockEnd
  0
BLOCK
  5
206
100
AcDbEntity
  8
0
100
AcDbBlockBegin
  2
_FILLED
 70
64
 10
0.0
 20
0.0
  3
_FILLED
  1

  0
SOLID
  5
207
100
AcDbEntity
  8
0
  6
BYBLOCK
 62
0
100
AcDbTrace
 10
0.0
 20
0.0
 11
-1.0
 21
0.2
 12
-1.0
 22
-0.2
 13
-1.0
 23
-0.2
  0
ENDBLK
  5
208
100
AcDbEntity
  8
0
  6
BYBLOCK
 62
0
100
AcDbBlockEnd
  0
ENDSEC
  0
SECTION
  2
ENTITIES
  0
LINE
  5
209
100
AcDbEntity
  8
0
100
AcDbLine
 62
7
  6
CONTINUOUS
 10
-0.3625165177
 20
6.787391804
 11
-0.3625165177
 21
6.867391804
  0
LINE
  5
20A
100
AcDbEntity
  8
0
100
AcDbLine
 62
7
  6
CONTINUOUS
 10
0.5624834823
 20
6.787391804
 11
0.5624834823
 21
6.867391804
  0
LWPOLYLINE
  5
20B
100
AcDbEntity
  8
0
100
AcDbPolyline
 62
7
  6
CONTINUOUS
 90
3
 70
0
 10
3.7681352273
 20
7.3876571384
 10
3.7685164339
 20
7.3819009685
 10
3.7693077691
 20
7.3764708713
  0
LWPOLYLINE
  5
20C
100
AcDbEntity
  8
0
100
AcDbPolyline
 62
7
  6
CONTINUOUS
 90
5
 70
0
 10
3.6898337949
 20
7.3903918214
 10
3.690049316
 20
7.386695331
 10
3.6920044613
 20
7.3788910391
 10
3.696068705
 20
7.3716606951
 10
3.702197284
 20
7.3656915299
  0
LWPOLYLINE
  5
20D
100
AcDbEntity
  8
0
100
AcDbPolyline
 62
7
  6
CONTINUOUS
 90
4
 70
0
 10
3.6983075619
 20
7.3903918198
 10
3.6985177863
 20
7.3865120958
 10
3.7002281207
 20
7.3788988889
 10
3.703856429
 20
7.3716444694
  0
LINE
  5
20E
100
AcDbEntity
  8
0
100
AcDbLine
 62
7
  6
CONTINUOUS
 10
3.7144079407
 20
7.390391818
 11
3.7145988016
 21
7.3863601749
  0
LINE
  5
20F
100
AcDbEntity
  8
0
100
AcDbLine
 62
7
  6
CONTINUOUS
 10
3.737821563
 20
7.3903918161
 11
3.737966579
 21
7.3863820728
  0
LWPOLYLINE
  5
210
100
AcDbEntity
  8
0
100
AcDbPolyline
 62
7
  6
CONTINUOUS
 90
4
 70
0
 10
3.8046412236
 20
7.3880869715
 10
3.8047409509
 20
7.3825336423
 10
3.8049479105
 20
7.3774921421
 10
3.8052406204
 20
7.3734520341
  0
LINE
  5
211
100
AcDbEntity
  8
0
100
AcDbLine
 62
7
  6
CONTINUOUS
 10
3.7680927152
 20
7.3903918141
 11
3.7681352273
 21
7.3876571384
  0
LINE
  5
212
100
AcDbEntity
  8
0
100
AcDbLine
 62
7
  6
CONTINUOUS
 10
3.5299834823
 20
6.3847018861
 11
3.5299834823
 21
6.367391804
  0
LINE
  5
213
100
AcDbEntity
  8
0
100
AcDbLine
 62
7
  6
CONTINUOUS
 10
3.6885139996
 20
7.428391804
 11
3.6885139996
 21
7.390391804
  0
LINE
  5
214
100
AcDbEntity
  8
0
100
AcDbLine
 62
7
  6
CONTINUOUS
 10
3.6898328352
 20
7.428391804
 11
3.6898328352
 21
7.3903918171
  0
LINE
  5
215
100
AcDbEntity
  8
0
100
AcDbLine
 62
9
  6
CONTINUOUS
 10
3.6898659008
 20
7.390391804
 11
3.6898659008
 21
7.428391804
  0
LINE
  5
216
100
AcDbEntity
  8
0
100
AcDbLine
 62
9
  6
CONTINUOUS
 10
3.691820931
 20
7.428391804
 11
3.691820931
 21
7.390391804
  0
LINE
  5
217
100
AcDbEntity
  8
0
100
AcDbLine
 62
9
  6
CONTINUOUS
 10
3.6959381861
 20
7.428391804
 11
3.6959381861
 21
7.390391804
  0
LINE
  5
218
100
AcDbEntity
  8
0
100
AcDbLine
 62
7
  6
CONTINUOUS
 10
3.698306819
 20
7.428391804
 11
3.698306819
 21
7.3903918171
  0
LINE
  5
219
100
AcDbEntity
  8
0
100
AcDbLine
 62
9
  6
CONTINUOUS
 10
3.6985475375
 20
7.390391804
 11
3.6985475375
 21
7.428391804
  0
LINE
  5
21A
100
AcDbEntity
  8
0
100
AcDbLine
 62
9
  6
CONTINUOUS
 10
3.7030722822
 20
7.428391804
 11
3.7030722822
 21
7.390391804
  0
LINE
  5
21B
100
AcDbEntity
  8
0
100
AcDbLine
 62
9
  6
CONTINUOUS
 10
3.7080974472
 20
7.428391804
 11
3.7080974472
 21
7.390391804
  0
LINE
  5
21C
100
AcDbEntity
  8
0
100
AcDbLine
 62
7
  6
CONTINUOUS
 10
3.7097765344
 20
7.3642550553
 11
3.7097765344
 21
7.3653995689
  0
LINE
  5
21D
100
AcDbEntity
  8
0
100
AcDbLine
 62
7
  6
CONTINUOUS
 10
3.7144074087
 20
7.428391804
 11
3.7144074087
 21
7.3903918171
  0
LINE
  5
21E
100
AcDbEntity
  8
0
100
AcDbLine
 62
9
  6
CONTINUOUS
 10
3.7150426682
 20
7.390391804
 11
3.7150426682
 21
7.428391804
  0
LINE
  5
21F
100
AcDbEntity
  8
0
100
AcDbLine
 62
9
  6
CONTINUOUS
 10
3.7220490584
 20
7.428391804
 11
3.7220490584
 21
7.390391804
  0
LINE
  5
220
100
AcDbEntity
  8
0
100
AcDbLine
 62
7
  6
CONTINUOUS
 10
3.7231496694
 20
7.3642550553
 11
3.7231496694
 21
7.3667238937
  0
LINE
  5
221
100
AcDbEntity
  8
0
100
AcDbLine
 62
9
  6
CONTINUOUS
 10
3.7278843242
 20
7.428391804
 11
3.7278843242
 21
7.390391804
  0
LINE
  5
222
100
AcDbEntity
  8
0
100
AcDbLine
 62
7
  6
CONTINUOUS
 10
3.7378212246
 20
7.428391804
 11
3.7378212246
 21
7.3903918171
  0
LINE
  5
223
100
AcDbEntity
  8
0
100
AcDbLine
 62
9
  6
CONTINUOUS
 10
3.739030234
 20
7.390391804
 11
3.739030234
 21
7.428391804
  0
LINE
  5
224
100
AcDbEntity
  8
0
100
AcDbLine
 62
7
  6
CONTINUOUS
 10
3.743857446
 20
7.3642550553
 11
3.743857446
 21
7.3679651536
  0
LINE
  5
225
100
AcDbEntity
  8
0
100
AcDbLine
 62
7
  6
CONTINUOUS
 10
3.7454834823
 20
7.330466851
 11
3.7454834823
 21
7.035391804
  0
LINE
  5
226
100
AcDbEntity
  8
0
100
AcDbLine
 62
9
  6
CONTINUOUS
 10
3.7483818982
 20
7.428391804
 11
3.7483818982
 21
7.390391804
  0
LINE
  5
227
100
AcDbEntity
  8
0
100
AcDbLine
 62
9
  6
CONTINUOUS
 10
3.754913688
 20
7.4283918041
 11
3.754913688
 21
7.390391804
  0
LINE
  5
228
100
AcDbEntity
  8
0
100
AcDbLine
 62
7
  6
CONTINUOUS
 10
3.7680925434
 20
7.428391804
 11
3.7680925434
 21
7.3903918171
  0
LINE
  5
229
100
AcDbEntity
  8
0
100
AcDbLine
 62
9
  6
CONTINUOUS
 10
3.7700433442
 20
7.390391804
 11
3.7700433442
 21
7.428391804
  0
LINE
  5
22A
100
AcDbEntity
  8
0
100
AcDbLine
 62
7
  6
CONTINUOUS
 10
3.7714968107
 20
7.3642550553
 11
3.7714968107
 21
7.3718168077
  0
LINE
  5
22B
100
AcDbEntity
  8
0
100
AcDbLine
 62
9
  6
CONTINUOUS
 10
3.781558263
 20
7.428391804
 11
3.781558263
 21
7.390391804
  0
LINE
  5
22C
100
AcDbEntity
  8
0
100
AcDbLine
 62
7
  6
CONTINUOUS
 10
3.7705975287
 20
7.3714406706
 11
3.7726891494
 21
7.3667988955
  0
LINE
  5
22D
100
AcDbEntity
  8
0
100
AcDbLine
 62
7
  6
CONTINUOUS
 10
3.7693077691
 20
7.3764708713
 11
3.7705975287
 21
7.3714406706
  0
LWPOLYLINE
  5
22E
100
AcDbEntity
  8
0
100
AcDbPolyline
 62
7
  6
CONTINUOUS
 90
3
 70
0
 10
3.7145988016
 20
7.3863601749
 10
3.7160368289
 20
7.3788633103
 10
3.7191642356
 20
7.3715596949
  0
LWPOLYLINE
  5
22F
100
AcDbEntity
  8
0
100
AcDbPolyline
 62
7
  6
CONTINUOUS
 90
3
 70
0
 10
3.737966579
 20
7.3863820728
 10
3.7389972806
 20
7.3792295322
 10
3.7411352139
 20
7.3724819213
  0
LWPOLYLINE
  5
230
100
AcDbEntity
  8
0
100
AcDbPolyline
 62
7
  6
CONTINUOUS
 90
3
 70
0
 10
3.8052406204
 20
7.3734520341
 10
3.8056236632
 20
7.3703564606
 10
3.8057090172
 20
7.3698658831
  0
LWPOLYLINE
  5
231
100
AcDbEntity
  8
0
100
AcDbPolyline
 62
7
  6
CONTINUOUS
 90
3
 70
0
 10
4.4318185118
 20
7.4315211421
 10
4.4312747746
 20
7.4384187784
 10
4.4301449309
 20
7.4446510801
  0
LWPOLYLINE
  5
232
100
AcDbEntity
  8
0
100
AcDbPolyline
 62
7
  6
CONTINUOUS
 90
4
 70
0
 10
4.3950075465
 20
7.4414966744
 10
4.3947736111
 20
7.4448103405
 10
4.3945043749
 20
7.4473302795
 10
4.3942503127
 20
7.4489591513
  0
LINE
  5
233
100
AcDbEntity
  8
0
100
AcDbLine
 62
7
  6
CONTINUOUS
 10
4.5101330412
 20
7.4283918034
 11
4.5098979355
 21
7.4322525864
  0
LWPOLYLINE
  5
234
100
AcDbEntity
  8
0
100
AcDbPolyline
 62
7
  6
CONTINUOUS
 90
4
 70
0
 10
4.5016593027
 20
7.4283918038
 10
4.5014855598
 20
7.4319212379
 10
4.4998882999
 20
7.4394470019
 10
4.4965019141
 20
7.4465485841
  0
LINE
  5
235
100
AcDbEntity
  8
0
100
AcDbLine
 62
7
  6
CONTINUOUS
 10
4.4855589527
 20
7.4283918042
 11
4.485381789
 21
7.4322779716
  0
LINE
  5
236
100
AcDbEntity
  8
0
100
AcDbLine
 62
7
  6
CONTINUOUS
 10
4.4621453566
 20
7.4283918046
 11
4.4619940799
 21
7.4324870673
  0
LINE
  5
237
100
AcDbEntity
  8
0
100
AcDbLine
 62
7
  6
CONTINUOUS
 10
4.4318742232
 20
7.428391805
 11
4.4318185118
 21
7.4315211421
  0
LWPOLYLINE
  5
238
100
AcDbEntity
  8
0
100
AcDbPolyline
 62
7
  6
CONTINUOUS
 90
4
 70
0
 10
4.3953347513
 20
7.4283918055
 10
4.39531602
 20
7.431708053
 10
4.3951983087
 20
7.4371509315
 10
4.3950075465
 20
7.4414966744
  0
LINE
  5
239
100
AcDbEntity
  8
0
100
AcDbLine
 62
9
  6
CONTINUOUS
 10
3.7886594429
 20
7.428391804
 11
3.7886594429
 21
7.390391804
  0
LINE
  5
23A
100
AcDbEntity
  8
0
100
AcDbLine
 62
7
  6
CONTINUOUS
 10
3.8046321684
 20
7.428391804
 11
3.8046412236
 21
7.3880869715
  0
LINE
  5
23B
100
AcDbEntity
  8
0
100
AcDbLine
 62
7
  6
CONTINUOUS
 10
3.8055297949
 20
7.3642550553
 11
3.8055297949
 21
7.3711150602
  0
LINE
  5
23C
100
AcDbEntity
  8
0
100
AcDbLine
 62
9
  6
CONTINUOUS
 10
3.8074783639
 20
7.390391804
 11
3.8074783639
 21
7.428391804
  0
LINE
  5
23D
100
AcDbEntity
  8
0
100
AcDbLine
 62
9
  6
CONTINUOUS
 10
3.8209324124
 20
7.428391804
 11
3.8209324124
 21
7.390391804
  0
LINE
  5
23E
100
AcDbEntity
  8
0
100
AcDbLine
 62
9
  6
CONTINUOUS
 10
3.8284647661
 20
7.428391804
 11
3.8284647661
 21
7.390391804
  0
LINE
  5
23F
100
AcDbEntity
  8
0
100
AcDbLine
 62
7
  6
CONTINUOUS
 10
3.8452939852
 20
7.3642550553
 11
3.8452939852
 21
7.4469668003
  0
LINE
  5
240
100
AcDbEntity
  8
0
100
AcDbLine
 62
9
  6
CONTINUOUS
 10
3.8467663511
 20
7.390391804
 11
3.8467663511
 21
7.428391804
  0
LINE
  5
241
100
AcDbEntity
  8
0
100
AcDbLine
 62
9
  6
CONTINUOUS
 10
3.850606663
 20
7.390391804
 11
3.850606663
 21
7.428391804
  0
LINE
  5
242
100
AcDbEntity
  8
0
100
AcDbLine
 62
9
  6
CONTINUOUS
 10
3.8657379736
 20
7.428391804
 11
3.8657379736
 21
7.390391804
  0
LINE
  5
243
100
AcDbEntity
  8
0
100
AcDbLine
 62
9
  6
CONTINUOUS
 10
3.8735548923
 20
7.4283918041
 11
3.8735548923
 21
7.390391804
  0
LINE
  5
244
100
AcDbEntity
  8
0
100
AcDbLine
 62
7
  6
CONTINUOUS
 10
3.8900154168
 20
7.3642550553
 11
3.8900154168
 21
7.4469668003
  0
LINE
  5
245
100
AcDbEntity
  8
0
100
AcDbLine
 62
9
  6
CONTINUOUS
 10
3.8938156284
 20
7.390391804
 11
3.8938156284
 21
7.428391804
  0
LINE
  5
246
100
AcDbEntity
  8
0
100
AcDbLine
 62
9
  6
CONTINUOUS
 10
3.8985887983
 20
7.390391804
 11
3.8985887983
 21
7.428391804
  0
LINE
  5
247
100
AcDbEntity
  8
0
100
AcDbLine
 62
9
  6
CONTINUOUS
 10
3.915102857
 20
7.428391804
 11
3.915102857
 21
7.390391804
  0
LINE
  5
248
100
AcDbEntity
  8
0
100
AcDbLine
 62
9
  6
CONTINUOUS
 10
3.9230521934
 20
7.428391804
 11
3.9230521934
 21
7.390391804
  0
LINE
  5
249
100
AcDbEntity
  8
0
100
AcDbLine
 62
7
  6
CONTINUOUS
 10
3.938823638
 20
7.3642550553
 11
3.938823638
 21
7.4469668003
  0
LINE
  5
24A
100
AcDbEntity
  8
0
100
AcDbLine
 62
9
  6
CONTINUOUS
 10
3.9448777284
 20
7.390391804
 11
3.9448777284
 21
7.428391804
  0
LINE
  5
24B
100
AcDbEntity
  8
0
100
AcDbLine
 62
9
  6
CONTINUOUS
 10
3.9504908519
 20
7.390391804
 11
3.9504908519
 21
7.428391804
  0
LINE
  5
24C
100
AcDbEntity
  8
0
100
AcDbLine
 62
9
  6
CONTINUOUS
 10
3.9680662316
 20
7.428391804
 11
3.9680662316
 21
7.390391804
  0
LINE
  5
24D
100
AcDbEntity
  8
0
100
AcDbLine
 62
9
  6
CONTINUOUS
 10
3.9759932608
 20
7.4283918041
 11
3.9759932608
 21
7.390391804
  0
LINE
  5
24E
100
AcDbEntity
  8
0
100
AcDbLine
 62
7
  6
CONTINUOUS
 10
3.9907686523
 20
7.3642550553
 11
3.9907686523
 21
7.4469668003
  0
LINE
  5
24F
100
AcDbEntity
  8
0
100
AcDbLine
 62
9
  6
CONTINUOUS
 10
3.9989587855
 20
7.390391804
 11
3.9989587855
 21
7.428391804
  0
LINE
  5
250
100
AcDbEntity
  8
0
100
AcDbLine
 62
9
  6
CONTINUOUS
 10
4.0053026096
 20
7.390391804
 11
4.0053026096
 21
7.428391804
  0
LINE
  5
251
100
AcDbEntity
  8
0
100
AcDbLine
 62
9
  6
CONTINUOUS
 10
4.0235972254
 20
7.428391804
 11
4.0235972254
 21
7.390391804
  0
LINE
  5
252
100
AcDbEntity
  8
0
100
AcDbLine
 62
9
  6
CONTINUOUS
 10
4.0313476568
 20
7.4283918041
 11
4.0313476568
 21
7.390391804
  0
LINE
  5
253
100
AcDbEntity
  8
0
100
AcDbLine
 62
7
  6
CONTINUOUS
 10
4.044839409
 20
7.3642550553
 11
4.044839409
 21
7.4469668003
  0
LINE
  5
254
100
AcDbEntity
  8
0
100
AcDbLine
 62
9
  6
CONTINUOUS
 10
4.0550061734
 20
7.390391804
 11
4.0550061734
 21
7.428391804
  0
LINE
  5
255
100
AcDbEntity
  8
0
100
AcDbLine
 62
9
  6
CONTINUOUS
 10
4.0619572228
 20
7.390391804
 11
4.0619572228
 21
7.428391804
  0
LINE
  5
256
100
AcDbEntity
  8
0
100
AcDbLine
 62
9
  6
CONTINUOUS
 10
4.0806149908
 20
7.428391804
 11
4.0806149908
 21
7.390391804
  0
LINE
  5
257
100
AcDbEntity
  8
0
100
AcDbLine
 62
9
  6
CONTINUOUS
 10
4.0880379711
 20
7.428391804
 11
4.0880379711
 21
7.390391804
  0
LINE
  5
258
100
AcDbEntity
  8
0
100
AcDbLine
 62
7
  6
CONTINUOUS
 10
4.0999834823
 20
7.3642550553
 11
4.0999834823
 21
7.4469668003
  0
LINE
  5
259
100
AcDbEntity
  8
0
100
AcDbLine
 62
9
  6
CONTINUOUS
 10
4.1119289935
 20
7.390391804
 11
4.1119289935
 21
7.428391804
  0
LINE
  5
25A
100
AcDbEntity
  8
0
100
AcDbLine
 62
9
  6
CONTINUOUS
 10
4.1193519738
 20
7.390391804
 11
4.1193519738
 21
7.428391804
  0
LINE
  5
25B
100
AcDbEntity
  8
0
100
AcDbLine
 62
9
  6
CONTINUOUS
 10
4.1380097419
 20
7.428391804
 11
4.1380097419
 21
7.390391804
  0
LINE
  5
25C
100
AcDbEntity
  8
0
100
AcDbLine
 62
9
  6
CONTINUOUS
 10
4.1449607912
 20
7.428391804
 11
4.1449607912
 21
7.390391804
  0
LINE
  5
25D
100
AcDbEntity
  8
0
100
AcDbLine
 62
7
  6
CONTINUOUS
 10
4.1551275557
 20
7.3642550553
 11
4.1551275557
 21
7.4469668003
  0
LINE
  5
25E
100
AcDbEntity
  8
0
100
AcDbLine
 62
9
  6
CONTINUOUS
 10
4.1686193078
 20
7.3903918041
 11
4.1686193078
 21
7.428391804
  0
LINE
  5
25F
100
AcDbEntity
  8
0
100
AcDbLine
 62
9
  6
CONTINUOUS
 10
4.1763697392
 20
7.390391804
 11
4.1763697392
 21
7.428391804
  0
LINE
  5
260
100
AcDbEntity
  8
0
100
AcDbLine
 62
9
  6
CONTINUOUS
 10
4.194664355
 20
7.428391804
 11
4.194664355
 21
7.390391804
  0
LINE
  5
261
100
AcDbEntity
  8
0
100
AcDbLine
 62
9
  6
CONTINUOUS
 10
4.2010081791
 20
7.428391804
 11
4.2010081791
 21
7.390391804
  0
LINE
  5
262
100
AcDbEntity
  8
0
100
AcDbLine
 62
7
  6
CONTINUOUS
 10
4.2091983123
 20
7.3642550553
 11
4.2091983123
 21
7.4469668003
  0
LINE
  5
263
100
AcDbEntity
  8
0
100
AcDbLine
 62
9
  6
CONTINUOUS
 10
4.2239737038
 20
7.3903918041
 11
4.2239737038
 21
7.428391804
  0
LINE
  5
264
100
AcDbEntity
  8
0
100
AcDbLine
 62
9
  6
CONTINUOUS
 10
4.231900733
 20
7.390391804
 11
4.231900733
 21
7.428391804
  0
LINE
  5
265
100
AcDbEntity
  8
0
100
AcDbLine
 62
9
  6
CONTINUOUS
 10
4.2494761127
 20
7.428391804
 11
4.2494761127
 21
7.390391804
  0
LINE
  5
266
100
AcDbEntity
  8
0
100
AcDbLine
 62
9
  6
CONTINUOUS
 10
4.2550892362
 20
7.428391804
 11
4.2550892362
 21
7.390391804
  0
LINE
  5
267
100
AcDbEntity
  8
0
100
AcDbLine
 62
7
  6
CONTINUOUS
 10
4.2611433266
 20
7.3642550553
 11
4.2611433266
 21
7.4469668003
  0
LINE
  5
268
100
AcDbEntity
  8
0
100
AcDbLine
 62
9
  6
CONTINUOUS
 10
4.2769147712
 20
7.390391804
 11
4.2769147712
 21
7.428391804
  0
LINE
  5
269
100
AcDbEntity
  8
0
100
AcDbLine
 62
9
  6
CONTINUOUS
 10
4.2848641076
 20
7.390391804
 11
4.2848641076
 21
7.428391804
  0
LINE
  5
26A
100
AcDbEntity
  8
0
100
AcDbLine
 62
9
  6
CONTINUOUS
 10
4.3013781664
 20
7.428391804
 11
4.3013781664
 21
7.390391804
  0
LINE
  5
26B
100
AcDbEntity
  8
0
100
AcDbLine
 62
9
  6
CONTINUOUS
 10
4.3061513362
 20
7.428391804
 11
4.3061513362
 21
7.390391804
  0
LINE
  5
26C
100
AcDbEntity
  8
0
100
AcDbLine
 62
7
  6
CONTINUOUS
 10
4.3099515478
 20
7.3642550553
 11
4.3099515478
 21
7.4469668003
  0
LINE
  5
26D
100
AcDbEntity
  8
0
100
AcDbLine
 62
9
  6
CONTINUOUS
 10
4.3264120723
 20
7.3903918041
 11
4.3264120723
 21
7.428391804
  0
LINE
  5
26E
100
AcDbEntity
  8
0
100
AcDbLine
 62
9
  6
CONTINUOUS
 10
4.3342289911
 20
7.390391804
 11
4.3342289911
 21
7.428391804
  0
LINE
  5
26F
100
AcDbEntity
  8
0
100
AcDbLine
 62
9
  6
CONTINUOUS
 10
4.3493603016
 20
7.428391804
 11
4.3493603016
 21
7.390391804
  0
LINE
  5
270
100
AcDbEntity
  8
0
100
AcDbLine
 62
9
  6
CONTINUOUS
 10
4.3532006135
 20
7.428391804
 11
4.3532006135
 21
7.390391804
  0
LINE
  5
271
100
AcDbEntity
  8
0
100
AcDbLine
 62
7
  6
CONTINUOUS
 10
4.3546729794
 20
7.3642550553
 11
4.3546729794
 21
7.4469668003
  0
LINE
  5
272
100
AcDbEntity
  8
0
100
AcDbLine
 62
9
  6
CONTINUOUS
 10
4.3715021985
 20
7.390391804
 11
4.3715021985
 21
7.428391804
  0
LINE
  5
273
100
AcDbEntity
  8
0
100
AcDbLine
 62
9
  6
CONTINUOUS
 10
4.3790345522
 20
7.390391804
 11
4.3790345522
 21
7.428391804
  0
LINE
  5
274
100
AcDbEntity
  8
0
100
AcDbLine
 62
9
  6
CONTINUOUS
 10
4.3924886007
 20
7.428391804
 11
4.3924886007
 21
7.390391804
  0
LINE
  5
275
100
AcDbEntity
  8
0
100
AcDbLine
 62
7
  6
CONTINUOUS
 10
4.3944371697
 20
7.3642550553
 11
4.3944371697
 21
7.3711893155
  0
LINE
  5
276
100
AcDbEntity
  8
0
100
AcDbLine
 62
7
  6
CONTINUOUS
 10
4.3953347962
 20
7.3903918041
 11
4.3953347962
 21
7.4283918044
  0
LINE
  5
277
100
AcDbEntity
  8
0
100
AcDbLine
 62
9
  6
CONTINUOUS
 10
4.4113075217
 20
7.390391804
 11
4.4113075217
 21
7.428391804
  0
LINE
  5
278
100
AcDbEntity
  8
0
100
AcDbLine
 62
9
  6
CONTINUOUS
 10
4.4184087016
 20
7.390391804
 11
4.4184087016
 21
7.428391804
  0
LINE
  5
279
100
AcDbEntity
  8
0
100
AcDbLine
 62
7
  6
CONTINUOUS
 10
4.4284701539
 20
7.3642550553
 11
4.4284701539
 21
7.3694302237
  0
LINE
  5
27A
100
AcDbEntity
  8
0
100
AcDbLine
 62
9
  6
CONTINUOUS
 10
4.4299236204
 20
7.428391804
 11
4.4299236204
 21
7.390391804
  0
LINE
  5
27B
100
AcDbEntity
  8
0
100
AcDbLine
 62
7
  6
CONTINUOUS
 10
4.4318744212
 20
7.3903918041
 11
4.4318744212
 21
7.4283918044
  0
LINE
  5
27C
100
AcDbEntity
  8
0
100
AcDbLine
 62
9
  6
CONTINUOUS
 10
4.4450532766
 20
7.3903918041
 11
4.4450532766
 21
7.428391804
  0
LINE
  5
27D
100
AcDbEntity
  8
0
100
AcDbLine
 62
9
  6
CONTINUOUS
 10
4.4515850664
 20
7.390391804
 11
4.4515850664
 21
7.428391804
  0
LINE
  5
27E
100
AcDbEntity
  8
0
100
AcDbLine
 62
7
  6
CONTINUOUS
 10
4.4544834823
 20
7.330466851
 11
4.4544834823
 21
7.035391804
  0
LINE
  5
27F
100
AcDbEntity
  8
0
100
AcDbLine
 62
7
  6
CONTINUOUS
 10
4.4561095186
 20
7.3642550553
 11
4.4561095186
 21
7.3680081488
  0
LINE
  5
280
100
AcDbEntity
  8
0
100
AcDbLine
 62
9
  6
CONTINUOUS
 10
4.4609367306
 20
7.428391804
 11
4.4609367306
 21
7.390391804
  0
LINE
  5
281
100
AcDbEntity
  8
0
100
AcDbLine
 62
7
  6
CONTINUOUS
 10
4.46214574
 20
7.3903918041
 11
4.46214574
 21
7.4283918044
  0
LINE
  5
282
100
AcDbEntity
  8
0
100
AcDbLine
 62
9
  6
CONTINUOUS
 10
4.4720826404
 20
7.3903918041
 11
4.4720826404
 21
7.428391804
  0
LINE
  5
283
100
AcDbEntity
  8
0
100
AcDbLine
 62
7
  6
CONTINUOUS
 10
4.4768172952
 20
7.3642550553
 11
4.4768172952
 21
7.3667580557
  0
LINE
  5
284
100
AcDbEntity
  8
0
100
AcDbLine
 62
9
  6
CONTINUOUS
 10
4.4779179063
 20
7.390391804
 11
4.4779179063
 21
7.428391804
  0
LINE
  5
285
100
AcDbEntity
  8
0
100
AcDbLine
 62
9
  6
CONTINUOUS
 10
4.4849242964
 20
7.428391804
 11
4.4849242964
 21
7.390391804
  0
LINE
  5
286
100
AcDbEntity
  8
0
100
AcDbLine
 62
7
  6
CONTINUOUS
 10
4.4855595559
 20
7.3903918041
 11
4.4855595559
 21
7.4283918044
  0
LINE
  5
287
100
AcDbEntity
  8
0
100
AcDbLine
 62
7
  6
CONTINUOUS
 10
4.4901904303
 20
7.3642550553
 11
4.4901904303
 21
7.3653719813
  0
LINE
  5
288
100
AcDbEntity
  8
0
100
AcDbLine
 62
9
  6
CONTINUOUS
 10
4.4918695175
 20
7.390391804
 11
4.4918695175
 21
7.428391804
  0
LINE
  5
289
100
AcDbEntity
  8
0
100
AcDbLine
 62
9
  6
CONTINUOUS
 10
4.4968946825
 20
7.390391804
 11
4.4968946825
 21
7.428391804
  0
LINE
  5
28A
100
AcDbEntity
  8
0
100
AcDbLine
 62
9
  6
CONTINUOUS
 10
4.5014194271
 20
7.428391804
 11
4.5014194271
 21
7.390391804
  0
LINE
  5
28B
100
AcDbEntity
  8
0
100
AcDbLine
 62
7
  6
CONTINUOUS
 10
4.5016601456
 20
7.3903918041
 11
4.5016601456
 21
7.4283918044
  0
LINE
  5
28C
100
AcDbEntity
  8
0
100
AcDbLine
 62
9
  6
CONTINUOUS
 10
4.5040287785
 20
7.3903918041
 11
4.5040287785
 21
7.428391804
  0
LINE
  5
28D
100
AcDbEntity
  8
0
100
AcDbLine
 62
9
  6
CONTINUOUS
 10
4.5081460336
 20
7.390391804
 11
4.5081460336
 21
7.428391804
  0
LINE
  5
28E
100
AcDbEntity
  8
0
100
AcDbLine
 62
9
  6
CONTINUOUS
 10
4.5101010638
 20
7.428391804
 11
4.5101010638
 21
7.390391804
  0
LINE
  5
28F
100
AcDbEntity
  8
0
100
AcDbLine
 62
7
  6
CONTINUOUS
 10
4.5101341294
 20
7.3903918041
 11
4.5101341294
 21
7.4283918044
  0
LINE
  5
290
100
AcDbEntity
  8
0
100
AcDbLine
 62
7
  6
CONTINUOUS
 10
4.511452965
 20
7.390391804
 11
4.511452965
 21
7.428391804
  0
LINE
  5
291
100
AcDbEntity
  8
0
100
AcDbLine
 62
7
  6
CONTINUOUS
 10
4.4318228622
 20
7.3873863183
 11
4.4318742494
 21
7.3903918019
  0
LINE
  5
292
100
AcDbEntity
  8
0
100
AcDbLine
 62
7
  6
CONTINUOUS
 10
3.7681575678
 20
7.4317657307
 11
3.7680927417
 21
7.4283918054
  0
LINE
  5
293
100
AcDbEntity
  8
0
100
AcDbLine
 62
7
  6
CONTINUOUS
 10
4.4619771378
 20
7.3860756949
 11
4.4621454019
 21
7.3903918036
  0
LINE
  5
294
100
AcDbEntity
  8
0
100
AcDbLine
 62
7
  6
CONTINUOUS
 10
3.7379926383
 20
7.4327435568
 11
3.7378216078
 21
7.4283918043
  0
LWPOLYLINE
  5
295
100
AcDbEntity
  8
0
100
AcDbPolyline
 62
7
  6
CONTINUOUS
 90
4
 70
0
 10
4.394992049
 20
7.3770186403
 10
4.395213146
 20
7.3821007442
 10
4.3953231242
 20
7.3877747523
 10
4.3953347564
 20
7.3903918002
  0
LINE
  5
296
100
AcDbEntity
  8
0
100
AcDbLine
 62
7
  6
CONTINUOUS
 10
3.7146083617
 20
7.4325223762
 11
3.7144080111
 21
7.4283918032
  0
LINE
  5
297
100
AcDbEntity
  8
0
100
AcDbLine
 62
7
  6
CONTINUOUS
 10
3.6985123599
 20
7.4322212663
 11
3.6983076607
 21
7.4283918022
  0
LWPOLYLINE
  5
298
100
AcDbEntity
  8
0
100
AcDbPolyline
 62
7
  6
CONTINUOUS
 90
5
 70
0
 10
3.8051219582
 20
7.443942253
 10
3.804915082
 20
7.4406760844
 10
3.8047482985
 20
7.4365005612
 10
3.8046477697
 20
7.4314162512
 10
3.8046322133
 20
7.4283918066
  0
LINE
  5
299
100
AcDbEntity
  8
0
100
AcDbLine
 62
7
  6
CONTINUOUS
 10
3.6901131917
 20
7.4325973459
 11
3.6898339219
 21
7.4283918012
  0
LINE
  5
29A
100
AcDbEntity
  8
0
100
AcDbLine
 62
7
  6
CONTINUOUS
 10
4.3946865966
 20
7.3730429878
 11
4.394992049
 21
7.3770186403
  0
LWPOLYLINE
  5
29B
100
AcDbEntity
  8
0
100
AcDbPolyline
 62
7
  6
CONTINUOUS
 90
4
 70
0
 10
3.8057188899
 20
7.4489711925
 10
3.8056267155
 20
7.4484455729
 10
3.8053564279
 20
7.4464569731
 10
3.8051219582
 20
7.443942253
  0
LWPOLYLINE
  5
29C
100
AcDbEntity
  8
0
100
AcDbPolyline
 62
7
  6
CONTINUOUS
 90
3
 70
0
 10
3.7698702836
 20
7.4448434828
 10
3.7687211271
 20
7.438645762
 10
3.7681575678
 20
7.4317657307
  0
LWPOLYLINE
  5
29D
100
AcDbEntity
  8
0
100
AcDbPolyline
 62
7
  6
CONTINUOUS
 90
3
 70
0
 10
3.741105159
 20
7.4462318818
 10
3.7390443984
 20
7.4397643052
 10
3.7379926383
 20
7.4327435568
  0
LINE
  5
29E
100
AcDbEntity
  8
0
100
AcDbLine
 62
7
  6
CONTINUOUS
 10
3.703856429
 20
7.3716444694
 11
3.7094465882
 21
7.3655934884
  0
LINE
  5
29F
100
AcDbEntity
  8
0
100
AcDbLine
 62
7
  6
CONTINUOUS
 10
3.7191642356
 20
7.3715596949
 11
3.7244378838
 21
7.3651608145
  0
LINE
  5
2A0
100
AcDbEntity
  8
0
100
AcDbLine
 62
7
  6
CONTINUOUS
 10
3.7726891494
 20
7.3667988955
 11
3.7735736176
 21
7.3654884714
  0
LINE
  5
2A1
100
AcDbEntity
  8
0
100
AcDbLine
 62
7
  6
CONTINUOUS
 10
3.7411352139
 20
7.3724819213
 11
3.7448681044
 21
7.3662882541
  0
LWPOLYLINE
  5
2A2
100
AcDbEntity
  8
0
100
AcDbPolyline
 62
7
  6
CONTINUOUS
 90
4
 70
0
 10
4.4589294149
 20
7.4460727771
 10
4.4554886524
 20
7.4520175635
 10
4.4499693313
 20
7.4567021843
 10
4.4456779117
 20
7.4581779619
  0
LWPOLYLINE
  5
2A3
100
AcDbEntity
  8
0
100
AcDbPolyline
 62
7
  6
CONTINUOUS
 90
4
 70
0
 10
4.4301449309
 20
7.4446510801
 10
4.4284584088
 20
7.4497110945
 10
4.4259590746
 20
7.4538470953
 10
4.4240415879
 20
7.4557516543
  0
LWPOLYLINE
  5
2A4
100
AcDbEntity
  8
0
100
AcDbPolyline
 62
7
  6
CONTINUOUS
 90
3
 70
0
 10
4.5098979355
 20
7.4322525864
 10
4.507843461
 20
7.4401903973
 10
4.5035673972
 20
7.4475491547
  0
LWPOLYLINE
  5
2A5
100
AcDbEntity
  8
0
100
AcDbPolyline
 62
7
  6
CONTINUOUS
 90
3
 70
0
 10
4.485381789
 20
7.4322779716
 10
4.484060731
 20
7.4394693149
 10
4.4813338316
 20
7.4462803022
  0
LWPOLYLINE
  5
2A6
100
AcDbEntity
  8
0
100
AcDbPolyline
 62
7
  6
CONTINUOUS
 90
3
 70
0
 10
4.4619940799
 20
7.4324870673
 10
4.4609696161
 20
7.4395544985
 10
4.4589294149
 20
7.4460727771
  0
LINE
  5
2A7
100
AcDbEntity
  8
0
100
AcDbLine
 62
7
  6
CONTINUOUS
 10
4.6699834823
 20
6.3847018861
 11
4.6699834823
 21
6.367391804
  0
LINE
  5
2A8
100
AcDbEntity
  8
0
100
AcDbLine
 62
7
  6
CONTINUOUS
 10
4.4853398565
 20
7.3860741723
 11
4.4855590244
 21
7.3903918052
  0
LINE
  5
2A9
100
AcDbEntity
  8
0
100
AcDbLine
 62
7
  6
CONTINUOUS
 10
4.5014227966
 20
7.3862775685
 11
4.5016594034
 21
7.3903918066
  0
LINE
  5
2AA
100
AcDbEntity
  8
0
100
AcDbLine
 62
7
  6
CONTINUOUS
 10
4.3942621576
 20
7.3698886739
 11
4.3946865966
 21
7.3730429878
  0
LWPOLYLINE
  5
2AB
100
AcDbEntity
  8
0
100
AcDbPolyline
 62
7
  6
CONTINUOUS
 90
3
 70
0
 10
4.430590725
 20
7.3761242056
 10
4.431416516
 20
7.3815790219
 10
4.4318228622
 20
7.3873863183
  0
LWPOLYLINE
  5
2AC
100
AcDbEntity
  8
0
100
AcDbPolyline
 62
7
  6
CONTINUOUS
 90
3
 70
0
 10
4.4587163451
 20
7.3722175752
 10
4.460903951
 20
7.3789376785
 10
4.4619771378
 20
7.3860756949
  0
LWPOLYLINE
  5
2AD
100
AcDbEntity
  8
0
100
AcDbPolyline
 62
7
  6
CONTINUOUS
 90
3
 70
0
 10
3.7187344274
 20
7.446466686
 10
3.7159694089
 20
7.4396902415
 10
3.7146083617
 20
7.4325223762
  0
LINE
  5
2AE
100
AcDbEntity
  8
0
100
AcDbLine
 62
7
  6
CONTINUOUS
 10
4.5035673972
 20
7.4475491547
 11
4.4971488363
 21
7.4535256637
  0
LINE
  5
2AF
100
AcDbEntity
  8
0
100
AcDbLine
 62
7
  6
CONTINUOUS
 10
3.7448681044
 20
7.3662882541
 11
3.7479359219
 21
7.3633802406
  0
LWPOLYLINE
  5
2B0
100
AcDbEntity
  8
0
100
AcDbPolyline
 62
7
  6
CONTINUOUS
 90
3
 70
0
 10
4.4965019141
 20
7.4465485841
 10
4.4912990555
 20
7.4525487667
 10
4.4845375015
 20
7.4566892121
  0
LINE
  5
2B1
100
AcDbEntity
  8
0
100
AcDbLine
 62
7
  6
CONTINUOUS
 10
4.4813338316
 20
7.4462803022
 11
4.4767770995
 21
7.4524702508
  0
LWPOLYLINE
  5
2B2
100
AcDbEntity
  8
0
100
AcDbPolyline
 62
7
  6
CONTINUOUS
 90
3
 70
0
 10
4.4806354519
 20
7.3712785525
 10
4.4838392571
 20
7.3785614415
 10
4.4853398565
 20
7.3860741723
  0
LWPOLYLINE
  5
2B3
100
AcDbEntity
  8
0
100
AcDbPolyline
 62
7
  6
CONTINUOUS
 90
3
 70
0
 10
4.4271214848
 20
7.3665466298
 10
4.4292609622
 20
7.3711210535
 10
4.430590725
 20
7.3761242056
  0
LWPOLYLINE
  5
2B4
100
AcDbEntity
  8
0
100
AcDbPolyline
 62
7
  6
CONTINUOUS
 90
3
 70
0
 10
3.69659799
 20
7.4477971564
 10
3.6922530805
 20
7.4405046002
 10
3.6901131917
 20
7.4325973459
  0
LINE
  5
2B5
100
AcDbEntity
  8
0
100
AcDbLine
 62
7
  6
CONTINUOUS
 10
3.7233063279
 20
7.452585335
 11
3.7187344274
 21
7.446466686
  0
LINE
  5
2B6
100
AcDbEntity
  8
0
100
AcDbLine
 62
7
  6
CONTINUOUS
 10
3.702197284
 20
7.3656915299
 11
3.7094867806
 21
7.361922535
  0
LINE
  5
2B7
100
AcDbEntity
  8
0
100
AcDbLine
 62
7
  6
CONTINUOUS
 10
3.7094465882
 20
7.3655934884
 11
3.7153325191
 21
7.3621341471
  0
LINE
  5
2B8
100
AcDbEntity
  8
0
100
AcDbLine
 62
7
  6
CONTINUOUS
 10
3.7244378838
 20
7.3651608145
 11
3.7282860453
 21
7.3625418425
  0
LWPOLYLINE
  5
2B9
100
AcDbEntity
  8
0
100
AcDbPolyline
 62
7
  6
CONTINUOUS
 90
3
 70
0
 10
4.4767770995
 20
7.4524702508
 10
4.4703792266
 20
7.4568636084
 10
4.4645677646
 20
7.4583294801
  0
LINE
  5
2BA
100
AcDbEntity
  8
0
100
AcDbLine
 62
7
  6
CONTINUOUS
 10
4.4549007432
 20
7.3660562539
 11
4.4587163451
 21
7.3722175752
  0
LINE
  5
2BB
100
AcDbEntity
  8
0
100
AcDbLine
 62
7
  6
CONTINUOUS
 10
4.4263970053
 20
7.3654933507
 11
4.4271214848
 21
7.3665466298
  0
LWPOLYLINE
  5
2BC
100
AcDbEntity
  8
0
100
AcDbPolyline
 62
7
  6
CONTINUOUS
 90
4
 70
0
 10
3.7087779587
 20
7.4526425991
 10
3.703579964
 20
7.4467252749
 10
3.7001635322
 20
7.4396981042
 10
3.6985123599
 20
7.4322212663
  0
LINE
  5
2BD
100
AcDbEntity
  8
0
100
AcDbLine
 62
7
  6
CONTINUOUS
 10
3.715333072
 20
7.3621361609
 11
3.7160946063
 21
7.3618730237
  0
LINE
  5
2BE
100
AcDbEntity
  8
0
100
AcDbLine
 62
7
  6
CONTINUOUS
 10
3.7282862454
 20
7.3625423239
 11
3.7300219507
 21
7.3618730237
  0
LWPOLYLINE
  5
2BF
100
AcDbEntity
  8
0
100
AcDbPolyline
 62
7
  6
CONTINUOUS
 90
3
 70
0
 10
4.4971488363
 20
7.4535256637
 10
4.4889634896
 20
7.4573345717
 10
4.4824881876
 20
7.4583665341
  0
LINE
  5
2C0
100
AcDbEntity
  8
0
100
AcDbLine
 62
7
  6
CONTINUOUS
 10
4.4753163843
 20
7.3649810561
 11
4.4806354519
 21
7.3712785525
  0
LWPOLYLINE
  5
2C1
100
AcDbEntity
  8
0
100
AcDbPolyline
 62
7
  6
CONTINUOUS
 90
4
 70
0
 10
4.4903761839
 20
7.3654802348
 10
4.4960030927
 20
7.3714876253
 10
4.499641819
 20
7.3786249264
 10
4.5014227966
 20
7.3862775685
  0
LWPOLYLINE
  5
2C2
100
AcDbEntity
  8
0
100
AcDbPolyline
 62
7
  6
CONTINUOUS
 90
4
 70
0
 10
3.775918645
 20
7.4557462164
 10
3.7740990131
 20
7.4539562864
 10
3.7715767634
 20
7.4498633283
 10
3.7698702836
 20
7.4448434828
  0
LWPOLYLINE
  5
2C3
100
AcDbEntity
  8
0
100
AcDbPolyline
 62
7
  6
CONTINUOUS
 90
5
 70
0
 10
4.4979222876
 20
7.365801881
 10
4.5039207056
 20
7.3716901954
 10
4.5079216421
 20
7.3787878337
 10
4.5098886909
 20
7.3864560266
 10
4.510133171
 20
7.3903918079
  0
LINE
  5
2C4
100
AcDbEntity
  8
0
100
AcDbLine
 62
7
  6
CONTINUOUS
 10
4.4520373271
 20
7.3633848902
 11
4.4549007432
 21
7.3660562539
  0
LINE
  5
2C5
100
AcDbEntity
  8
0
100
AcDbLine
 62
7
  6
CONTINUOUS
 10
3.7030612485
 20
7.4536887681
 11
3.69659799
 21
7.4477971564
  0
LINE
  5
2C6
100
AcDbEntity
  8
0
100
AcDbLine
 62
7
  6
CONTINUOUS
 10
3.70948702
 20
7.3619238191
 11
3.7096392221
 21
7.3618730237
  0
LINE
  5
2C7
100
AcDbEntity
  8
0
100
AcDbLine
 62
7
  6
CONTINUOUS
 10
3.7296607521
 20
7.4568949929
 11
3.7233063279
 21
7.452585335
  0
LINE
  5
2C8
100
AcDbEntity
  8
0
100
AcDbLine
 62
7
  6
CONTINUOUS
 10
-0.6900165177
 20
6.287391804
 11
0.8899834823
 21
6.287391804
  0
LINE
  5
2C9
100
AcDbEntity
  8
0
100
AcDbLine
 62
7
  6
CONTINUOUS
 10
3.4199834823
 20
6.287391804
 11
4.7799834823
 21
6.287391804
  0
LINE
  5
2CA
100
AcDbEntity
  8
0
100
AcDbLine
 62
7
  6
CONTINUOUS
 10
11.0449845835
 20
6.287391804
 11
13.1549823811
 21
6.287391804
  0
LINE
  5
2CB
100
AcDbEntity
  8
0
100
AcDbLine
 62
7
  6
CONTINUOUS
 10
20.0999834823
 20
6.287391804
 11
22.0999834823
 21
6.287391804
  0
LINE
  5
2CC
100
AcDbEntity
  8
0
100
AcDbLine
 62
9
  6
CONTINUOUS
 10
13.1549834823
 20
6.367391804
 11
11.0449834823
 21
6.367391804
  0
LINE
  5
2CD
100
AcDbEntity
  8
0
100
AcDbLine
 62
7
  6
CONTINUOUS
 10
4.6999834823
 20
6.367391804
 11
3.4999834823
 21
6.367391804
  0
LINE
  5
2CE
100
AcDbEntity
  8
0
100
AcDbLine
 62
9
  6
CONTINUOUS
 10
4.6699834823
 20
6.3847018861
 11
3.5299834823
 21
6.3847018861
  0
LINE
  5
2CF
100
AcDbEntity
  8
0
100
AcDbLine
 62
9
  6
CONTINUOUS
 10
4.6577436359
 20
6.399445751
 11
3.5422233287
 21
6.399445751
  0
LINE
  5
2D0
100
AcDbEntity
  8
0
100
AcDbLine
 62
7
  6
CONTINUOUS
 10
12.9849692055
 20
6.537391804
 11
11.2149977591
 21
6.537391804
  0
LINE
  5
2D1
100
AcDbEntity
  8
0
100
AcDbLine
 62
7
  6
CONTINUOUS
 10
12.9499834823
 20
6.607391804
 11
11.2499834823
 21
6.607391804
  0
LINE
  5
2D2
100
AcDbEntity
  8
0
100
AcDbLine
 62
9
  6
CONTINUOUS
 10
4.4030479832
 20
6.6268013247
 11
3.7969189814
 21
6.6268013247
  0
LINE
  5
2D3
100
AcDbEntity
  8
0
100
AcDbLine
 62
7
  6
CONTINUOUS
 10
4.3887107545
 20
6.637391804
 11
3.8112562101
 21
6.637391804
  0
LINE
  5
2D4
100
AcDbEntity
  8
0
100
AcDbLine
 62
9
  6
CONTINUOUS
 10
22.0999834823
 20
6.667391804
 11
20.0999834823
 21
6.667391804
  0
LINE
  5
2D5
100
AcDbEntity
  8
0
100
AcDbLine
 62
7
  6
CONTINUOUS
 10
22.0599834823
 20
6.707391804
 11
20.1399834823
 21
6.707391804
  0
LINE
  5
2D6
100
AcDbEntity
  8
0
100
AcDbLine
 62
7
  6
CONTINUOUS
 10
11.4350005171
 20
6.737391804
 11
12.7649664475
 21
6.737391804
  0
LINE
  5
2D7
100
AcDbEntity
  8
0
100
AcDbLine
 62
7
  6
CONTINUOUS
 10
4.4845375015
 20
7.4566892121
 11
4.4770731133
 21
7.4583585258
  0
LINE
  5
2D8
100
AcDbEntity
  8
0
100
AcDbLine
 62
7
  6
CONTINUOUS
 10
4.4716823165
 20
7.3625425783
 11
4.4753163843
 21
7.3649810561
  0
LINE
  5
2D9
100
AcDbEntity
  8
0
100
AcDbLine
 62
7
  6
CONTINUOUS
 10
4.4846349326
 20
7.3621343488
 11
4.4903761839
 21
7.3654802348
  0
LINE
  5
2DA
100
AcDbEntity
  8
0
100
AcDbLine
 62
7
  6
CONTINUOUS
 10
3.7112654049
 20
7.457406864
 11
3.7030612485
 21
7.4536887681
  0
LINE
  5
2DB
100
AcDbEntity
  8
0
100
AcDbLine
 62
7
  6
CONTINUOUS
 10
0.594983013
 20
6.787391804
 11
-0.3950160484
 21
6.787391804
  0
LINE
  5
2DC
100
AcDbEntity
  8
0
100
AcDbLine
 62
7
  6
CONTINUOUS
 10
12.7649834823
 20
6.809391804
 11
11.4349834823
 21
6.809391804
  0
LINE
  5
2DD
100
AcDbEntity
  8
0
100
AcDbLine
 62
9
  6
CONTINUOUS
 10
0.5624834823
 20
6.867391804
 11
-0.3625165177
 21
6.867391804
  0
LINE
  5
2DE
100
AcDbEntity
  8
0
100
AcDbLine
 62
7
  6
CONTINUOUS
 10
3.8834891071
 20
6.897391804
 11
4.3164778575
 21
6.897391804
  0
LINE
  5
2DF
100
AcDbEntity
  8
0
100
AcDbLine
 62
7
  6
CONTINUOUS
 10
11.4349834823
 20
6.965391804
 11
12.7649834823
 21
6.965391804
  0
LINE
  5
2E0
100
AcDbEntity
  8
0
100
AcDbLine
 62
9
  6
CONTINUOUS
 10
-0.3273046047
 20
7.0314943681
 11
0.5272715694
 21
7.0314943681
  0
LINE
  5
2E1
100
AcDbEntity
  8
0
100
AcDbLine
 62
7
  6
CONTINUOUS
 10
3.7454834823
 20
7.035391804
 11
4.4544834823
 21
7.035391804
  0
LINE
  5
2E2
100
AcDbEntity
  8
0
100
AcDbLine
 62
7
  6
CONTINUOUS
 10
12.7649664475
 20
7.037391804
 11
11.4350005171
 21
7.037391804
  0
LINE
  5
2E3
100
AcDbEntity
  8
0
100
AcDbLine
 62
7
  6
CONTINUOUS
 10
-0.3181849026
 20
7.037391804
 11
0.5181515405
 21
7.037391804
  0
LINE
  5
2E4
100
AcDbEntity
  8
0
100
AcDbLine
 62
9
  6
CONTINUOUS
 10
11.5399834823
 20
7.067391804
 11
12.6599834823
 21
7.067391804
  0
LINE
  5
2E5
100
AcDbEntity
  8
0
100
AcDbLine
 62
9
  6
CONTINUOUS
 10
4.4544834823
 20
7.330466851
 11
3.7454834823
 21
7.330466851
  0
LINE
  5
2E6
100
AcDbEntity
  8
0
100
AcDbLine
 62
9
  6
CONTINUOUS
 10
4.4829834823
 20
7.3604293275
 11
3.7169834823
 21
7.3604293275
  0
LINE
  5
2E7
100
AcDbEntity
  8
0
100
AcDbLine
 62
9
  6
CONTINUOUS
 10
3.6885139996
 20
7.3903918041
 11
3.6959381861
 21
7.3903918042
  0
LINE
  5
2E8
100
AcDbEntity
  8
0
100
AcDbLine
 62
9
  6
CONTINUOUS
 10
3.7144074087
 20
7.3903918171
 11
3.7278843242
 21
7.3903918041
  0
LINE
  5
2E9
100
AcDbEntity
  8
0
100
AcDbLine
 62
9
  6
CONTINUOUS
 10
3.698306819
 20
7.3903918171
 11
3.7080974472
 21
7.3903918041
  0
LINE
  5
2EA
100
AcDbEntity
  8
0
100
AcDbLine
 62
9
  6
CONTINUOUS
 10
3.7378212246
 20
7.3903918171
 11
3.754913688
 21
7.3903918041
  0
LINE
  5
2EB
100
AcDbEntity
  8
0
100
AcDbLine
 62
9
  6
CONTINUOUS
 10
3.7680925441
 20
7.3903918171
 11
3.7886594429
 21
7.3903918041
  0
LINE
  5
2EC
100
AcDbEntity
  8
0
100
AcDbLine
 62
9
  6
CONTINUOUS
 10
3.804632169
 20
7.3903918171
 11
3.8284647661
 21
7.3903918041
  0
LINE
  5
2ED
100
AcDbEntity
  8
0
100
AcDbLine
 62
9
  6
CONTINUOUS
 10
3.8467663511
 20
7.3903918171
 11
3.8735548923
 21
7.3903918041
  0
LINE
  5
2EE
100
AcDbEntity
  8
0
100
AcDbLine
 62
9
  6
CONTINUOUS
 10
3.8938156284
 20
7.3903918171
 11
3.9230521934
 21
7.3903918041
  0
LINE
  5
2EF
100
AcDbEntity
  8
0
100
AcDbLine
 62
9
  6
CONTINUOUS
 10
3.9448777284
 20
7.3903918171
 11
3.9759932608
 21
7.3903918041
  0
LINE
  5
2F0
100
AcDbEntity
  8
0
100
AcDbLine
 62
9
  6
CONTINUOUS
 10
3.9989587855
 20
7.3903918171
 11
4.0313476568
 21
7.3903918041
  0
LINE
  5
2F1
100
AcDbEntity
  8
0
100
AcDbLine
 62
9
  6
CONTINUOUS
 10
4.0550061734
 20
7.3903918171
 11
4.0880379711
 21
7.3903918041
  0
LINE
  5
2F2
100
AcDbEntity
  8
0
100
AcDbLine
 62
9
  6
CONTINUOUS
 10
4.1119289935
 20
7.3903918171
 11
4.1449607912
 21
7.3903918041
  0
LINE
  5
2F3
100
AcDbEntity
  8
0
100
AcDbLine
 62
9
  6
CONTINUOUS
 10
4.1686193078
 20
7.3903918171
 11
4.2010081791
 21
7.3903918041
  0
LINE
  5
2F4
100
AcDbEntity
  8
0
100
AcDbLine
 62
9
  6
CONTINUOUS
 10
4.2239737038
 20
7.3903918171
 11
4.2550892362
 21
7.3903918041
  0
LINE
  5
2F5
100
AcDbEntity
  8
0
100
AcDbLine
 62
9
  6
CONTINUOUS
 10
4.2769147712
 20
7.3903918171
 11
4.3061513362
 21
7.3903918041
  0
LINE
  5
2F6
100
AcDbEntity
  8
0
100
AcDbLine
 62
9
  6
CONTINUOUS
 10
4.3264120723
 20
7.3903918171
 11
4.3532006135
 21
7.3903918041
  0
LINE
  5
2F7
100
AcDbEntity
  8
0
100
AcDbLine
 62
9
  6
CONTINUOUS
 10
4.3715021985
 20
7.3903918171
 11
4.3953347957
 21
7.3903918041
  0
LINE
  5
2F8
100
AcDbEntity
  8
0
100
AcDbLine
 62
9
  6
CONTINUOUS
 10
4.4113075217
 20
7.3903918171
 11
4.4318744205
 21
7.3903918041
  0
LINE
  5
2F9
100
AcDbEntity
  8
0
100
AcDbLine
 62
9
  6
CONTINUOUS
 10
4.4450532766
 20
7.3903918171
 11
4.46214574
 21
7.3903918041
  0
LINE
  5
2FA
100
AcDbEntity
  8
0
100
AcDbLine
 62
9
  6
CONTINUOUS
 10
4.4918695175
 20
7.3903918171
 11
4.5016601456
 21
7.3903918041
  0
LINE
  5
2FB
100
AcDbEntity
  8
0
100
AcDbLine
 62
9
  6
CONTINUOUS
 10
4.5040287785
 20
7.3903918171
 11
4.511452965
 21
7.3903918171
  0
LINE
  5
2FC
100
AcDbEntity
  8
0
100
AcDbLine
 62
9
  6
CONTINUOUS
 10
4.4720826404
 20
7.3903918014
 11
4.4855595559
 21
7.3903918041
  0
LINE
  5
2FD
100
AcDbEntity
  8
0
100
AcDbLine
 62
9
  6
CONTINUOUS
 10
4.5016601456
 20
7.4283918044
 11
4.4918695175
 21
7.428391804
  0
LINE
  5
2FE
100
AcDbEntity
  8
0
100
AcDbLine
 62
9
  6
CONTINUOUS
 10
4.46214574
 20
7.4283918044
 11
4.4450532766
 21
7.428391804
  0
LINE
  5
2FF
100
AcDbEntity
  8
0
100
AcDbLine
 62
9
  6
CONTINUOUS
 10
4.4318744212
 20
7.4283918044
 11
4.4113075217
 21
7.428391804
  0
LINE
  5
300
100
AcDbEntity
  8
0
100
AcDbLine
 62
9
  6
CONTINUOUS
 10
4.3953347944
 20
7.4283918044
 11
4.3715021985
 21
7.428391804
  0
LINE
  5
301
100
AcDbEntity
  8
0
100
AcDbLine
 62
9
  6
CONTINUOUS
 10
4.3532006135
 20
7.4283918044
 11
4.3264120723
 21
7.428391804
  0
LINE
  5
302
100
AcDbEntity
  8
0
100
AcDbLine
 62
9
  6
CONTINUOUS
 10
4.3061513362
 20
7.4283918044
 11
4.2769147712
 21
7.428391804
  0
LINE
  5
303
100
AcDbEntity
  8
0
100
AcDbLine
 62
9
  6
CONTINUOUS
 10
4.2550892362
 20
7.4283918044
 11
4.2239737038
 21
7.428391804
  0
LINE
  5
304
100
AcDbEntity
  8
0
100
AcDbLine
 62
9
  6
CONTINUOUS
 10
4.2010081791
 20
7.4283918044
 11
4.1686193078
 21
7.428391804
  0
LINE
  5
305
100
AcDbEntity
  8
0
100
AcDbLine
 62
9
  6
CONTINUOUS
 10
4.1449607912
 20
7.4283918044
 11
4.1119289935
 21
7.428391804
  0
LINE
  5
306
100
AcDbEntity
  8
0
100
AcDbLine
 62
9
  6
CONTINUOUS
 10
4.0880379711
 20
7.4283918044
 11
4.0550061734
 21
7.428391804
  0
LINE
  5
307
100
AcDbEntity
  8
0
100
AcDbLine
 62
9
  6
CONTINUOUS
 10
4.0313476568
 20
7.4283918044
 11
3.9989587855
 21
7.428391804
  0
LINE
  5
308
100
AcDbEntity
  8
0
100
AcDbLine
 62
9
  6
CONTINUOUS
 10
3.9759932608
 20
7.4283918044
 11
3.9448777284
 21
7.428391804
  0
LINE
  5
309
100
AcDbEntity
  8
0
100
AcDbLine
 62
9
  6
CONTINUOUS
 10
3.9230521934
 20
7.4283918044
 11
3.8938156284
 21
7.428391804
  0
LINE
  5
30A
100
AcDbEntity
  8
0
100
AcDbLine
 62
9
  6
CONTINUOUS
 10
3.8735548923
 20
7.4283918044
 11
3.8467663511
 21
7.428391804
  0
LINE
  5
30B
100
AcDbEntity
  8
0
100
AcDbLine
 62
9
  6
CONTINUOUS
 10
3.8284647661
 20
7.4283918044
 11
3.8046321702
 21
7.428391804
  0
LINE
  5
30C
100
AcDbEntity
  8
0
100
AcDbLine
 62
9
  6
CONTINUOUS
 10
3.7886594429
 20
7.4283918044
 11
3.7680925434
 21
7.428391804
  0
LINE
  5
30D
100
AcDbEntity
  8
0
100
AcDbLine
 62
9
  6
CONTINUOUS
 10
3.754913688
 20
7.4283918044
 11
3.7378212246
 21
7.428391804
  0
LINE
  5
30E
100
AcDbEntity
  8
0
100
AcDbLine
 62
9
  6
CONTINUOUS
 10
3.7080974472
 20
7.4283918044
 11
3.698306819
 21
7.428391804
  0
LINE
  5
30F
100
AcDbEntity
  8
0
100
AcDbLine
 62
9
  6
CONTINUOUS
 10
3.6959381861
 20
7.4283918043
 11
3.6885139996
 21
7.4283918044
  0
LINE
  5
310
100
AcDbEntity
  8
0
100
AcDbLine
 62
9
  6
CONTINUOUS
 10
4.4720826404
 20
7.4283918039
 11
4.4855595557
 21
7.4283918044
  0
LINE
  5
311
100
AcDbEntity
  8
0
100
AcDbLine
 62
9
  6
CONTINUOUS
 10
4.5040287785
 20
7.4283918039
 11
4.511452965
 21
7.428391804
  0
LINE
  5
312
100
AcDbEntity
  8
0
100
AcDbLine
 62
9
  6
CONTINUOUS
 10
3.7278843242
 20
7.4283918217
 11
3.7144074088
 21
7.428391804
  0
LINE
  5
313
100
AcDbEntity
  8
0
100
AcDbLine
 62
7
  6
CONTINUOUS
 10
3.7184898762
 20
7.458391804
 11
4.4814770885
 21
7.458391804
  0
LINE
  5
314
100
AcDbEntity
  8
0
100
AcDbLine
 62
9
  6
CONTINUOUS
 10
21.9099834823
 20
7.497391804
 11
20.2899834823
 21
7.497391804
  0
LINE
  5
315
100
AcDbEntity
  8
0
100
AcDbLine
 62
7
  6
CONTINUOUS
 10
21.8699834823
 20
7.537391804
 11
20.3300172368
 21
7.537391804
  0
LINE
  5
316
100
AcDbEntity
  8
0
100
AcDbLine
 62
7
  6
CONTINUOUS
 10
4.4824882044
 20
7.4583665366
 11
4.4824515462
 21
7.4583680443
  0
LINE
  5
317
100
AcDbEntity
  8
0
100
AcDbLine
 62
7
  6
CONTINUOUS
 10
4.4770708558
 20
7.4583584034
 11
4.4768705746
 21
7.4583677462
  0
LINE
  5
318
100
AcDbEntity
  8
0
100
AcDbLine
 62
7
  6
CONTINUOUS
 10
4.464570839
 20
7.4583297571
 11
4.4639539478
 21
7.4583680443
  0
LINE
  5
319
100
AcDbEntity
  8
0
100
AcDbLine
 62
7
  6
CONTINUOUS
 10
4.4456853255
 20
7.4581792406
 11
4.4439530293
 21
7.4583678028
  0
LINE
  5
31A
100
AcDbEntity
  8
0
100
AcDbLine
 62
7
  6
CONTINUOUS
 10
4.4904798383
 20
7.3619224181
 11
4.4979222876
 21
7.365801881
  0
LINE
  5
31B
100
AcDbEntity
  8
0
100
AcDbLine
 62
7
  6
CONTINUOUS
 10
4.4699450141
 20
7.3618730244
 11
4.471680859
 21
7.3625461003
  0
LWPOLYLINE
  5
31C
100
AcDbEntity
  8
0
100
AcDbPolyline
 62
7
  6
CONTINUOUS
 90
4
 70
0
 10
3.7542798639
 20
7.4581763366
 10
3.7501112705
 20
7.4567613687
 10
3.7445713291
 20
7.4521342615
 10
3.741105159
 20
7.4462318818
  0
LINE
  5
31D
100
AcDbEntity
  8
0
100
AcDbLine
 62
7
  6
CONTINUOUS
 10
3.7542881636
 20
7.4581778481
 11
3.7560139266
 21
7.4583680443
  0
LINE
  5
31E
100
AcDbEntity
  8
0
100
AcDbLine
 62
7
  6
CONTINUOUS
 10
3.7354024712
 20
7.4583297583
 11
3.7360130169
 21
7.4583680443
  0
LINE
  5
31F
100
AcDbEntity
  8
0
100
AcDbLine
 62
7
  6
CONTINUOUS
 10
3.7228982388
 20
7.4583587495
 11
3.7230963782
 21
7.4583680443
  0
LINE
  5
320
100
AcDbEntity
  8
0
100
AcDbLine
 62
7
  6
CONTINUOUS
 10
3.7174797828
 20
7.4583665777
 11
3.7175154184
 21
7.4583680443
  0
LINE
  5
321
100
AcDbEntity
  8
0
100
AcDbLine
 62
7
  6
CONTINUOUS
 10
4.4838723585
 20
7.3618730244
 11
4.4846334462
 21
7.3621397309
  0
LINE
  5
322
100
AcDbEntity
  8
0
100
AcDbLine
 62
7
  6
CONTINUOUS
 10
4.4903277427
 20
7.3618730244
 11
4.4904793856
 21
7.3619247986
  0
LWPOLYLINE
  5
323
100
AcDbEntity
  8
0
100
AcDbPolyline
 62
7
  6
CONTINUOUS
 90
3
 70
0
 10
3.7228940601
 20
7.4583585382
 10
3.7155010436
 20
7.4567180728
 10
3.7087779587
 20
7.4526425991
  0
LINE
  5
324
100
AcDbEntity
  8
0
100
AcDbLine
 62
7
  6
CONTINUOUS
 10
3.717479726
 20
7.4583665753
 11
3.7112654049
 21
7.457406864
  0
LINE
  5
325
100
AcDbEntity
  8
0
100
AcDbLine
 62
9
  6
CONTINUOUS
 10
12.6599834823
 20
8.738087819
 11
11.5399834823
 21
8.738087819
  0
LINE
  5
326
100
AcDbEntity
  8
0
100
AcDbLine
 62
9
  6
CONTINUOUS
 10
12.641405916
 20
8.7580371719
 11
11.5585610486
 21
8.7580371719
  0
LINE
  5
327
100
AcDbEntity
  8
0
100
AcDbLine
 62
9
  6
CONTINUOUS
 10
12.4066156218
 20
8.9799372308
 11
11.7933513428
 21
8.9799372308
  0
LINE
  5
328
100
AcDbEntity
  8
0
100
AcDbLine
 62
7
  6
CONTINUOUS
 10
12.386776919
 20
8.997391804
 11
11.8131887015
 21
8.997391804
  0
LINE
  5
329
100
AcDbEntity
  8
0
100
AcDbLine
 62
9
  6
CONTINUOUS
 10
12.3099834823
 20
9.024391804
 11
11.8899834823
 21
9.024391804
  0
LINE
  5
32A
100
AcDbEntity
  8
0
100
AcDbLine
 62
9
  6
CONTINUOUS
 10
11.878141377
 20
9.0390556269
 11
11.9749522428
 21
9.0390556269
  0
LINE
  5
32B
100
AcDbEntity
  8
0
100
AcDbLine
 62
9
  6
CONTINUOUS
 10
12.2250148327
 20
9.0390556269
 11
12.3218255876
 21
9.0390556269
  0
LINE
  5
32C
100
AcDbEntity
  8
0
100
AcDbLine
 62
9
  6
CONTINUOUS
 10
12.0980124157
 20
9.0393885348
 11
12.0999834823
 21
9.0393885696
  0
LINE
  5
32D
100
AcDbEntity
  8
0
100
AcDbLine
 62
7
  6
CONTINUOUS
 10
11.0449834823
 20
6.367391804
 11
11.0449834823
 21
6.287391804
  0
LINE
  5
32E
100
AcDbEntity
  8
0
100
AcDbLine
 62
7
  6
CONTINUOUS
 10
11.2499834823
 20
6.607391804
 11
11.2499834823
 21
6.537391804
  0
LINE
  5
32F
100
AcDbEntity
  8
0
100
AcDbLine
 62
7
  6
CONTINUOUS
 10
11.4349834823
 20
7.037391804
 11
11.4349834823
 21
6.965391804
  0
LINE
  5
330
100
AcDbEntity
  8
0
100
AcDbLine
 62
7
  6
CONTINUOUS
 10
11.4349834823
 20
6.809391804
 11
11.4349834823
 21
6.737391804
  0
LINE
  5
331
100
AcDbEntity
  8
0
100
AcDbLine
 62
7
  6
CONTINUOUS
 10
11.5399834823
 20
8.738087819
 11
11.5399834823
 21
7.067391804
  0
LINE
  5
332
100
AcDbEntity
  8
0
100
AcDbLine
 62
7
  6
CONTINUOUS
 10
3.7353991985
 20
7.4583294813
 11
3.7296607521
 21
7.4568949929
  0
LINE
  5
333
100
AcDbEntity
  8
0
100
AcDbLine
 62
9
  6
CONTINUOUS
 10
11.8149834823
 20
9.1172626822
 11
11.9393522408
 21
9.1172626822
  0
LINE
  5
334
100
AcDbEntity
  8
0
100
AcDbLine
 62
9
  6
CONTINUOUS
 10
12.2606145061
 20
9.1172626822
 11
12.3849834823
 21
9.1172626822
  0
LINE
  5
335
100
AcDbEntity
  8
0
100
AcDbLine
 62
7
  6
CONTINUOUS
 10
12.4569834823
 20
9.789391804
 11
12.4380609727
 21
9.789391804
  0
LINE
  5
336
100
AcDbEntity
  8
0
100
AcDbLine
 62
7
  6
CONTINUOUS
 10
11.7619059919
 20
9.789391804
 11
11.7429834823
 21
9.789391804
  0
LINE
  5
337
100
AcDbEntity
  8
0
100
AcDbLine
 62
7
  6
CONTINUOUS
 10
20.2899834823
 20
9.882391804
 11
21.9099834823
 21
9.882391804
  0
LINE
  5
338
100
AcDbEntity
  8
0
100
AcDbLine
 62
7
  6
CONTINUOUS
 10
11.7429834823
 20
9.9592693423
 11
11.7429834823
 21
9.9092693423
  0
LINE
  5
339
100
AcDbEntity
  8
0
100
AcDbLine
 62
7
  6
CONTINUOUS
 10
11.7429834823
 20
9.789391804
 11
11.7429834823
 21
9.7493728395
  0
LINE
  5
33A
100
AcDbEntity
  8
0
100
AcDbLine
 62
7
  6
CONTINUOUS
 10
11.7999834823
 20
9.9701133869
 11
11.7999834823
 21
9.9692693423
  0
LINE
  5
33B
100
AcDbEntity
  8
0
100
AcDbLine
 62
7
  6
CONTINUOUS
 10
11.8149834823
 20
9.1172626822
 11
11.8149834823
 21
9.3538551147
  0
LINE
  5
33C
100
AcDbEntity
  8
0
100
AcDbLine
 62
7
  6
CONTINUOUS
 10
11.8899834823
 20
8.997391804
 11
11.8899834823
 21
9.024391804
  0
LINE
  5
33D
100
AcDbEntity
  8
0
100
AcDbLine
 62
9
  6
CONTINUOUS
 10
12.0999834859
 20
9.1111216196
 11
12.0999834823
 21
9.0393886402
  0
LINE
  5
33E
100
AcDbEntity
  8
0
100
AcDbLine
 62
7
  6
CONTINUOUS
 10
12.3099834823
 20
8.997391804
 11
12.3099834823
 21
9.024391804
  0
LINE
  5
33F
100
AcDbEntity
  8
0
100
AcDbLine
 62
7
  6
CONTINUOUS
 10
11.7429834823
 20
9.9092693423
 11
11.8614989849
 21
9.9092693423
  0
LINE
  5
340
100
AcDbEntity
  8
0
100
AcDbLine
 62
7
  6
CONTINUOUS
 10
12.3384679797
 20
9.9092693423
 11
12.4569834823
 21
9.9092693423
  0
LINE
  5
341
100
AcDbEntity
  8
0
100
AcDbLine
 62
9
  6
CONTINUOUS
 10
12.4569834823
 20
9.9592693423
 11
12.2552551069
 21
9.9592693423
  0
LINE
  5
342
100
AcDbEntity
  8
0
100
AcDbLine
 62
9
  6
CONTINUOUS
 10
11.9447118578
 20
9.9592693423
 11
11.7429834823
 21
9.9592693423
  0
LINE
  5
343
100
AcDbEntity
  8
0
100
AcDbLine
 62
7
  6
CONTINUOUS
 10
12.4469698276
 20
9.9692693423
 11
12.2327947391
 21
9.9692693423
  0
LINE
  5
344
100
AcDbEntity
  8
0
100
AcDbLine
 62
7
  6
CONTINUOUS
 10
11.9671722255
 20
9.9692693423
 11
11.752997137
 21
9.9692693423
  0
LINE
  5
345
100
AcDbEntity
  8
0
100
AcDbLine
 62
9
  6
CONTINUOUS
 10
12.3999834823
 20
9.9701133869
 11
12.2308989839
 21
9.9701133869
  0
LINE
  5
346
100
AcDbEntity
  8
0
100
AcDbLine
 62
9
  6
CONTINUOUS
 10
11.9690679808
 20
9.9701133869
 11
11.7999834823
 21
9.9701133869
  0
LINE
  5
347
100
AcDbEntity
  8
0
100
AcDbLine
 62
9
  6
CONTINUOUS
 10
11.8055219438
 20
9.9790629498
 11
11.9980615998
 21
9.9790629498
  0
LINE
  5
348
100
AcDbEntity
  8
0
100
AcDbLine
 62
9
  6
CONTINUOUS
 10
12.2019053648
 20
9.9790629498
 11
12.3944450208
 21
9.9790629498
  0
LINE
  5
349
100
AcDbEntity
  8
0
100
AcDbLine
 62
7
  6
CONTINUOUS
 10
12.3849834823
 20
9.1172626822
 11
12.3849834823
 21
9.3538551147
  0
LINE
  5
34A
100
AcDbEntity
  8
0
100
AcDbLine
 62
7
  6
CONTINUOUS
 10
12.3999834823
 20
9.9701133869
 11
12.3999834823
 21
9.9692693423
  0
LINE
  5
34B
100
AcDbEntity
  8
0
100
AcDbLine
 62
7
  6
CONTINUOUS
 10
12.4569834823
 20
9.9592693423
 11
12.4569834823
 21
9.9092693423
  0
LINE
  5
34C
100
AcDbEntity
  8
0
100
AcDbLine
 62
7
  6
CONTINUOUS
 10
12.4569834823
 20
9.789391804
 11
12.4569834823
 21
9.7493728395
  0
LINE
  5
34D
100
AcDbEntity
  8
0
100
AcDbLine
 62
7
  6
CONTINUOUS
 10
12.6599834823
 20
8.738087819
 11
12.6599834823
 21
7.067391804
  0
LINE
  5
34E
100
AcDbEntity
  8
0
100
AcDbLine
 62
7
  6
CONTINUOUS
 10
12.7649834823
 20
7.037391804
 11
12.7649834823
 21
6.965391804
  0
LINE
  5
34F
100
AcDbEntity
  8
0
100
AcDbLine
 62
7
  6
CONTINUOUS
 10
12.7649834823
 20
6.809391804
 11
12.7649834823
 21
6.737391804
  0
LINE
  5
350
100
AcDbEntity
  8
0
100
AcDbLine
 62
7
  6
CONTINUOUS
 10
12.9499834823
 20
6.607391804
 11
12.9499834823
 21
6.537391804
  0
LINE
  5
351
100
AcDbEntity
  8
0
100
AcDbLine
 62
7
  6
CONTINUOUS
 10
13.1549834823
 20
6.367391804
 11
13.1549834823
 21
6.287391804
  0
LINE
  5
352
100
AcDbEntity
  8
0
100
AcDbLine
 62
7
  6
CONTINUOUS
 10
20.1299834823
 20
11.082391804
 11
22.0699834823
 21
11.082391804
  0
LINE
  5
353
100
AcDbEntity
  8
0
100
AcDbLine
 62
9
  6
CONTINUOUS
 10
20.0899834823
 20
11.122391804
 11
22.1099834823
 21
11.122391804
  0
LINE
  5
354
100
AcDbEntity
  8
0
100
AcDbLine
 62
9
  6
CONTINUOUS
 10
22.1099834823
 20
11.542391804
 11
20.0899834823
 21
11.542391804
  0
LINE
  5
355
100
AcDbEntity
  8
0
100
AcDbLine
 62
7
  6
CONTINUOUS
 10
22.0699834823
 20
11.582391804
 11
20.1299951519
 21
11.582391804
  0
LINE
  5
356
100
AcDbEntity
  8
0
100
AcDbLine
 62
9
  6
CONTINUOUS
 10
21.9099834823
 20
11.692391804
 11
20.2899834823
 21
11.692391804
  0
LINE
  5
357
100
AcDbEntity
  8
0
100
AcDbLine
 62
7
  6
CONTINUOUS
 10
21.8699834823
 20
11.732391804
 11
20.3299834823
 21
11.732391804
  0
LINE
  5
358
100
AcDbEntity
  8
0
100
AcDbLine
 62
7
  6
CONTINUOUS
 10
20.0899834823
 20
11.122391804
 11
20.0899834823
 21
11.542391804
  0
LINE
  5
359
100
AcDbEntity
  8
0
100
AcDbLine
 62
7
  6
CONTINUOUS
 10
20.0999834823
 20
6.667391804
 11
20.0999834823
 21
6.287391804
  0
LINE
  5
35A
100
AcDbEntity
  8
0
100
AcDbLine
 62
7
  6
CONTINUOUS
 10
20.2899834823
 20
11.692391804
 11
20.2899834823
 21
11.582391804
  0
LINE
  5
35B
100
AcDbEntity
  8
0
100
AcDbLine
 62
7
  6
CONTINUOUS
 10
20.2899834823
 20
7.497391804
 11
20.2899834823
 21
6.707391804
  0
LINE
  5
35C
100
AcDbEntity
  8
0
100
AcDbLine
 62
7
  6
CONTINUOUS
 10
20.2899834823
 20
9.882391804
 11
20.2899834823
 21
11.082391804
  0
LINE
  5
35D
100
AcDbEntity
  8
0
100
AcDbLine
 62
7
  6
CONTINUOUS
 10
20.3999834823
 20
7.537391804
 11
20.3999834823
 21
9.882391804
  0
LINE
  5
35E
100
AcDbEntity
  8
0
100
AcDbLine
 62
7
  6
CONTINUOUS
 10
21.7999834823
 20
7.537391804
 11
21.7999834823
 21
9.882391804
  0
LINE
  5
35F
100
AcDbEntity
  8
0
100
AcDbLine
 62
7
  6
CONTINUOUS
 10
21.9099834823
 20
11.692391804
 11
21.9099834823
 21
11.582391804
  0
LINE
  5
360
100
AcDbEntity
  8
0
100
AcDbLine
 62
7
  6
CONTINUOUS
 10
21.9099834823
 20
7.497391804
 11
21.9099834823
 21
6.707391804
  0
LINE
  5
361
100
AcDbEntity
  8
0
100
AcDbLine
 62
7
  6
CONTINUOUS
 10
21.9099834823
 20
9.882391804
 11
21.9099834823
 21
11.082391804
  0
LINE
  5
362
100
AcDbEntity
  8
0
100
AcDbLine
 62
7
  6
CONTINUOUS
 10
22.0999834823
 20
6.667391804
 11
22.0999834823
 21
6.287391804
  0
LINE
  5
363
100
AcDbEntity
  8
0
100
AcDbLine
 62
7
  6
CONTINUOUS
 10
22.1099834823
 20
11.122391804
 11
22.1099834823
 21
11.542391804
  0
ARC
  5
364
100
AcDbEntity
  8
0
100
AcDbCircle
 62
7
  6
CONTINUOUS
 10
0.1912038886
 20
6.1044967643
 40
0.9
100
AcDbArc
 50
130.6439171763
 51
168.2748731243
  0
ARC
  5
365
100
AcDbEntity
  8
0
100
AcDbCircle
 62
7
  6
CONTINUOUS
 10
0.008763076
 20
6.1044967643
 40
0.9
100
AcDbArc
 50
11.7251268757
 51
49.3560828237
  0
ARC
  5
366
100
AcDbEntity
  8
0
100
AcDbCircle
 62
7
  6
CONTINUOUS
 10
0.0374834823
 20
6.867391804
 40
0.4
100
AcDbArc
 50
155.7790568908
 51
180.0
  0
ARC
  5
367
100
AcDbEntity
  8
0
100
AcDbCircle
 62
7
  6
CONTINUOUS
 10
0.1624834823
 20
6.867391804
 40
0.4
100
AcDbArc
 50
0.0
 51
24.2209431092
  0
ARC
  5
368
100
AcDbEntity
  8
0
100
AcDbCircle
 62
7
  6
CONTINUOUS
 10
-0.3181849026
 20
7.027391804
 40
0.01
100
AcDbArc
 50
90.0
 51
155.7790568908
  0
ARC
  5
369
100
AcDbEntity
  8
0
100
AcDbCircle
 62
7
  6
CONTINUOUS
 10
0.5181518672
 20
7.027391804
 40
0.01
100
AcDbArc
 50
24.2209431092
 51
90.0
  0
ARC
  5
36A
100
AcDbEntity
  8
0
100
AcDbCircle
 62
7
  6
CONTINUOUS
 10
3.2210085709
 20
6.6093319196
 40
0.75
100
AcDbArc
 50
2.1441176707
 51
22.5866278464
  0
ARC
  5
36B
100
AcDbEntity
  8
0
100
AcDbCircle
 62
7
  6
CONTINUOUS
 10
4.9789583938
 20
6.6093319196
 40
0.75
100
AcDbArc
 50
157.4133721536
 51
177.8558823293
  0
ARC
  5
36C
100
AcDbEntity
  8
0
100
AcDbCircle
 62
7
  6
CONTINUOUS
 10
3.4814999493
 20
6.7238107787
 40
0.33
100
AcDbArc
 50
280.6034327507
 51
342.9043329949
  0
ARC
  5
36D
100
AcDbEntity
  8
0
100
AcDbCircle
 62
7
  6
CONTINUOUS
 10
4.7184670153
 20
6.7238107787
 40
0.33
100
AcDbArc
 50
197.0956670051
 51
259.3965672493
  0
ARC
  5
36E
100
AcDbEntity
  8
0
100
AcDbCircle
 62
7
  6
CONTINUOUS
 10
4.6999834823
 20
6.287391804
 40
0.08
100
AcDbArc
 50
0.0
 51
90.0
  0
ARC
  5
36F
100
AcDbEntity
  8
0
100
AcDbCircle
 62
7
  6
CONTINUOUS
 10
3.4999834823
 20
6.287391804
 40
0.08
100
AcDbArc
 50
90.0
 51
180.0
  0
ARC
  5
370
100
AcDbEntity
  8
0
100
AcDbCircle
 62
7
  6
CONTINUOUS
 10
3.5449834823
 20
6.3847018861
 40
0.015
100
AcDbArc
 50
100.6034327507
 51
180.0
  0
ARC
  5
371
100
AcDbEntity
  8
0
100
AcDbCircle
 62
7
  6
CONTINUOUS
 10
4.6549834823
 20
6.3847018861
 40
0.015
100
AcDbArc
 50
0.0
 51
79.3965672493
  0
ARC
  5
372
100
AcDbEntity
  8
0
100
AcDbCircle
 62
7
  6
CONTINUOUS
 10
3.8112562101
 20
6.622391804
 40
0.015
100
AcDbArc
 50
90.0
 51
162.9043329947
  0
ARC
  5
373
100
AcDbEntity
  8
0
100
AcDbCircle
 62
7
  6
CONTINUOUS
 10
4.3887107545
 20
6.622391804
 40
0.015
100
AcDbArc
 50
17.0956670053
 51
90.0
  0
ARC
  5
374
100
AcDbEntity
  8
0
100
AcDbCircle
 62
7
  6
CONTINUOUS
 10
4.0999834823
 20
6.776391804
 40
0.768
100
AcDbArc
 50
62.6255897304
 51
117.3744102696
  0
ARC
  5
375
100
AcDbEntity
  8
0
100
AcDbCircle
 62
7
  6
CONTINUOUS
 10
3.7454834823
 20
6.897391804
 40
0.138
100
AcDbArc
 50
0.0
 51
90.0
  0
ARC
  5
376
100
AcDbEntity
  8
0
100
AcDbCircle
 62
7
  6
CONTINUOUS
 10
3.7154834823
 20
7.330466851
 40
0.03
100
AcDbArc
 50
0.0
 51
87.1340160174
  0
ARC
  5
377
100
AcDbEntity
  8
0
100
AcDbCircle
 62
9
  6
CONTINUOUS
 10
3.7695095074
 20
7.3839723077
 40
0.0293776824
100
AcDbArc
 50
207.7250935768
 51
209.0399536189
  0
ARC
  5
378
100
AcDbEntity
  8
0
100
AcDbCircle
 62
9
  6
CONTINUOUS
 10
3.7275205669
 20
7.38742696
 40
0.0282566927
100
AcDbArc
 50
216.9485039971
 51
219.9639501388
  0
ARC
  5
379
100
AcDbEntity
  8
0
100
AcDbCircle
 62
9
  6
CONTINUOUS
 10
3.7270377301
 20
7.3870276436
 40
0.0276301403
100
AcDbArc
 50
219.9723966039
 51
222.0109166672
  0
ARC
  5
37A
100
AcDbEntity
  8
0
100
AcDbCircle
 62
9
  6
CONTINUOUS
 10
3.7253414048
 20
7.3852417138
 40
0.0251628812
100
AcDbArc
 50
231.874199603
 51
233.1951995929
  0
ARC
  5
37B
100
AcDbEntity
  8
0
100
AcDbCircle
 62
9
  6
CONTINUOUS
 10
3.7406466617
 20
7.382820967
 40
0.0236179149
100
AcDbArc
 50
221.9057527733
 51
227.359636496
  0
ARC
  5
37C
100
AcDbEntity
  8
0
100
AcDbCircle
 62
9
  6
CONTINUOUS
 10
3.7242737011
 20
7.3833870901
 40
0.0230161889
100
AcDbArc
 50
247.2754100274
 51
249.1844084256
  0
ARC
  5
37D
100
AcDbEntity
  8
0
100
AcDbCircle
 62
7
  6
CONTINUOUS
 10
3.7221668998
 20
7.3819327537
 40
0.0215835647
100
AcDbArc
 50
239.4179991938
 51
248.340018858
  0
ARC
  5
37E
100
AcDbEntity
  8
0
100
AcDbCircle
 62
9
  6
CONTINUOUS
 10
3.762410203
 20
7.3792014747
 40
0.0208087132
100
AcDbArc
 50
219.6972302586
 51
221.3753037219
  0
ARC
  5
37F
100
AcDbEntity
  8
0
100
AcDbCircle
 62
9
  6
CONTINUOUS
 10
3.7931657126
 20
7.3768310279
 40
0.0207499909
100
AcDbArc
 50
211.0750398308
 51
213.2724332156
  0
ARC
  5
380
100
AcDbEntity
  8
0
100
AcDbCircle
 62
7
  6
CONTINUOUS
 10
3.7349248443
 20
7.3776501433
 40
0.0178348851
100
AcDbArc
 50
228.6823753033
 51
233.2954739554
  0
ARC
  5
381
100
AcDbEntity
  8
0
100
AcDbCircle
 62
7
  6
CONTINUOUS
 10
3.7814652201
 20
7.3714076249
 40
0.0098654972
100
AcDbArc
 50
216.8720667821
 51
228.7140356539
  0
ARC
  5
382
100
AcDbEntity
  8
0
100
AcDbCircle
 62
7
  6
CONTINUOUS
 10
3.7533902217
 20
7.3707669687
 40
0.0091816092
100
AcDbArc
 50
233.5579746394
 51
236.315340414
  0
ARC
  5
383
100
AcDbEntity
  8
0
100
AcDbCircle
 62
7
  6
CONTINUOUS
 10
3.7626952619
 20
7.4098623746
 40
0.0493585537
100
AcDbArc
 50
253.4334552077
 51
256.4730655492
  0
ARC
  5
384
100
AcDbEntity
  8
0
100
AcDbCircle
 62
7
  6
CONTINUOUS
 10
3.7616486929
 20
7.406529218
 40
0.0458653824
100
AcDbArc
 50
247.1760175786
 51
253.499346862
  0
ARC
  5
385
100
AcDbEntity
  8
0
100
AcDbCircle
 62
7
  6
CONTINUOUS
 10
3.7410448476
 20
7.4050360182
 40
0.0445482699
100
AcDbArc
 50
253.2916402285
 51
255.6740925018
  0
ARC
  5
386
100
AcDbEntity
  8
0
100
AcDbCircle
 62
9
  6
CONTINUOUS
 10
3.7568051596
 20
7.3998071866
 40
0.0393435178
100
AcDbArc
 50
249.9161157281
 51
254.6171346965
  0
ARC
  5
387
100
AcDbEntity
  8
0
100
AcDbCircle
 62
7
  6
CONTINUOUS
 10
3.7261426776
 20
7.3981436548
 40
0.0376367163
100
AcDbArc
 50
247.5951357246
 51
254.5156451058
  0
ARC
  5
388
100
AcDbEntity
  8
0
100
AcDbCircle
 62
9
  6
CONTINUOUS
 10
3.7367899751
 20
7.3976461592
 40
0.0371819611
100
AcDbArc
 50
247.7739723786
 51
254.1763405399
  0
ARC
  5
389
100
AcDbEntity
  8
0
100
AcDbCircle
 62
7
  6
CONTINUOUS
 10
3.7255385478
 20
7.3966683218
 40
0.0360424876
100
AcDbArc
 50
244.0671430443
 51
247.5891026025
  0
ARC
  5
38A
100
AcDbEntity
  8
0
100
AcDbCircle
 62
9
  6
CONTINUOUS
 10
3.7239252353
 20
7.3944692367
 40
0.0340157605
100
AcDbArc
 50
244.9480539039
 51
253.3879252478
  0
ARC
  5
38B
100
AcDbEntity
  8
0
100
AcDbCircle
 62
9
  6
CONTINUOUS
 10
3.7305386047
 20
7.3892982842
 40
0.0318159448
100
AcDbArc
 50
203.7582587233
 51
204.672365577
  0
ARC
  5
38C
100
AcDbEntity
  8
0
100
AcDbCircle
 62
9
  6
CONTINUOUS
 10
3.7215499626
 20
7.3903945613
 40
0.0316840619
100
AcDbArc
 50
180.0049861452
 51
190.1612276548
  0
ARC
  5
38D
100
AcDbEntity
  8
0
100
AcDbCircle
 62
7
  6
CONTINUOUS
 10
3.7190415867
 20
7.3920850221
 40
0.0316412596
100
AcDbArc
 50
251.5359354841
 51
252.713182744
  0
ARC
  5
38E
100
AcDbEntity
  8
0
100
AcDbCircle
 62
9
  6
CONTINUOUS
 10
3.721081722
 20
7.3902948693
 40
0.0312055818
100
AcDbArc
 50
190.1327280563
 51
197.4000500409
  0
ARC
  5
38F
100
AcDbEntity
  8
0
100
AcDbCircle
 62
9
  6
CONTINUOUS
 10
3.7208654195
 20
7.3902313561
 40
0.0309801845
100
AcDbArc
 50
197.407589495
 51
204.0829594477
  0
ARC
  5
390
100
AcDbEntity
  8
0
100
AcDbCircle
 62
7
  6
CONTINUOUS
 10
3.7187957522
 20
7.3914362115
 40
0.0309480023
100
AcDbArc
 50
241.4361322737
 51
251.5872085982
  0
ARC
  5
391
100
AcDbEntity
  8
0
100
AcDbCircle
 62
9
  6
CONTINUOUS
 10
3.720180917
 20
7.3899277722
 40
0.0302313841
100
AcDbArc
 50
204.0870508744
 51
212.609547154
  0
ARC
  5
392
100
AcDbEntity
  8
0
100
AcDbCircle
 62
7
  6
CONTINUOUS
 10
3.7184834823
 20
7.390391804
 40
0.03
100
AcDbArc
 50
222.4162659281
 51
241.0045066159
  0
ARC
  5
393
100
AcDbEntity
  8
0
100
AcDbCircle
 62
7
  6
CONTINUOUS
 10
3.7184834823
 20
7.390391804
 40
0.03
100
AcDbArc
 50
252.4789134858
 51
267.1340160174
  0
ARC
  5
394
100
AcDbEntity
  8
0
100
AcDbCircle
 62
7
  6
CONTINUOUS
 10
3.7183596706
 20
7.3903323147
 40
0.0298733364
100
AcDbArc
 50
236.4123539943
 51
241.0735976819
  0
ARC
  5
395
100
AcDbEntity
  8
0
100
AcDbCircle
 62
9
  6
CONTINUOUS
 10
3.7198179527
 20
7.3897012824
 40
0.029803579
100
AcDbArc
 50
212.618811355
 51
218.923638218
  0
ARC
  5
396
100
AcDbEntity
  8
0
100
AcDbCircle
 62
7
  6
CONTINUOUS
 10
3.7182903721
 20
7.3902273633
 40
0.0297475709
100
AcDbArc
 50
231.6530033072
 51
236.4117148101
  0
ARC
  5
397
100
AcDbEntity
  8
0
100
AcDbCircle
 62
7
  6
CONTINUOUS
 10
3.7182251936
 20
7.390391161
 40
0.029711194
100
AcDbArc
 50
179.9987599461
 51
180.7237171109
  0
ARC
  5
398
100
AcDbEntity
  8
0
100
AcDbCircle
 62
7
  6
CONTINUOUS
 10
3.718221777
 20
7.3901445869
 40
0.0296400942
100
AcDbArc
 50
222.4043421661
 51
231.6577211469
  0
ARC
  5
399
100
AcDbEntity
  8
0
100
AcDbCircle
 62
9
  6
CONTINUOUS
 10
3.7191047064
 20
7.3891165187
 40
0.0288812879
100
AcDbArc
 50
218.9101172798
 51
230.9567124107
  0
ARC
  5
39A
100
AcDbEntity
  8
0
100
AcDbCircle
 62
9
  6
CONTINUOUS
 10
3.7188233361
 20
7.3887879347
 40
0.0284488516
100
AcDbArc
 50
230.9799831077
 51
234.7382352736
  0
ARC
  5
39B
100
AcDbEntity
  8
0
100
AcDbCircle
 62
9
  6
CONTINUOUS
 10
3.718697822
 20
7.3886109551
 40
0.0282318828
100
AcDbArc
 50
234.7388695776
 51
245.8979983171
  0
ARC
  5
39C
100
AcDbEntity
  8
0
100
AcDbCircle
 62
9
  6
CONTINUOUS
 10
3.7186214284
 20
7.3884510454
 40
0.0280547181
100
AcDbArc
 50
245.9070507084
 51
249.4234833101
  0
ARC
  5
39D
100
AcDbEntity
  8
0
100
AcDbCircle
 62
9
  6
CONTINUOUS
 10
3.7185769676
 20
7.3883348128
 40
0.0279302747
100
AcDbArc
 50
249.4250700293
 51
251.3370107258
  0
ARC
  5
39E
100
AcDbEntity
  8
0
100
AcDbCircle
 62
9
  6
CONTINUOUS
 10
3.7574325938
 20
7.4160312054
 40
0.0423603039
100
AcDbArc
 50
91.9192079093
 51
94.2693367673
  0
ARC
  5
39F
100
AcDbEntity
  8
0
100
AcDbCircle
 62
9
  6
CONTINUOUS
 10
3.7574268263
 20
7.4161131085
 40
0.0422781987
100
AcDbArc
 50
94.2698054718
 51
94.8668745488
  0
ARC
  5
3A0
100
AcDbEntity
  8
0
100
AcDbCircle
 62
9
  6
CONTINUOUS
 10
3.7373905141
 20
7.4184706119
 40
0.0399209057
100
AcDbArc
 50
91.9777343042
 51
93.8242556113
  0
ARC
  5
3A1
100
AcDbEntity
  8
0
100
AcDbCircle
 62
9
  6
CONTINUOUS
 10
3.7372779607
 20
7.4193903719
 40
0.03899572
100
AcDbArc
 50
93.7493836013
 51
106.270687432
  0
ARC
  5
3A2
100
AcDbEntity
  8
0
100
AcDbCircle
 62
9
  6
CONTINUOUS
 10
3.7244064166
 20
7.4223287734
 40
0.0360627757
100
AcDbArc
 50
92.0818008577
 51
93.1496809091
  0
ARC
  5
3A3
100
AcDbEntity
  8
0
100
AcDbCircle
 62
9
  6
CONTINUOUS
 10
3.7243957634
 20
7.4224519154
 40
0.0359392346
100
AcDbArc
 50
93.1435093847
 51
99.3139471551
  0
ARC
  5
3A4
100
AcDbEntity
  8
0
100
AcDbCircle
 62
9
  6
CONTINUOUS
 10
3.7216771195
 20
7.4283769528
 40
0.0318112222
100
AcDbArc
 50
169.4397034197
 51
179.9732511263
  0
ARC
  5
3A5
100
AcDbEntity
  8
0
100
AcDbCircle
 62
9
  6
CONTINUOUS
 10
3.7305235039
 20
7.4294962959
 40
0.0317976489
100
AcDbArc
 50
155.0813736508
 51
155.8488997671
  0
ARC
  5
3A6
100
AcDbEntity
  8
0
100
AcDbCircle
 62
9
  6
CONTINUOUS
 10
3.720976645
 20
7.4285155598
 40
0.0310972103
100
AcDbArc
 50
161.9681551787
 51
169.4542281633
  0
ARC
  5
3A7
100
AcDbEntity
  8
0
100
AcDbCircle
 62
7
  6
CONTINUOUS
 10
3.7187179115
 20
7.4274221094
 40
0.0309689918
100
AcDbArc
 50
92.2252718337
 51
105.1993610857
  0
ARC
  5
3A8
100
AcDbEntity
  8
0
100
AcDbCircle
 62
9
  6
CONTINUOUS
 10
3.7208504664
 20
7.4285562351
 40
0.0309646382
100
AcDbArc
 50
155.0499449091
 51
161.9674511233
  0
ARC
  5
3A9
100
AcDbEntity
  8
0
100
AcDbCircle
 62
9
  6
CONTINUOUS
 10
3.7200984922
 20
7.4289040755
 40
0.0301361126
100
AcDbArc
 50
145.0107425529
 51
155.0464745014
  0
ARC
  5
3AA
100
AcDbEntity
  8
0
100
AcDbCircle
 62
7
  6
CONTINUOUS
 10
3.7184834823
 20
7.428391804
 40
0.03
100
AcDbArc
 50
90.0
 51
137.5884261522
  0
ARC
  5
3AB
100
AcDbEntity
  8
0
100
AcDbCircle
 62
7
  6
CONTINUOUS
 10
3.718246588
 20
7.4283912756
 40
0.0297325884
100
AcDbArc
 50
179.2654372619
 51
179.9989816717
  0
ARC
  5
3AC
100
AcDbEntity
  8
0
100
AcDbCircle
 62
7
  6
CONTINUOUS
 10
3.7182583366
 20
7.4285933486
 40
0.029697835
100
AcDbArc
 50
128.250541186
 51
137.5821984325
  0
ARC
  5
3AD
100
AcDbEntity
  8
0
100
AcDbCircle
 62
9
  6
CONTINUOUS
 10
3.7196206416
 20
7.4292249423
 40
0.0295606386
100
AcDbArc
 50
140.2164787853
 51
144.9891557349
  0
ARC
  5
3AE
100
AcDbEntity
  8
0
100
AcDbCircle
 62
9
  6
CONTINUOUS
 10
3.7190427733
 20
7.4297217073
 40
0.0287986938
100
AcDbArc
 50
123.999982834
 51
140.2403061281
  0
ARC
  5
3AF
100
AcDbEntity
  8
0
100
AcDbCircle
 62
9
  6
CONTINUOUS
 10
3.7275822961
 20
7.4312994255
 40
0.0283405037
100
AcDbArc
 50
140.8054605152
 51
143.3495292661
  0
ARC
  5
3B0
100
AcDbEntity
  8
0
100
AcDbCircle
 62
9
  6
CONTINUOUS
 10
3.7186770508
 20
7.4300743728
 40
0.0283172102
100
AcDbArc
 50
92.3510308382
 51
107.0635037253
  0
ARC
  5
3B1
100
AcDbEntity
  8
0
100
AcDbCircle
 62
9
  6
CONTINUOUS
 10
3.7187171171
 20
7.4301687148
 40
0.0282460102
100
AcDbArc
 50
121.5253506631
 51
123.9593773672
  0
ARC
  5
3B2
100
AcDbEntity
  8
0
100
AcDbCircle
 62
9
  6
CONTINUOUS
 10
3.7185843072
 20
7.4303931028
 40
0.0279852971
100
AcDbArc
 50
107.0734628821
 51
121.5337831943
  0
ARC
  5
3B3
100
AcDbEntity
  8
0
100
AcDbCircle
 62
9
  6
CONTINUOUS
 10
3.725058854
 20
7.4339347602
 40
0.0246792855
100
AcDbArc
 50
119.6145248671
 51
128.3230534789
  0
ARC
  5
3B4
100
AcDbEntity
  8
0
100
AcDbCircle
 62
9
  6
CONTINUOUS
 10
3.7244407494
 20
7.434977015
 40
0.0234677475
100
AcDbArc
 50
111.6302780584
 51
119.5600351769
  0
ARC
  5
3B5
100
AcDbEntity
  8
0
100
AcDbCircle
 62
9
  6
CONTINUOUS
 10
3.7242322469
 20
7.4354709126
 40
0.022931775
100
AcDbArc
 50
104.5563114845
 51
111.6008911336
  0
ARC
  5
3B6
100
AcDbEntity
  8
0
100
AcDbCircle
 62
9
  6
CONTINUOUS
 10
3.7241518353
 20
7.4357797822
 40
0.0226126097
100
AcDbArc
 50
92.6752570243
 51
104.5558001547
  0
ARC
  5
3B7
100
AcDbEntity
  8
0
100
AcDbCircle
 62
9
  6
CONTINUOUS
 10
3.71433293
 20
7.4283682008
 40
0.0183940304
100
AcDbArc
 50
163.8680962545
 51
179.9264792378
  0
ARC
  5
3B8
100
AcDbEntity
  8
0
100
AcDbCircle
 62
9
  6
CONTINUOUS
 10
3.7368991082
 20
7.441973417
 40
0.016418258
100
AcDbArc
 50
93.0937097522
 51
95.156628758
  0
ARC
  5
3B9
100
AcDbEntity
  8
0
100
AcDbCircle
 62
7
  6
CONTINUOUS
 10
3.7906027399
 20
7.4118694158
 40
0.0513097304
100
AcDbArc
 50
251.024425234
 51
257.0085744873
  0
ARC
  5
3BA
100
AcDbEntity
  8
0
100
AcDbCircle
 62
7
  6
CONTINUOUS
 10
3.7895274165
 20
7.4087091988
 40
0.0479715918
100
AcDbArc
 50
247.9225197664
 51
251.0116399045
  0
ARC
  5
3BB
100
AcDbEntity
  8
0
100
AcDbCircle
 62
9
  6
CONTINUOUS
 10
3.7836234473
 20
7.4009626847
 40
0.0405156277
100
AcDbArc
 50
253.6242232328
 51
254.7528494567
  0
ARC
  5
3BC
100
AcDbEntity
  8
0
100
AcDbCircle
 62
9
  6
CONTINUOUS
 10
3.7835326897
 20
7.4006572968
 40
0.0401970405
100
AcDbArc
 50
251.5455461474
 51
253.625614573
  0
ARC
  5
3BD
100
AcDbEntity
  8
0
100
AcDbCircle
 62
9
  6
CONTINUOUS
 10
3.8164939939
 20
7.4002592668
 40
0.0398122588
100
AcDbArc
 50
252.7865486618
 51
254.6176986049
  0
ARC
  5
3BE
100
AcDbEntity
  8
0
100
AcDbCircle
 62
9
  6
CONTINUOUS
 10
3.7841005373
 20
7.415694241
 40
0.0426961615
100
AcDbArc
 50
91.8665891561
 51
101.4422011298
  0
ARC
  5
3BF
100
AcDbEntity
  8
0
100
AcDbCircle
 62
9
  6
CONTINUOUS
 10
3.7838448488
 20
7.416984227
 40
0.0413810906
100
AcDbArc
 50
101.4495391691
 51
105.685648994
  0
ARC
  5
3C0
100
AcDbEntity
  8
0
100
AcDbCircle
 62
7
  6
CONTINUOUS
 10
4.0855083848
 20
7.3899601208
 40
0.0295004888
100
AcDbArc
 50
287.8062715442
 51
299.3848348901
  0
ARC
  5
3C1
100
AcDbEntity
  8
0
100
AcDbCircle
 62
9
  6
CONTINUOUS
 10
4.0991353212
 20
7.4444653348
 40
0.0139288918
100
AcDbArc
 50
77.2264898378
 51
83.4258986954
  0
ARC
  5
3C2
100
AcDbEntity
  8
0
100
AcDbCircle
 62
9
  6
CONTINUOUS
 10
4.099171265
 20
7.4447424356
 40
0.0136494985
100
AcDbArc
 50
83.4426168695
 51
86.5885832149
  0
ARC
  5
3C3
100
AcDbEntity
  8
0
100
AcDbCircle
 62
7
  6
CONTINUOUS
 10
4.4544834823
 20
6.897391804
 40
0.138
100
AcDbArc
 50
90.0
 51
180.0
  0
ARC
  5
3C4
100
AcDbEntity
  8
0
100
AcDbCircle
 62
7
  6
CONTINUOUS
 10
4.168115628
 20
7.3838507418
 40
0.0235091674
100
AcDbArc
 50
236.4634784588
 51
249.2051120611
  0
ARC
  5
3C5
100
AcDbEntity
  8
0
100
AcDbCircle
 62
7
  6
CONTINUOUS
 10
4.1145460195
 20
7.3901789022
 40
0.0297355345
100
AcDbArc
 50
245.3765803124
 51
252.1622301286
  0
ARC
  5
3C6
100
AcDbEntity
  8
0
100
AcDbCircle
 62
7
  6
CONTINUOUS
 10
4.1143503415
 20
7.3897549845
 40
0.0292686356
100
AcDbArc
 50
240.6027500963
 51
245.3790427283
  0
ARC
  5
3C7
100
AcDbEntity
  8
0
100
AcDbCircle
 62
7
  6
CONTINUOUS
 10
4.4844834823
 20
7.330466851
 40
0.03
100
AcDbArc
 50
92.8659839826
 51
180.0
  0
ARC
  5
3C8
100
AcDbEntity
  8
0
100
AcDbCircle
 62
9
  6
CONTINUOUS
 10
4.4304437908
 20
7.3839789384
 40
0.0293928815
100
AcDbArc
 50
330.9647515277
 51
332.309798277
  0
ARC
  5
3C9
100
AcDbEntity
  8
0
100
AcDbCircle
 62
9
  6
CONTINUOUS
 10
4.4746274797
 20
7.3852399702
 40
0.0251603283
100
AcDbArc
 50
306.8037035202
 51
308.1228304093
  0
ARC
  5
3CA
100
AcDbEntity
  8
0
100
AcDbCircle
 62
9
  6
CONTINUOUS
 10
4.459324452
 20
7.3828174359
 40
0.0236125136
100
AcDbArc
 50
312.636842485
 51
318.0954597948
  0
ARC
  5
3CB
100
AcDbEntity
  8
0
100
AcDbCircle
 62
9
  6
CONTINUOUS
 10
4.4756928642
 20
7.383386757
 40
0.0230160195
100
AcDbArc
 50
290.8168162794
 51
292.7268279967
  0
ARC
  5
3CC
100
AcDbEntity
  8
0
100
AcDbCircle
 62
7
  6
CONTINUOUS
 10
4.4777295504
 20
7.3820766766
 40
0.0217433453
100
AcDbArc
 50
291.6926663696
 51
300.5312531316
  0
ARC
  5
3CD
100
AcDbEntity
  8
0
100
AcDbCircle
 62
9
  6
CONTINUOUS
 10
4.4375645122
 20
7.3791958664
 40
0.0207992015
100
AcDbArc
 50
318.6202194988
 51
320.2979821515
  0
ARC
  5
3CE
100
AcDbEntity
  8
0
100
AcDbCircle
 62
9
  6
CONTINUOUS
 10
4.4068155039
 20
7.3768232821
 40
0.0207338415
100
AcDbArc
 50
326.7220974031
 51
328.9190581508
  0
ARC
  5
3CF
100
AcDbEntity
  8
0
100
AcDbCircle
 62
7
  6
CONTINUOUS
 10
4.4185014404
 20
7.371407941
 40
0.0098659332
100
AcDbArc
 50
311.2505119006
 51
323.1629427903
  0
ARC
  5
3D0
100
AcDbEntity
  8
0
100
AcDbCircle
 62
7
  6
CONTINUOUS
 10
4.4106224261
 20
7.4082390907
 40
0.0474672177
100
AcDbArc
 50
290.2667449558
 51
292.0862026562
  0
ARC
  5
3D1
100
AcDbEntity
  8
0
100
AcDbCircle
 62
9
  6
CONTINUOUS
 10
4.4163375627
 20
7.4009793913
 40
0.0405333122
100
AcDbArc
 50
285.2490607013
 51
286.3846341083
  0
ARC
  5
3D2
100
AcDbEntity
  8
0
100
AcDbCircle
 62
9
  6
CONTINUOUS
 10
4.4164291837
 20
7.4006712207
 40
0.0402118118
100
AcDbArc
 50
286.3832516658
 51
288.4550890043
  0
ARC
  5
3D3
100
AcDbEntity
  8
0
100
AcDbCircle
 62
9
  6
CONTINUOUS
 10
4.383466109
 20
7.4002781515
 40
0.0398322881
100
AcDbArc
 50
285.3846116239
 51
287.2148243251
  0
ARC
  5
3D4
100
AcDbEntity
  8
0
100
AcDbCircle
 62
9
  6
CONTINUOUS
 10
4.4158662088
 20
7.4156934399
 40
0.0426969693
100
AcDbArc
 50
78.566947829
 51
88.1331527555
  0
ARC
  5
3D5
100
AcDbEntity
  8
0
100
AcDbCircle
 62
9
  6
CONTINUOUS
 10
4.4161220527
 20
7.4169841554
 40
0.0413811517
100
AcDbArc
 50
74.2752380465
 51
78.5599111998
  0
ARC
  5
3D6
100
AcDbEntity
  8
0
100
AcDbCircle
 62
7
  6
CONTINUOUS
 10
4.4374289394
 20
7.4092447789
 40
0.0487213121
100
AcDbArc
 50
283.5170356784
 51
289.6171884566
  0
ARC
  5
3D7
100
AcDbEntity
  8
0
100
AcDbCircle
 62
7
  6
CONTINUOUS
 10
4.4385882477
 20
7.4058620834
 40
0.0451457608
100
AcDbArc
 50
289.6726089053
 51
292.8366043947
  0
ARC
  5
3D8
100
AcDbEntity
  8
0
100
AcDbCircle
 62
7
  6
CONTINUOUS
 10
4.4590924322
 20
7.4044069239
 40
0.043896596
100
AcDbArc
 50
284.3136937955
 51
290.7269157821
  0
ARC
  5
3D9
100
AcDbEntity
  8
0
100
AcDbCircle
 62
7
  6
CONTINUOUS
 10
4.460001472
 20
7.4018904415
 40
0.0412212835
100
AcDbArc
 50
290.7830897249
 51
294.0755139026
  0
ARC
  5
3DA
100
AcDbEntity
  8
0
100
AcDbCircle
 62
9
  6
CONTINUOUS
 10
4.4431564502
 20
7.3998218955
 40
0.0393591222
100
AcDbArc
 50
285.3846931716
 51
290.0839669146
  0
ARC
  5
3DB
100
AcDbEntity
  8
0
100
AcDbCircle
 62
7
  6
CONTINUOUS
 10
4.4737126382
 20
7.3984687394
 40
0.037979814
100
AcDbArc
 50
285.5157442735
 51
292.3871535211
  0
ARC
  5
3DC
100
AcDbEntity
  8
0
100
AcDbCircle
 62
9
  6
CONTINUOUS
 10
4.4631745974
 20
7.3976524837
 40
0.0371886982
100
AcDbArc
 50
285.8245480048
 51
292.2258935428
  0
ARC
  5
3DD
100
AcDbEntity
  8
0
100
AcDbCircle
 62
7
  6
CONTINUOUS
 10
4.4743591149
 20
7.3968227578
 40
0.0362116803
100
AcDbArc
 50
292.4332616315
 51
295.9246073718
  0
ARC
  5
3DE
100
AcDbEntity
  8
0
100
AcDbCircle
 62
9
  6
CONTINUOUS
 10
4.476041073
 20
7.3944713139
 40
0.0340179398
100
AcDbArc
 50
286.612112554
 51
295.0516475918
  0
ARC
  5
3DF
100
AcDbEntity
  8
0
100
AcDbCircle
 62
9
  6
CONTINUOUS
 10
4.4783887213
 20
7.3903969537
 40
0.0317123429
100
AcDbArc
 50
349.6207053026
 51
359.9906959714
  0
ARC
  5
3E0
100
AcDbEntity
  8
0
100
AcDbCircle
 62
7
  6
CONTINUOUS
 10
4.4809450746
 20
7.3920236126
 40
0.0315767704
100
AcDbArc
 50
287.2858040074
 51
291.057685934
  0
ARC
  5
3E1
100
AcDbEntity
  8
0
100
AcDbCircle
 62
9
  6
CONTINUOUS
 10
4.4789130508
 20
7.3902877701
 40
0.0311769249
100
AcDbArc
 50
342.6095813413
 51
349.6444709164
  0
ARC
  5
3E2
100
AcDbEntity
  8
0
100
AcDbCircle
 62
9
  6
CONTINUOUS
 10
4.4791039783
 20
7.3902305643
 40
0.0309776271
100
AcDbArc
 50
335.8006738414
 51
342.6050060657
  0
ARC
  5
3E3
100
AcDbEntity
  8
0
100
AcDbCircle
 62
7
  6
CONTINUOUS
 10
4.4811702973
 20
7.3914501902
 40
0.0309607177
100
AcDbArc
 50
291.0500113198
 51
298.5529861566
  0
ARC
  5
3E4
100
AcDbEntity
  8
0
100
AcDbCircle
 62
9
  6
CONTINUOUS
 10
4.479786368
 20
7.3899274301
 40
0.0302309441
100
AcDbArc
 50
327.6479192257
 51
335.7945641426
  0
ARC
  5
3E5
100
AcDbEntity
  8
0
100
AcDbCircle
 62
7
  6
CONTINUOUS
 10
4.4814834823
 20
7.390391804
 40
0.03
100
AcDbArc
 50
272.8659839826
 51
287.5203921649
  0
ARC
  5
3E6
100
AcDbEntity
  8
0
100
AcDbCircle
 62
7
  6
CONTINUOUS
 10
4.4814563965
 20
7.3903525133
 40
0.0299948515
100
AcDbArc
 50
298.9954933842
 51
359.352636919
  0
ARC
  5
3E7
100
AcDbEntity
  8
0
100
AcDbCircle
 62
7
  6
CONTINUOUS
 10
4.4816074525
 20
7.3903317302
 40
0.0298727618
100
AcDbArc
 50
298.9269261711
 51
303.5898872118
  0
ARC
  5
3E8
100
AcDbEntity
  8
0
100
AcDbCircle
 62
9
  6
CONTINUOUS
 10
4.4801366676
 20
7.3897100114
 40
0.0298186746
100
AcDbArc
 50
321.1106346158
 51
327.64065128
  0
ARC
  5
3E9
100
AcDbEntity
  8
0
100
AcDbCircle
 62
7
  6
CONTINUOUS
 10
4.4816756377
 20
7.3902284956
 40
0.0297490423
100
AcDbArc
 50
303.5904928971
 51
308.3472239932
  0
ARC
  5
3EA
100
AcDbEntity
  8
0
100
AcDbCircle
 62
7
  6
CONTINUOUS
 10
4.4817548147
 20
7.3903908069
 40
0.0296981503
100
AcDbArc
 50
359.2722580697
 51
0.0019237867
  0
ARC
  5
3EB
100
AcDbEntity
  8
0
100
AcDbCircle
 62
7
  6
CONTINUOUS
 10
4.481744923
 20
7.3901449035
 40
0.0296404977
100
AcDbArc
 50
308.342438888
 51
317.5955827969
  0
ARC
  5
3EC
100
AcDbEntity
  8
0
100
AcDbCircle
 62
9
  6
CONTINUOUS
 10
4.4807942439
 20
7.3891817185
 40
0.0289751717
100
AcDbArc
 50
310.164648769
 51
321.1073981826
  0
ARC
  5
3ED
100
AcDbEntity
  8
0
100
AcDbCircle
 62
9
  6
CONTINUOUS
 10
4.4811200598
 20
7.3888190791
 40
0.0284879019
100
AcDbArc
 50
305.4681146004
 51
310.1343009114
  0
ARC
  5
3EE
100
AcDbEntity
  8
0
100
AcDbCircle
 62
9
  6
CONTINUOUS
 10
4.472389178
 20
7.3874701517
 40
0.0283283895
100
AcDbArc
 50
320.9378620738
 51
322.9150187639
  0
ARC
  5
3EF
100
AcDbEntity
  8
0
100
AcDbCircle
 62
9
  6
CONTINUOUS
 10
4.4812725564
 20
7.3886064297
 40
0.0282262259
100
AcDbArc
 50
292.7858006497
 51
305.4664719097
  0
ARC
  5
3F0
100
AcDbEntity
  8
0
100
AcDbCircle
 62
9
  6
CONTINUOUS
 10
4.481355437
 20
7.3884256328
 40
0.0280274407
100
AcDbArc
 50
290.5755446567
 51
292.772733079
  0
ARC
  5
3F1
100
AcDbEntity
  8
0
100
AcDbCircle
 62
9
  6
CONTINUOUS
 10
4.4813909342
 20
7.3883316202
 40
0.02792695
100
AcDbArc
 50
288.6632642148
 51
290.5751490079
  0
ARC
  5
3F2
100
AcDbEntity
  8
0
100
AcDbCircle
 62
9
  6
CONTINUOUS
 10
4.4728361878
 20
7.3871081202
 40
0.0277531641
100
AcDbArc
 50
317.9964486758
 51
320.9366547165
  0
ARC
  5
3F3
100
AcDbEntity
  8
0
100
AcDbCircle
 62
9
  6
CONTINUOUS
 10
4.4856391472
 20
7.390414633
 40
0.0183890292
100
AcDbArc
 50
343.8636799136
 51
359.9288714796
  0
ARC
  5
3F4
100
AcDbEntity
  8
0
100
AcDbCircle
 62
9
  6
CONTINUOUS
 10
4.4425344546
 20
7.4160334171
 40
0.0423580906
100
AcDbArc
 50
85.7432282116
 51
88.080805162
  0
ARC
  5
3F5
100
AcDbEntity
  8
0
100
AcDbCircle
 62
9
  6
CONTINUOUS
 10
4.4425400889
 20
7.4161136754
 40
0.0422776355
100
AcDbArc
 50
85.1559681779
 51
85.7427693811
  0
ARC
  5
3F6
100
AcDbEntity
  8
0
100
AcDbCircle
 62
9
  6
CONTINUOUS
 10
4.4625765472
 20
7.4184735538
 40
0.0399179623
100
AcDbArc
 50
86.1919500123
 51
88.0222840208
  0
ARC
  5
3F7
100
AcDbEntity
  8
0
100
AcDbCircle
 62
9
  6
CONTINUOUS
 10
4.462689041
 20
7.4193917575
 40
0.0389943484
100
AcDbArc
 50
73.6888320027
 51
86.2672737685
  0
ARC
  5
3F8
100
AcDbEntity
  8
0
100
AcDbCircle
 62
9
  6
CONTINUOUS
 10
4.475560705
 20
7.4223322152
 40
0.0360593304
100
AcDbArc
 50
86.8724919191
 51
87.9182497567
  0
ARC
  5
3F9
100
AcDbEntity
  8
0
100
AcDbCircle
 62
9
  6
CONTINUOUS
 10
4.4755710391
 20
7.4224512833
 40
0.0359398761
100
AcDbArc
 50
80.6861040397
 51
86.8785859508
  0
ARC
  5
3FA
100
AcDbEntity
  8
0
100
AcDbCircle
 62
9
  6
CONTINUOUS
 10
4.4783179253
 20
7.4283793702
 40
0.0317831409
100
AcDbArc
 50
0.0224145988
 51
10.3027681249
  0
ARC
  5
3FB
100
AcDbEntity
  8
0
100
AcDbCircle
 62
9
  6
CONTINUOUS
 10
4.4694756273
 20
7.4295114831
 40
0.0317620865
100
AcDbArc
 50
24.1552845939
 51
25.1616787215
  0
ARC
  5
3FC
100
AcDbEntity
  8
0
100
AcDbCircle
 62
9
  6
CONTINUOUS
 10
4.4789530238
 20
7.428506257
 40
0.0311355909
100
AcDbArc
 50
10.2820590696
 51
17.7158109687
  0
ARC
  5
3FD
100
AcDbEntity
  8
0
100
AcDbCircle
 62
9
  6
CONTINUOUS
 10
4.4791029441
 20
7.4285510464
 40
0.0309791511
100
AcDbArc
 50
17.7212757349
 51
24.673271808
  0
ARC
  5
3FE
100
AcDbEntity
  8
0
100
AcDbCircle
 62
7
  6
CONTINUOUS
 10
4.4812500597
 20
7.4274301785
 40
0.0309608896
100
AcDbArc
 50
74.4987554207
 51
87.7760098372
  0
ARC
  5
3FF
100
AcDbEntity
  8
0
100
AcDbCircle
 62
9
  6
CONTINUOUS
 10
4.4798404494
 20
7.428888938
 40
0.0301679272
100
AcDbArc
 50
24.6748357091
 51
34.2384521826
  0
ARC
  5
400
100
AcDbEntity
  8
0
100
AcDbCircle
 62
7
  6
CONTINUOUS
 10
4.4814834823
 20
7.428391804
 40
0.03
100
AcDbArc
 50
42.4095483644
 51
90.0
  0
ARC
  5
401
100
AcDbEntity
  8
0
100
AcDbCircle
 62
7
  6
CONTINUOUS
 10
4.4817041083
 20
7.4283909004
 40
0.0297488567
100
AcDbArc
 50
0.0017403298
 51
0.7286936263
  0
ARC
  5
402
100
AcDbEntity
  8
0
100
AcDbCircle
 62
7
  6
CONTINUOUS
 10
4.4817051648
 20
7.4285894712
 40
0.0297030025
100
AcDbArc
 50
42.4169855557
 51
51.7374193795
  0
ARC
  5
403
100
AcDbEntity
  8
0
100
AcDbCircle
 62
9
  6
CONTINUOUS
 10
4.4802973988
 20
7.4291879177
 40
0.02962195
100
AcDbArc
 50
34.2576586881
 51
39.499436296
  0
ARC
  5
404
100
AcDbEntity
  8
0
100
AcDbCircle
 62
9
  6
CONTINUOUS
 10
4.4808900869
 20
7.4296873768
 40
0.0288469235
100
AcDbArc
 50
39.4827391655
 51
54.1653640791
  0
ARC
  5
405
100
AcDbEntity
  8
0
100
AcDbCircle
 62
9
  6
CONTINUOUS
 10
4.481165372
 20
7.4300432189
 40
0.0283972776
100
AcDbArc
 50
54.1953250279
 51
55.8786875749
  0
ARC
  5
406
100
AcDbEntity
  8
0
100
AcDbCircle
 62
9
  6
CONTINUOUS
 10
4.4812904405
 20
7.4300779157
 40
0.0283136486
100
AcDbArc
 50
72.6654778534
 51
87.6497399135
  0
ARC
  5
407
100
AcDbEntity
  8
0
100
AcDbCircle
 62
9
  6
CONTINUOUS
 10
4.4724063305
 20
7.4313159707
 40
0.0283132238
100
AcDbArc
 50
36.5539317171
 51
39.6754044275
  0
ARC
  5
408
100
AcDbEntity
  8
0
100
AcDbCircle
 62
9
  6
CONTINUOUS
 10
4.4813731839
 20
7.4303699687
 40
0.028010208
100
AcDbArc
 50
55.8556716091
 51
72.6490484388
  0
ARC
  5
409
100
AcDbEntity
  8
0
100
AcDbCircle
 62
9
  6
CONTINUOUS
 10
4.474907056
 20
7.433931792
 40
0.0246822877
100
AcDbArc
 50
51.5667706856
 51
60.5390036936
  0
ARC
  5
40A
100
AcDbEntity
  8
0
100
AcDbCircle
 62
9
  6
CONTINUOUS
 10
4.4755282333
 20
7.4349821456
 40
0.0234622529
100
AcDbArc
 50
60.5982400359
 51
68.2957989205
  0
ARC
  5
40B
100
AcDbEntity
  8
0
100
AcDbCircle
 62
9
  6
CONTINUOUS
 10
4.4757372347
 20
7.4354781232
 40
0.0229241481
100
AcDbArc
 50
68.3227032226
 51
75.9337724618
  0
ARC
  5
40C
100
AcDbEntity
  8
0
100
AcDbCircle
 62
9
  6
CONTINUOUS
 10
4.4757874937
 20
7.4356609656
 40
0.0227345735
100
AcDbArc
 50
75.9446429703
 51
78.0084690783
  0
ARC
  5
40D
100
AcDbEntity
  8
0
100
AcDbCircle
 62
9
  6
CONTINUOUS
 10
4.4758219816
 20
7.4358331347
 40
0.022558996
100
AcDbArc
 50
78.0032985776
 51
87.3358027539
  0
ARC
  5
40E
100
AcDbEntity
  8
0
100
AcDbCircle
 62
9
  6
CONTINUOUS
 10
4.4630677733
 20
7.4419715677
 40
0.0164201091
100
AcDbArc
 50
84.8431698557
 51
86.9063491588
  0
ARC
  5
40F
100
AcDbEntity
  8
0
100
AcDbCircle
 62
7
  6
CONTINUOUS
 10
12.9539715415
 20
6.9403679224
 40
0.333
100
AcDbArc
 50
217.5560971095
 51
269.3138005363
  0
ARC
  5
410
100
AcDbEntity
  8
0
100
AcDbCircle
 62
7
  6
CONTINUOUS
 10
11.2459954231
 20
6.9403679224
 40
0.333
100
AcDbArc
 50
270.6861994637
 51
322.4439028905
  0
ARC
  5
411
100
AcDbEntity
  8
0
100
AcDbCircle
 62
7
  6
CONTINUOUS
 10
12.9849834823
 20
6.367391804
 40
0.17
100
AcDbArc
 50
0.0
 51
90.0
  0
ARC
  5
412
100
AcDbEntity
  8
0
100
AcDbCircle
 62
7
  6
CONTINUOUS
 10
11.2149834823
 20
6.367391804
 40
0.17
100
AcDbArc
 50
90.0
 51
180.0
  0
ARC
  5
413
100
AcDbEntity
  8
0
100
AcDbCircle
 62
7
  6
CONTINUOUS
 10
12.6846093571
 20
6.887391804
 40
0.112
100
AcDbArc
 50
315.8588345181
 51
44.1411654819
  0
ARC
  5
414
100
AcDbEntity
  8
0
100
AcDbCircle
 62
7
  6
CONTINUOUS
 10
11.5153576075
 20
6.887391804
 40
0.112
100
AcDbArc
 50
135.8588345181
 51
224.1411654819
  0
ARC
  5
415
100
AcDbEntity
  8
0
100
AcDbCircle
 62
7
  6
CONTINUOUS
 10
21.8699834823
 20
7.497391804
 40
0.04
100
AcDbArc
 50
0.0
 51
90.0
  0
ARC
  5
416
100
AcDbEntity
  8
0
100
AcDbCircle
 62
7
  6
CONTINUOUS
 10
20.3299834823
 20
7.497391804
 40
0.04
100
AcDbArc
 50
90.0
 51
180.0
  0
ARC
  5
417
100
AcDbEntity
  8
0
100
AcDbCircle
 62
7
  6
CONTINUOUS
 10
20.1399834823
 20
6.667391804
 40
0.04
100
AcDbArc
 50
90.0
 51
180.0
  0
ARC
  5
418
100
AcDbEntity
  8
0
100
AcDbCircle
 62
7
  6
CONTINUOUS
 10
22.0599834823
 20
6.667391804
 40
0.04
100
AcDbArc
 50
0.0
 51
90.0
  0
ARC
  5
419
100
AcDbEntity
  8
0
100
AcDbCircle
 62
7
  6
CONTINUOUS
 10
11.5099834823
 20
7.067391804
 40
0.03
100
AcDbArc
 50
270.0
 51
360.0
  0
ARC
  5
41A
100
AcDbEntity
  8
0
100
AcDbCircle
 62
7
  6
CONTINUOUS
 10
12.6899834823
 20
7.067391804
 40
0.03
100
AcDbArc
 50
180.0
 51
270.0
  0
ARC
  5
41B
100
AcDbEntity
  8
0
100
AcDbCircle
 62
7
  6
CONTINUOUS
 10
12.6399834823
 20
8.738087819
 40
0.02
100
AcDbArc
 50
0.0
 51
85.921584294
  0
ARC
  5
41C
100
AcDbEntity
  8
0
100
AcDbCircle
 62
7
  6
CONTINUOUS
 10
11.5599834823
 20
8.738087819
 40
0.02
100
AcDbArc
 50
94.078415706
 51
180.0
  0
ARC
  5
41D
100
AcDbEntity
  8
0
100
AcDbCircle
 62
7
  6
CONTINUOUS
 10
11.5404250186
 20
9.0123914218
 40
0.255
100
AcDbArc
 50
274.078415706
 51
352.6880583707
  0
ARC
  5
41E
100
AcDbEntity
  8
0
100
AcDbCircle
 62
7
  6
CONTINUOUS
 10
11.8949834823
 20
9.1172626822
 40
0.08
100
AcDbArc
 50
180.0
 51
257.8468025309
  0
ARC
  5
41F
100
AcDbEntity
  8
0
100
AcDbCircle
 62
7
  6
CONTINUOUS
 10
11.8131887015
 20
8.977391804
 40
0.02
100
AcDbArc
 50
90.0
 51
172.6880583708
  0
ARC
  5
420
100
AcDbEntity
  8
0
100
AcDbCircle
 62
7
  6
CONTINUOUS
 10
11.8749834823
 20
9.024391804
 40
0.015
100
AcDbArc
 50
0.0
 51
77.846802531
  0
ARC
  5
421
100
AcDbEntity
  8
0
100
AcDbCircle
 62
7
  6
CONTINUOUS
 10
11.779140694
 20
9.8493305732
 40
0.07
100
AcDbArc
 50
121.0998839863
 51
238.9001160137
  0
ARC
  5
422
100
AcDbEntity
  8
0
100
AcDbCircle
 62
7
  6
CONTINUOUS
 10
11.8099834823
 20
9.9701133869
 40
0.01
100
AcDbArc
 50
116.4971851677
 51
180.0
  0
ARC
  5
423
100
AcDbEntity
  8
0
100
AcDbCircle
 62
7
  6
CONTINUOUS
 10
11.7529834823
 20
9.9592693423
 40
0.01
100
AcDbArc
 50
90.0
 51
180.0
  0
ARC
  5
424
100
AcDbEntity
  8
0
100
AcDbCircle
 62
7
  6
CONTINUOUS
 10
12.0999834823
 20
9.388391804
 40
0.66
100
AcDbArc
 50
63.5028148323
 51
116.4971851677
  0
ARC
  5
425
100
AcDbEntity
  8
0
100
AcDbCircle
 62
7
  6
CONTINUOUS
 10
12.6595419461
 20
9.0123914218
 40
0.255
100
AcDbArc
 50
187.3119416293
 51
265.921584294
  0
ARC
  5
426
100
AcDbEntity
  8
0
100
AcDbCircle
 62
7
  6
CONTINUOUS
 10
12.3049834823
 20
9.1172626822
 40
0.08
100
AcDbArc
 50
282.1531974691
 51
360.0
  0
ARC
  5
427
100
AcDbEntity
  8
0
100
AcDbCircle
 62
7
  6
CONTINUOUS
 10
12.3867782631
 20
8.977391804
 40
0.02
100
AcDbArc
 50
7.3119416292
 51
90.0
  0
ARC
  5
428
100
AcDbEntity
  8
0
100
AcDbCircle
 62
7
  6
CONTINUOUS
 10
12.3249834823
 20
9.024391804
 40
0.015
100
AcDbArc
 50
102.153197469
 51
180.0
  0
CIRCLE
  5
429
100
AcDbEntity
  8
0
100
AcDbCircle
 62
7
  6
CONTINUOUS
 10
12.0999834823
 20
9.609391804
 40
0.3850234217
  0
CIRCLE
  5
42A
100
AcDbEntity
  8
0
100
AcDbCircle
 62
7
  6
CONTINUOUS
 10
12.0999834823
 20
9.609391804
 40
0.3848921748
  0
CIRCLE
  5
42B
100
AcDbEntity
  8
0
100
AcDbCircle
 62
9
  6
CONTINUOUS
 10
12.0999834823
 20
9.609391804
 40
0.2481260821
  0
CIRCLE
  5
42C
100
AcDbEntity
  8
0
100
AcDbCircle
 62
7
  6
CONTINUOUS
 10
12.0999834823
 20
9.609391804
 40
0.245
  0
CIRCLE
  5
42D
100
AcDbEntity
  8
0
100
AcDbCircle
 62
9
  6
CONTINUOUS
 10
12.0999834823
 20
9.609391804
 40
0.225
  0
CIRCLE
  5
42E
100
AcDbEntity
  8
0
100
AcDbCircle
 62
7
  6
CONTINUOUS
 10
12.0999834823
 20
9.609391804
 40
0.1949358869
  0
ARC
  5
42F
100
AcDbEntity
  8
0
100
AcDbCircle
 62
7
  6
CONTINUOUS
 10
12.4208262707
 20
9.8493305732
 40
0.07
100
AcDbArc
 50
301.0998839863
 51
58.9001160137
  0
ARC
  5
430
100
AcDbEntity
  8
0
100
AcDbCircle
 62
7
  6
CONTINUOUS
 10
12.3899834823
 20
9.9701133869
 40
0.01
100
AcDbArc
 50
0.0
 51
63.5028148323
  0
ARC
  5
431
100
AcDbEntity
  8
0
100
AcDbCircle
 62
7
  6
CONTINUOUS
 10
12.4469834823
 20
9.9592693423
 40
0.01
100
AcDbArc
 50
0.0
 51
90.0
  0
ARC
  5
432
100
AcDbEntity
  8
0
100
AcDbCircle
 62
7
  6
CONTINUOUS
 10
20.1299834823
 20
11.542391804
 40
0.04
100
AcDbArc
 50
90.0
 51
180.0
  0
ARC
  5
433
100
AcDbEntity
  8
0
100
AcDbCircle
 62
7
  6
CONTINUOUS
 10
22.0699834823
 20
11.542391804
 40
0.04
100
AcDbArc
 50
0.0
 51
90.0
  0
ARC
  5
434
100
AcDbEntity
  8
0
100
AcDbCircle
 62
7
  6
CONTINUOUS
 10
22.0699834823
 20
11.122391804
 40
0.04
100
AcDbArc
 50
270.0
 51
360.0
  0
ARC
  5
435
100
AcDbEntity
  8
0
100
AcDbCircle
 62
7
  6
CONTINUOUS
 10
20.3299834823
 20
11.692391804
 40
0.04
100
AcDbArc
 50
90.0
 51
180.0
  0
ARC
  5
436
100
AcDbEntity
  8
0
100
AcDbCircle
 62
7
  6
CONTINUOUS
 10
20.1299834823
 20
11.122391804
 40
0.04
100
AcDbArc
 50
180.0
 51
270.0
  0
ARC
  5
437
100
AcDbEntity
  8
0
100
AcDbCircle
 62
7
  6
CONTINUOUS
 10
21.8699834823
 20
11.692391804
 40
0.04
100
AcDbArc
 50
0.0
 51
90.0
  0
SPLINE
  5
438
100
AcDbEntity
  8
0
100
AcDbSpline
 62
7
  6
CONTINUOUS
 70
0
 71
3
 72
12
 73
8
 74
0
 42
0.0000001
 43
0.0000001
 44
0.0000000001
 40
0.0
 40
0.0
 40
0.0
 40
0.0
 40
0.2574971711
 40
0.3852943895
 40
0.5117129718
 40
0.7593994087
 40
1.0
 40
1.0
 40
1.0
 40
1.0
 10
4.5114505591
 20
7.4287692393
 30
0.0
 10
4.5114267806
 20
7.4306395994
 30
0.0
 10
4.5111293387
 20
7.4334438769
 30
0.0
 10
4.5102289362
 20
7.4370542704
 30
0.0
 10
4.5090213777
 20
7.4404994636
 30
0.0
 10
4.5069774095
 20
7.4444978898
 30
0.0
 10
4.5048123874
 20
7.447334396
 30
0.0
 10
4.5036335671
 20
7.4486247783
 30
0.0
  0
SPLINE
  5
439
100
AcDbEntity
  8
0
100
AcDbSpline
 62
7
  6
CONTINUOUS
 70
0
 71
3
 72
9
 73
5
 74
0
 42
0.0000001
 43
0.0000001
 44
0.0000000001
 40
0.0
 40
0.0
 40
0.0
 40
0.0
 40
0.2625027493
 40
1.0
 40
1.0
 40
1.0
 40
1.0
 10
4.4768172952
 20
7.3642550553
 30
0.0
 10
4.4765383467
 20
7.3640102557
 30
0.0
 10
4.4754484995
 20
7.3631094695
 30
0.0
 10
4.4742477977
 20
7.3623403384
 30
0.0
 10
4.473315693
 20
7.3618730237
 30
0.0
  0
SPLINE
  5
43A
100
AcDbEntity
  8
0
100
AcDbSpline
 62
7
  6
CONTINUOUS
 70
0
 71
3
 72
9
 73
5
 74
0
 42
0.0000001
 43
0.0000001
 44
0.0000000001
 40
0.0
 40
0.0
 40
0.0
 40
0.0
 40
0.2707857479
 40
1.0
 40
1.0
 40
1.0
 40
1.0
 10
4.4561095186
 20
7.3642550553
 30
0.0
 10
4.4559114912
 20
7.3640127198
 30
0.0
 10
4.4551547238
 20
7.3631395488
 30
0.0
 10
4.4542891005
 20
7.3623558595
 30
0.0
 10
4.4535983816
 20
7.3618729728
 30
0.0
  0
SPLINE
  5
43B
100
AcDbEntity
  8
0
100
AcDbSpline
 62
7
  6
CONTINUOUS
 70
0
 71
3
 72
12
 73
8
 74
0
 42
0.0000001
 43
0.0000001
 44
0.0000000001
 40
0.0
 40
0.0
 40
0.0
 40
0.0
 40
0.2575035615
 40
0.3853063792
 40
0.5117233174
 40
0.7594059814
 40
1.0
 40
1.0
 40
1.0
 40
1.0
 10
3.6885164431
 20
7.428772453
 30
0.0
 10
3.688540411
 20
7.4306426633
 30
0.0
 10
3.6888382361
 20
7.433446684
 30
0.0
 10
3.6897387229
 20
7.4370567338
 30
0.0
 10
3.6909464729
 20
7.440501464
 30
0.0
 10
3.6929904576
 20
7.444499253
 30
0.0
 10
3.6951553495
 20
7.4473352866
 30
0.0
 10
3.6963340346
 20
7.4486254825
 30
0.0
  0
LINE
  5
43C
100
AcDbEntity
  8
0
100
AcDbLine
 62
7
  6
CONTINUOUS
 10
4.4284701539
 20
7.3642550553
 11
4.427999404
 21
7.3633479957
  0
LINE
  5
43D
100
AcDbEntity
  8
0
100
AcDbLine
 62
7
  6
CONTINUOUS
 10
4.427999404
 20
7.3633479957
 11
4.4275087067
 21
7.3625527327
  0
LINE
  5
43E
100
AcDbEntity
  8
0
100
AcDbLine
 62
7
  6
CONTINUOUS
 10
4.4275087067
 20
7.3625527327
 11
4.4269984552
 21
7.3618730237
  0
LINE
  5
43F
100
AcDbEntity
  8
0
100
AcDbLine
 62
7
  6
CONTINUOUS
 10
4.3944371697
 20
7.3642550553
 11
4.3940335046
 21
7.3618730095
  0
SPLINE
  5
440
100
AcDbEntity
  8
0
100
AcDbSpline
 62
7
  6
CONTINUOUS
 70
0
 71
3
 72
13
 73
9
 74
0
 42
0.0000001
 43
0.0000001
 44
0.0000000001
 40
0.0
 40
0.0
 40
0.0
 40
0.0
 40
0.2574338821
 40
0.3851788663
 40
0.5115333945
 40
0.6363346821
 40
0.7594027885
 40
1.0
 40
1.0
 40
1.0
 40
1.0
 10
3.6885163697
 20
7.3900158816
 30
0.0
 10
3.6885399907
 20
7.3881451152
 30
0.0
 10
3.6888376356
 20
7.3853403276
 30
0.0
 10
3.6897377957
 20
7.38172964
 30
0.0
 10
3.6906499894
 20
7.3791270476
 30
0.0
 10
3.6917804905
 20
7.376649087
 30
0.0
 10
3.6935424704
 20
7.3735634523
 30
0.0
 10
3.6951562814
 20
7.3714477069
 30
0.0
 10
3.6963354058
 20
7.3701565419
 30
0.0
  0
LINE
  5
441
100
AcDbEntity
  8
0
100
AcDbLine
 62
7
  6
CONTINUOUS
 10
3.7266512715
 20
7.3618730244
 11
3.7242651389
 21
7.3633514088
  0
LINE
  5
442
100
AcDbEntity
  8
0
100
AcDbLine
 62
7
  6
CONTINUOUS
 10
3.7463685766
 20
7.3618729549
 11
3.7446573921
 21
7.3633513937
  0
LINE
  5
443
100
AcDbEntity
  8
0
100
AcDbLine
 62
7
  6
CONTINUOUS
 10
3.7446573921
 20
7.3633513937
 11
3.743857446
 21
7.3642550553
  0
LINE
  5
444
100
AcDbEntity
  8
0
100
AcDbLine
 62
7
  6
CONTINUOUS
 10
3.7729685093
 20
7.3618730244
 11
3.7714968107
 21
7.3642550553
  0
LINE
  5
445
100
AcDbEntity
  8
0
100
AcDbLine
 62
7
  6
CONTINUOUS
 10
3.8059334599
 20
7.3618730127
 11
3.8055297949
 21
7.3642550553
  0
SPLINE
  5
446
100
AcDbEntity
  8
0
100
AcDbSpline
 62
7
  6
CONTINUOUS
 70
0
 71
3
 72
18
 73
14
 74
0
 42
0.0000001
 43
0.0000001
 44
0.0000000001
 40
0.0
 40
0.0
 40
0.0
 40
0.0
 40
0.1907931646
 40
0.3690545891
 40
0.5276969522
 40
0.6644863863
 40
0.7785392446
 40
0.827170642
 40
0.8704425461
 40
0.9086908494
 40
0.9424430534
 40
0.9724953776
 40
1.0
 40
1.0
 40
1.0
 40
1.0
 10
4.2091983123
 20
7.4469668003
 30
0.0
 10
4.2091983191
 20
7.4477644584
 30
0.0
 10
4.2091315611
 20
7.4493079578
 30
0.0
 10
4.2088712789
 20
7.4515006216
 30
0.0
 10
4.2084848995
 20
7.4534453494
 30
0.0
 10
4.2080062614
 20
7.455091281
 30
0.0
 10
4.2075283135
 20
7.4562529016
 30
0.0
 10
4.2071079171
 20
7.4570054872
 30
0.0
 10
4.206798499
 20
7.4574542827
 30
0.0
 10
4.2064796861
 20
7.457817479
 30
0.0
 10
4.2061525321
 20
7.4580944487
 30
0.0
 10
4.2058180974
 20
7.4582838634
 30
0.0
 10
4.205584023
 20
7.4583515115
 30
0.0
 10
4.2054702278
 20
7.4583680439
 30
0.0
  0
SPLINE
  5
447
100
AcDbEntity
  8
0
100
AcDbSpline
 62
9
  6
CONTINUOUS
 70
0
 71
3
 72
21
 73
17
 74
0
 42
0.0000001
 43
0.0000001
 44
0.0000000001
 40
0.0
 40
0.0
 40
0.0
 40
0.0
 40
0.1986025603
 40
0.386109274
 40
0.5535521885
 40
0.6280391386
 40
0.6957990079
 40
0.7566517297
 40
0.8105375452
 40
0.8574593374
 40
0.897588864
 40
0.931205175
 40
0.9587720365
 40
0.9705582783
 40
0.9812131945
 40
1.0
 40
1.0
 40
1.0
 40
1.0
 10
4.2494761127
 20
7.428391804
 30
0.0
 10
4.2494741985
 20
7.4304704413
 30
0.0
 10
4.2495677219
 20
7.434512325
 30
0.0
 10
4.2499701275
 20
7.4402939324
 30
0.0
 10
4.2505098955
 20
7.4447587445
 30
0.0
 10
4.2510508592
 20
7.4479551229
 30
0.0
 10
4.2514775511
 20
7.4500380607
 30
0.0
 10
4.2519350443
 20
7.4518931468
 30
0.0
 10
4.2524175054
 20
7.453515707
 30
0.0
 10
4.2529200068
 20
7.454903619
 30
0.0
 10
4.2534367171
 20
7.456057769
 30
0.0
 10
4.2539621265
 20
7.4569808535
 30
0.0
 10
4.2544273353
 20
7.4575917594
 30
0.0
 10
4.2548085347
 20
7.4579525335
 30
0.0
 10
4.2551572983
 20
7.4582072667
 30
0.0
 10
4.255448862
 20
7.4583312661
 30
0.0
 10
4.2556420769
 20
7.458367747
 30
0.0
  0
SPLINE
  5
448
100
AcDbEntity
  8
0
100
AcDbSpline
 62
9
  6
CONTINUOUS
 70
0
 71
3
 72
15
 73
11
 74
0
 42
0.0000001
 43
0.0000001
 44
0.0000000001
 40
0.0
 40
0.0
 40
0.0
 40
0.0
 40
0.1614023489
 40
0.3174441959
 40
0.4635050854
 40
0.5971305693
 40
0.7168451891
 40
0.8231507146
 40
0.9171227365
 40
1.0
 40
1.0
 40
1.0
 40
1.0
 10
4.2550895214
 20
7.4283918037
 30
0.0
 10
4.2550896818
 20
7.4294705514
 30
0.0
 10
4.255173791
 20
7.4315930503
 30
0.0
 10
4.2555334673
 20
7.4346731511
 30
0.0
 10
4.2561117982
 20
7.4375310259
 30
0.0
 10
4.2568677609
 20
7.4400950158
 30
0.0
 10
4.2577682317
 20
7.4423282422
 30
0.0
 10
4.2587848789
 20
7.4442157331
 30
0.0
 10
4.2598907558
 20
7.4457582391
 30
0.0
 10
4.2607205667
 20
7.4466090756
 30
0.0
 10
4.2611433035
 20
7.4469670123
 30
0.0
  0
SPLINE
  5
449
100
AcDbEntity
  8
0
100
AcDbSpline
 62
9
  6
CONTINUOUS
 70
0
 71
3
 72
15
 73
11
 74
0
 42
0.0000001
 43
0.0000001
 44
0.0000000001
 40
0.0
 40
0.0
 40
0.0
 40
0.0
 40
0.0828802519
 40
0.1768559814
 40
0.2831657441
 40
0.402883555
 40
0.5365092526
 40
0.6825674008
 40
0.8386042833
 40
1.0
 40
1.0
 40
1.0
 40
1.0
 10
4.2611432992
 20
7.3718165557
 30
0.0
 10
4.2607205058
 20
7.3721744596
 30
0.0
 10
4.2598906189
 20
7.3730253017
 30
0.0
 10
4.258784728
 20
7.3745678991
 30
0.0
 10
4.2577681165
 20
7.376455503
 30
0.0
 10
4.2568676899
 20
7.3786888097
 30
0.0
 10
4.2561117401
 20
7.3812528166
 30
0.0
 10
4.2555334131
 20
7.3841106514
 30
0.0
 10
4.2551737416
 20
7.3871906674
 30
0.0
 10
4.2550896411
 20
7.3893130971
 30
0.0
 10
4.2550894885
 20
7.3903918043
 30
0.0
  0
SPLINE
  5
44A
100
AcDbEntity
  8
0
100
AcDbSpline
 62
9
  6
CONTINUOUS
 70
0
 71
3
 72
15
 73
11
 74
0
 42
0.0000001
 43
0.0000001
 44
0.0000000001
 40
0.0
 40
0.0
 40
0.0
 40
0.0
 40
0.1255466354
 40
0.2509459887
 40
0.3758430286
 40
0.5004690236
 40
0.6253658456
 40
0.7502100285
 40
0.8751266372
 40
1.0
 40
1.0
 40
1.0
 40
1.0
 10
4.2611433863
 20
7.4469670113
 30
0.0
 10
4.2621794656
 20
7.4466302627
 30
0.0
 10
4.2642161156
 20
7.4458448436
 30
0.0
 10
4.267110072
 20
7.4443245217
 30
0.0
 10
4.2697833174
 20
7.4424531087
 30
0.0
 10
4.2721644464
 20
7.4402250243
 30
0.0
 10
4.2741726968
 20
7.4376536283
 30
0.0
 10
4.2757180893
 20
7.4347724083
 30
0.0
 10
4.2766858522
 20
7.4316484077
 30
0.0
 10
4.2769136099
 20
7.4294753923
 30
0.0
 10
4.2769140281
 20
7.4283918037
 30
0.0
  0
SPLINE
  5
44B
100
AcDbEntity
  8
0
100
AcDbSpline
 62
9
  6
CONTINUOUS
 70
0
 71
3
 72
15
 73
11
 74
0
 42
0.0000001
 43
0.0000001
 44
0.0000000001
 40
0.0
 40
0.0
 40
0.0
 40
0.0
 40
0.1248685627
 40
0.2497822023
 40
0.3746239874
 40
0.4995192194
 40
0.6241443754
 40
0.7490416552
 40
0.8744441826
 40
1.0
 40
1.0
 40
1.0
 40
1.0
 10
4.2769141143
 20
7.3903918043
 30
0.0
 10
4.2769137136
 20
7.3893082531
 30
0.0
 10
4.2766859703
 20
7.3871352933
 30
0.0
 10
4.2757182222
 20
7.3840113672
 30
0.0
 10
4.2741728434
 20
7.3811301948
 30
0.0
 10
4.2721646408
 20
7.3785588048
 30
0.0
 10
4.2697836132
 20
7.3763306262
 30
0.0
 10
4.2671104168
 20
7.3744590774
 30
0.0
 10
4.2642163703
 20
7.3729386532
 30
0.0
 10
4.2621795795
 20
7.3721532612
 30
0.0
 10
4.2611433983
 20
7.3718165545
 30
0.0
  0
SPLINE
  5
44C
100
AcDbEntity
  8
0
100
AcDbSpline
 62
7
  6
CONTINUOUS
 70
0
 71
3
 72
16
 73
12
 74
0
 42
0.0000001
 43
0.0000001
 44
0.0000000001
 40
0.0
 40
0.0
 40
0.0
 40
0.0
 40
0.1771369125
 40
0.3438561278
 40
0.4943576444
 40
0.6271595015
 40
0.7420709402
 40
0.8403029268
 40
0.9246506796
 40
0.9631032616
 40
1.0
 40
1.0
 40
1.0
 40
1.0
 10
4.2611433266
 20
7.4469668003
 30
0.0
 10
4.2611433365
 20
7.4477652735
 30
0.0
 10
4.2610441376
 20
7.4493164762
 30
0.0
 10
4.2606576119
 20
7.4515153039
 30
0.0
 10
4.260083404
 20
7.4534656652
 30
0.0
 10
4.2593710478
 20
7.4551186377
 30
0.0
 10
4.2585527654
 20
7.4564539651
 30
0.0
 10
4.2576528344
 20
7.4574598552
 30
0.0
 10
4.2568192576
 20
7.4580314428
 30
0.0
 10
4.2561432091
 20
7.4582871445
 30
0.0
 10
4.2558075994
 20
7.4583517482
 30
0.0
 10
4.2556420817
 20
7.4583680443
 30
0.0
  0
SPLINE
  5
44D
100
AcDbEntity
  8
0
100
AcDbSpline
 62
9
  6
CONTINUOUS
 70
0
 71
3
 72
24
 73
20
 74
0
 42
0.0000001
 43
0.0000001
 44
0.0000000001
 40
0.0
 40
0.0
 40
0.0
 40
0.0
 40
0.2073926825
 40
0.402786913
 40
0.4927867766
 40
0.5764420788
 40
0.6532062814
 40
0.7226068139
 40
0.7843944649
 40
0.8384278365
 40
0.8846024318
 40
0.9229472442
 40
0.9535250439
 40
0.9659248182
 40
0.9764165789
 40
0.9850202464
 40
0.991766518
 40
0.996712779
 40
1.0
 40
1.0
 40
1.0
 40
1.0
 10
4.3013781664
 20
7.428391804
 30
0.0
 10
4.3013763751
 20
7.4304699245
 30
0.0
 10
4.3014016602
 20
7.4345059897
 30
0.0
 10
4.3014899369
 20
7.4394431532
 30
0.0
 10
4.301591555
 20
7.4431397398
 30
0.0
 10
4.301677781
 20
7.4456475373
 30
0.0
 10
4.30177343
 20
7.4479484192
 30
0.0
 10
4.3018761052
 20
7.450029641
 30
0.0
 10
4.3019841303
 20
7.4518824861
 30
0.0
 10
4.3020960803
 20
7.4535018902
 30
0.0
 10
4.3022106519
 20
7.4548855454
 30
0.0
 10
4.3023251741
 20
7.45603319
 30
0.0
 10
4.3024232762
 20
7.4568422642
 30
0.0
 10
4.3025017917
 20
7.4573722686
 30
0.0
 10
4.3025557964
 20
7.4576832969
 30
0.0
 10
4.302609304
 20
7.4579365958
 30
0.0
 10
4.3026627379
 20
7.4581333592
 30
0.0
 10
4.3027157851
 20
7.4582733033
 30
0.0
 10
4.3027596923
 20
7.4583457526
 30
0.0
 10
4.3027842118
 20
7.458367747
 30
0.0
  0
SPLINE
  5
44E
100
AcDbEntity
  8
0
100
AcDbSpline
 62
9
  6
CONTINUOUS
 70
0
 71
3
 72
15
 73
11
 74
0
 42
0.0000001
 43
0.0000001
 44
0.0000000001
 40
0.0
 40
0.0
 40
0.0
 40
0.0
 40
0.168541245
 40
0.3308751233
 40
0.4816071512
 40
0.6177101387
 40
0.7372416116
 40
0.8402972011
 40
0.9275777356
 40
1.0
 40
1.0
 40
1.0
 40
1.0
 10
4.3061515152
 20
7.4283918037
 30
0.0
 10
4.3061516159
 20
7.429470043
 30
0.0
 10
4.3062041977
 20
7.4315871376
 30
0.0
 10
4.3064290784
 20
7.4346612478
 30
0.0
 10
4.3067905783
 20
7.4375134235
 30
0.0
 10
4.3072627722
 20
7.4400714872
 30
0.0
 10
4.3078244325
 20
7.4422982815
 30
0.0
 10
4.3084574121
 20
7.444179607
 30
0.0
 10
4.3091443256
 20
7.4457167686
 30
0.0
 10
4.3096756063
 20
7.4465948165
 30
0.0
 10
4.3099515333
 20
7.4469670123
 30
0.0
  0
SPLINE
  5
44F
100
AcDbEntity
  8
0
100
AcDbSpline
 62
9
  6
CONTINUOUS
 70
0
 71
3
 72
15
 73
11
 74
0
 42
0.0000001
 43
0.0000001
 44
0.0000000001
 40
0.0
 40
0.0
 40
0.0
 40
0.0
 40
0.072423184
 40
0.1597076336
 40
0.2627684595
 40
0.3823039652
 40
0.5184074776
 40
0.6691367673
 40
0.8314655676
 40
1.0
 40
1.0
 40
1.0
 40
1.0
 10
4.3099515306
 20
7.3718165557
 30
0.0
 10
4.3096755591
 20
7.3721887276
 30
0.0
 10
4.30914423
 20
7.3730667932
 30
0.0
 10
4.3084573165
 20
7.3746040313
 30
0.0
 10
4.3078243619
 20
7.3764854608
 30
0.0
 10
4.307262729
 20
7.3787123328
 30
0.0
 10
4.3067905421
 20
7.381270417
 30
0.0
 10
4.3064290444
 20
7.3841225545
 30
0.0
 10
4.3062041667
 20
7.3871965803
 30
0.0
 10
4.3061515903
 20
7.3893136055
 30
0.0
 10
4.3061514946
 20
7.3903918043
 30
0.0
  0
SPLINE
  5
450
100
AcDbEntity
  8
0
100
AcDbSpline
 62
9
  6
CONTINUOUS
 70
0
 71
3
 72
15
 73
11
 74
0
 42
0.0000001
 43
0.0000001
 44
0.0000000001
 40
0.0
 40
0.0
 40
0.0
 40
0.0
 40
0.1278337116
 40
0.255053193
 40
0.3811622108
 40
0.5062640198
 40
0.630809924
 40
0.7544620813
 40
0.8774615566
 40
1.0
 40
1.0
 40
1.0
 40
1.0
 10
4.3099516098
 20
7.4469670101
 30
0.0
 10
4.3110314035
 20
7.4466307452
 30
0.0
 10
4.3131529075
 20
7.4458472525
 30
0.0
 10
4.3161720502
 20
7.4443284919
 30
0.0
 10
4.3189612364
 20
7.4424590704
 30
0.0
 10
4.3214465015
 20
7.4402329984
 30
0.0
 10
4.3235437923
 20
7.4376629855
 30
0.0
 10
4.3251592478
 20
7.4347814556
 30
0.0
 10
4.3261721891
 20
7.431654085
 30
0.0
 10
4.3264108592
 20
7.429475898
 30
0.0
 10
4.3264112963
 20
7.4283918037
 30
0.0
  0
SPLINE
  5
451
100
AcDbEntity
  8
0
100
AcDbSpline
 62
9
  6
CONTINUOUS
 70
0
 71
3
 72
15
 73
11
 74
0
 42
0.0000001
 43
0.0000001
 44
0.0000000001
 40
0.0
 40
0.0
 40
0.0
 40
0.0
 40
0.1225337442
 40
0.2455302902
 40
0.3691800535
 40
0.4937243361
 40
0.6188252662
 40
0.7449345082
 40
0.8721571611
 40
1.0
 40
1.0
 40
1.0
 40
1.0
 10
4.3264113867
 20
7.3903918043
 30
0.0
 10
4.3264109682
 20
7.3893077473
 30
0.0
 10
4.3261723131
 20
7.3871296157
 30
0.0
 10
4.3251593867
 20
7.38400232
 30
0.0
 10
4.3235439468
 20
7.3811208383
 30
0.0
 10
4.3214467055
 20
7.3785508306
 30
0.0
 10
4.318961541
 20
7.376324662
 30
0.0
 10
4.3161724009
 20
7.3744551032
 30
0.0
 10
4.3131531651
 20
7.3729362408
 30
0.0
 10
4.311031519
 20
7.3721527765
 30
0.0
 10
4.3099516226
 20
7.3718165545
 30
0.0
  0
SPLINE
  5
452
100
AcDbEntity
  8
0
100
AcDbSpline
 62
7
  6
CONTINUOUS
 70
0
 71
3
 72
15
 73
11
 74
0
 42
0.0000001
 43
0.0000001
 44
0.0000000001
 40
0.0
 40
0.0
 40
0.0
 40
0.0
 40
0.1644701551
 40
0.3207065078
 40
0.464186981
 40
0.594082582
 40
0.7106505942
 40
0.8153347574
 40
0.9106739157
 40
1.0
 40
1.0
 40
1.0
 40
1.0
 10
4.3099515478
 20
7.4469668003
 30
0.0
 10
4.3099515607
 20
7.4477663229
 30
0.0
 10
4.3098210385
 20
7.4493273663
 30
0.0
 10
4.3093135861
 20
7.4515331307
 30
0.0
 10
4.3085601281
 20
7.4534886713
 30
0.0
 10
4.3076246138
 20
7.4551457847
 30
0.0
 10
4.306549588
 20
7.4564829186
 30
0.0
 10
4.3053667805
 20
7.4574849454
 30
0.0
 10
4.3041063281
 20
7.4581379906
 30
0.0
 10
4.3032172155
 20
7.4583353213
 30
0.0
 10
4.302784218
 20
7.4583680427
 30
0.0
  0
SPLINE
  5
453
100
AcDbEntity
  8
0
100
AcDbSpline
 62
9
  6
CONTINUOUS
 70
0
 71
3
 72
20
 73
16
 74
0
 42
0.0000001
 43
0.0000001
 44
0.0000000001
 40
0.0
 40
0.0
 40
0.0
 40
0.0
 40
0.2043359569
 40
0.3969272223
 40
0.5682656691
 40
0.7127988546
 40
0.7740976972
 40
0.8278964043
 40
0.8741345659
 40
0.9129210576
 40
0.9444570789
 40
0.969041205
 40
0.9788776563
 40
0.9872008086
 40
1.0
 40
1.0
 40
1.0
 40
1.0
 10
4.3493603016
 20
7.428391804
 30
0.0
 10
4.3493586676
 20
7.4304700241
 30
0.0
 10
4.3493154047
 20
7.4345071477
 30
0.0
 10
4.3491183805
 20
7.4402840141
 30
0.0
 10
4.3488046184
 20
7.4454464744
 30
0.0
 10
4.3484466291
 20
7.4492669791
 30
0.0
 10
4.3481039349
 20
7.4518855337
 30
0.0
 10
4.3478444675
 20
7.4535060594
 30
0.0
 10
4.3475709735
 20
7.454891613
 30
0.0
 10
4.3472846018
 20
7.4560427468
 30
0.0
 10
4.3469853179
 20
7.4569614516
 30
0.0
 10
4.3467109032
 20
7.4575759953
 30
0.0
 10
4.3464786661
 20
7.4579453205
 30
0.0
 10
4.3462810066
 20
7.4581889262
 30
0.0
 10
4.3461029064
 20
7.4583276471
 30
0.0
 10
4.3459790611
 20
7.458367747
 30
0.0
  0
SPLINE
  5
454
100
AcDbEntity
  8
0
100
AcDbSpline
 62
9
  6
CONTINUOUS
 70
0
 71
3
 72
15
 73
11
 74
0
 42
0.0000001
 43
0.0000001
 44
0.0000000001
 40
0.0
 40
0.0
 40
0.0
 40
0.0
 40
0.1731964177
 40
0.3396662253
 40
0.4935345535
 40
0.6314056977
 40
0.7510093498
 40
0.8521055618
 40
0.9349855077
 40
1.0
 40
1.0
 40
1.0
 40
1.0
 10
4.3532006829
 20
7.4283918037
 30
0.0
 10
4.3532007219
 20
7.4294697619
 30
0.0
 10
4.3532210488
 20
7.4315838615
 30
0.0
 10
4.3533079815
 20
7.4346545331
 30
0.0
 10
4.3534476959
 20
7.4375031786
 30
0.0
 10
4.3536300564
 20
7.4400570852
 30
0.0
 10
4.3538467042
 20
7.4422785337
 30
0.0
 10
4.3540901351
 20
7.4441527197
 30
0.0
 10
4.3543533696
 20
7.4456802826
 30
0.0
 10
4.3545612644
 20
7.4465780935
 30
0.0
 10
4.3546729738
 20
7.4469670123
 30
0.0
  0
SPLINE
  5
455
100
AcDbEntity
  8
0
100
AcDbSpline
 62
9
  6
CONTINUOUS
 70
0
 71
3
 72
15
 73
11
 74
0
 42
0.0000001
 43
0.0000001
 44
0.0000000001
 40
0.0
 40
0.0
 40
0.0
 40
0.0
 40
0.0650137487
 40
0.1478977945
 40
0.2489999491
 40
0.3686082118
 40
0.5064801174
 40
0.6603457541
 40
0.82681046
 40
1.0
 40
1.0
 40
1.0
 40
1.0
 10
4.3546729727
 20
7.3718165557
 30
0.0
 10
4.3545612411
 20
7.3722054643
 30
0.0
 10
4.35435333
 20
7.3731032967
 30
0.0
 10
4.3540900977
 20
7.3746309221
 30
0.0
 10
4.3538466774
 20
7.3765052061
 30
0.0
 10
4.35363004
 20
7.3787267314
 30
0.0
 10
4.3534476819
 20
7.3812806608
 30
0.0
 10
4.3533079684
 20
7.3841292691
 30
0.0
 10
4.3532210368
 20
7.3871998565
 30
0.0
 10
4.353200712
 20
7.3893138865
 30
0.0
 10
4.3532006749
 20
7.3903918043
 30
0.0
  0
SPLINE
  5
456
100
AcDbEntity
  8
0
100
AcDbSpline
 62
9
  6
CONTINUOUS
 70
0
 71
3
 72
15
 73
11
 74
0
 42
0.0000001
 43
0.0000001
 44
0.0000000001
 40
0.0
 40
0.0
 40
0.0
 40
0.0
 40
0.1290164979
 40
0.257182016
 40
0.3839262536
 40
0.5092837116
 40
0.6336548016
 40
0.7566897909
 40
0.8786871179
 40
1.0
 40
1.0
 40
1.0
 40
1.0
 10
4.3546730432
 20
7.4469670113
 30
0.0
 10
4.3557762366
 20
7.4466309859
 30
0.0
 10
4.3579431558
 20
7.4458484488
 30
0.0
 10
4.3610292395
 20
7.4443304858
 30
0.0
 10
4.3638803993
 20
7.442462109
 30
0.0
 10
4.3664213102
 20
7.4402371402
 30
0.0
 10
4.3685661937
 20
7.4376679487
 30
0.0
 10
4.370219168
 20
7.4347863577
 30
0.0
 10
4.3712563986
 20
7.4316572128
 30
0.0
 10
4.371500959
 20
7.4294761777
 30
0.0
 10
4.3715014056
 20
7.4283918037
 30
0.0
  0
SPLINE
  5
457
100
AcDbEntity
  8
0
100
AcDbSpline
 62
9
  6
CONTINUOUS
 70
0
 71
3
 72
15
 73
11
 74
0
 42
0.0000001
 43
0.0000001
 44
0.0000000001
 40
0.0
 40
0.0
 40
0.0
 40
0.0
 40
0.1213082086
 40
0.2433026431
 40
0.3663352756
 40
0.490704676
 40
0.6160609911
 40
0.7428051843
 40
0.8709738694
 40
1.0
 40
1.0
 40
1.0
 40
1.0
 10
4.3715014975
 20
7.3903918043
 30
0.0
 10
4.3715010696
 20
7.3893074678
 30
0.0
 10
4.3712565246
 20
7.3871264881
 30
0.0
 10
4.3702193098
 20
7.383997418
 30
0.0
 10
4.3685663511
 20
7.3811158759
 30
0.0
 10
4.3664215202
 20
7.3785466908
 30
0.0
 10
4.3638807153
 20
7.376321625
 30
0.0
 10
4.3610296048
 20
7.3744531114
 30
0.0
 10
4.3579434236
 20
7.3729350464
 30
0.0
 10
4.355776357
 20
7.3721525378
 30
0.0
 10
4.354673056
 20
7.3718165545
 30
0.0
  0
SPLINE
  5
458
100
AcDbEntity
  8
0
100
AcDbSpline
 62
7
  6
CONTINUOUS
 70
0
 71
3
 72
15
 73
11
 74
0
 42
0.0000001
 43
0.0000001
 44
0.0000000001
 40
0.0
 40
0.0
 40
0.0
 40
0.0
 40
0.1535479824
 40
0.3009266073
 40
0.4387553907
 40
0.566682409
 40
0.6851521074
 40
0.7954990075
 40
0.8997178457
 40
1.0
 40
1.0
 40
1.0
 40
1.0
 10
4.3546729794
 20
7.4469668003
 30
0.0
 10
4.3546729951
 20
7.4477675246
 30
0.0
 10
4.3545128255
 20
7.4493397035
 30
0.0
 10
4.3538923564
 20
7.4515521996
 30
0.0
 10
4.3529725146
 20
7.4535112638
 30
0.0
 10
4.351831321
 20
7.4551694542
 30
0.0
 10
4.3505212909
 20
7.456504464
 30
0.0
 10
4.349084306
 20
7.457500068
 30
0.0
 10
4.3475610278
 20
7.4581438336
 30
0.0
 10
4.3465010097
 20
7.4583355276
 30
0.0
 10
4.3459790688
 20
7.4583680443
 30
0.0
  0
SPLINE
  5
459
100
AcDbEntity
  8
0
100
AcDbSpline
 62
9
  6
CONTINUOUS
 70
0
 71
3
 72
20
 73
16
 74
0
 42
0.0000001
 43
0.0000001
 44
0.0000000001
 40
0.0
 40
0.0
 40
0.0
 40
0.0
 40
0.1929913728
 40
0.3754119283
 40
0.5387905817
 40
0.6117708141
 40
0.6784506403
 40
0.7387083284
 40
0.792546055
 40
0.840051565
 40
0.8815417487
 40
0.9175051666
 40
0.948602388
 40
0.9756946481
 40
1.0
 40
1.0
 40
1.0
 40
1.0
 10
4.3924886007
 20
7.428391804
 30
0.0
 10
4.3924871553
 20
7.4304707324
 30
0.0
 10
4.3923758804
 20
7.4345157485
 30
0.0
 10
4.3918805691
 20
7.4403016643
 30
0.0
 10
4.391207121
 20
7.4447667004
 30
0.0
 10
4.3905247046
 20
7.4479598659
 30
0.0
 10
4.3899794937
 20
7.4500441315
 30
0.0
 10
4.3893888547
 20
7.4519008039
 30
0.0
 10
4.3887600776
 20
7.453525456
 30
0.0
 10
4.3880988416
 20
7.4549166821
 30
0.0
 10
4.387408301
 20
7.4560750529
 30
0.0
 10
4.3866902592
 20
7.4570025763
 30
0.0
 10
4.3859468007
 20
7.4577004723
 30
0.0
 10
4.3851836815
 20
7.4581697892
 30
0.0
 10
4.3846452389
 20
7.4583318829
 30
0.0
 10
4.3843858863
 20
7.458367747
 30
0.0
  0
SPLINE
  5
45A
100
AcDbEntity
  8
0
100
AcDbSpline
 62
9
  6
CONTINUOUS
 70
0
 71
3
 72
20
 73
16
 74
0
 42
0.0000001
 43
0.0000001
 44
0.0000000001
 40
0.0
 40
0.0
 40
0.0
 40
0.0
 40
0.0754383695
 40
0.1504528661
 40
0.2962110478
 40
0.3662631974
 40
0.4340348787
 40
0.4994536017
 40
0.5624670452
 40
0.6815503587
 40
0.7926663754
 40
0.8459424107
 40
0.898030211
 40
0.9492692819
 40
1.0
 40
1.0
 40
1.0
 40
1.0
 10
4.1763697392
 20
7.428391804
 30
0.0
 10
4.1763718346
 20
7.4294383511
 30
0.0
 10
4.1762839057
 20
7.4315270051
 30
0.0
 10
4.1757658742
 20
7.4356067521
 30
0.0
 10
4.1747553262
 20
7.4395370769
 30
0.0
 10
4.1732873351
 20
7.4431912737
 30
0.0
 10
4.1720073993
 20
7.4457079188
 30
0.0
 10
4.1705598161
 20
7.4480175845
 30
0.0
 10
4.168475077
 20
7.4507508975
 30
0.0
 10
4.1655681557
 20
7.4536338829
 30
0.0
 10
4.1622591412
 20
7.4558128704
 30
0.0
 10
4.1595183137
 20
7.4570520993
 30
0.0
 10
4.1574515869
 20
7.4577355838
 30
0.0
 10
4.1553583918
 20
7.4581861845
 30
0.0
 10
4.1539481157
 20
7.4583329796
 30
0.0
 10
4.1532451927
 20
7.458367747
 30
0.0
  0
SPLINE
  5
45B
100
AcDbEntity
  8
0
100
AcDbSpline
 62
9
  6
CONTINUOUS
 70
0
 71
3
 72
15
 73
11
 74
0
 42
0.0000001
 43
0.0000001
 44
0.0000000001
 40
0.0
 40
0.0
 40
0.0
 40
0.0
 40
0.1291488379
 40
0.2574186081
 40
0.3842319358
 40
0.5096167912
 40
0.6339686028
 40
0.7569358591
 40
0.8788228556
 40
1.0
 40
1.0
 40
1.0
 40
1.0
 10
4.3944372273
 20
7.4469669906
 30
0.0
 10
4.3955430483
 20
7.4466309825
 30
0.0
 10
4.3977150509
 20
7.4458485452
 30
0.0
 10
4.4008086094
 20
7.4443306735
 30
0.0
 10
4.4036666617
 20
7.4424624262
 30
0.0
 10
4.4062137544
 20
7.440237594
 30
0.0
 10
4.4083639378
 20
7.4376685087
 30
0.0
 10
4.4100211013
 20
7.4347869141
 30
0.0
 10
4.4110610353
 20
7.4316575646
 30
0.0
 10
4.4113062608
 20
7.4294762084
 30
0.0
 10
4.4113067171
 20
7.4283918037
 30
0.0
  0
SPLINE
  5
45C
100
AcDbEntity
  8
0
100
AcDbSpline
 62
9
  6
CONTINUOUS
 70
0
 71
3
 72
15
 73
11
 74
0
 42
0.0000001
 43
0.0000001
 44
0.0000000001
 40
0.0
 40
0.0
 40
0.0
 40
0.0
 40
0.1211724114
 40
0.2430562791
 40
0.3660209977
 40
0.4903712509
 40
0.6157557041
 40
0.7425698465
 40
0.8708429416
 40
1.0
 40
1.0
 40
1.0
 40
1.0
 10
4.4113068138
 20
7.3903918043
 30
0.0
 10
4.4113063799
 20
7.3893074376
 30
0.0
 10
4.4110611716
 20
7.387126138
 30
0.0
 10
4.4100212501
 20
7.3839968685
 30
0.0
 10
4.4083641085
 20
7.3811153221
 30
0.0
 10
4.4062139743
 20
7.3785462361
 30
0.0
 10
4.4036669691
 20
7.376321303
 30
0.0
 10
4.4008089495
 20
7.3744529143
 30
0.0
 10
4.3977152977
 20
7.372934939
 30
0.0
 10
4.3955431598
 20
7.3721525277
 30
0.0
 10
4.3944372438
 20
7.3718165631
 30
0.0
  0
SPLINE
  5
45D
100
AcDbEntity
  8
0
100
AcDbSpline
 62
9
  6
CONTINUOUS
 70
0
 71
3
 72
15
 73
11
 74
0
 42
0.0000001
 43
0.0000001
 44
0.0000000001
 40
0.0
 40
0.0
 40
0.0
 40
0.0
 40
0.3083868304
 40
0.3810785159
 40
0.4510898482
 40
0.5821987109
 40
0.7013115416
 40
0.809265854
 40
0.9079197034
 40
1.0
 40
1.0
 40
1.0
 40
1.0
 10
4.1193519738
 20
7.428391804
 30
0.0
 10
4.1193403134
 20
7.4321601684
 30
0.0
 10
4.1187688225
 20
7.4368577312
 30
0.0
 10
4.1171450042
 20
7.4421273763
 30
0.0
 10
4.1159377971
 20
7.4452505454
 30
0.0
 10
4.1141400158
 20
7.4487439728
 30
0.0
 10
4.1115379002
 20
7.4522881746
 30
0.0
 10
4.1086366429
 20
7.4550470939
 30
0.0
 10
4.1055310313
 20
7.4570115643
 30
0.0
 10
4.1033127352
 20
7.4578026181
 30
0.0
 10
4.1022149662
 20
7.4580495099
 30
0.0
  0
SPLINE
  5
45E
100
AcDbEntity
  8
0
100
AcDbSpline
 62
9
  6
CONTINUOUS
 70
0
 71
3
 72
15
 73
11
 74
0
 42
0.0000001
 43
0.0000001
 44
0.0000000001
 40
0.0
 40
0.0
 40
0.0
 40
0.0
 40
0.1494497774
 40
0.2961822469
 40
0.436982015
 40
0.5697982821
 40
0.6930779551
 40
0.8060312748
 40
0.9082757147
 40
1.0
 40
1.0
 40
1.0
 40
1.0
 10
4.4299236204
 20
7.428391804
 30
0.0
 10
4.42992285
 20
7.4296959825
 30
0.0
 10
4.4298497992
 20
7.4322811277
 30
0.0
 10
4.4295319797
 20
7.4360831956
 30
0.0
 10
4.4290102241
 20
7.4397163619
 30
0.0
 10
4.4283070936
 20
7.4431102028
 30
0.0
 10
4.4274416047
 20
7.4462150095
 30
0.0
 10
4.4264366987
 20
7.4489960097
 30
0.0
 10
4.4253120399
 20
7.4514305906
 30
0.0
 10
4.424451442
 20
7.4528928235
 30
0.0
 10
4.4240032979
 20
7.4535560454
 30
0.0
  0
SPLINE
  5
45F
100
AcDbEntity
  8
0
100
AcDbSpline
 62
9
  6
CONTINUOUS
 70
0
 71
3
 72
11
 73
7
 74
0
 42
0.0000001
 43
0.0000001
 44
0.0000000001
 40
0.0
 40
0.0
 40
0.0
 40
0.0
 40
0.2979938261
 40
0.5578681933
 40
0.7884958239
 40
1.0
 40
1.0
 40
1.0
 40
1.0
 10
4.4240032979
 20
7.4535560454
 30
0.0
 10
4.4235279777
 20
7.4542594861
 30
0.0
 10
4.4225491444
 20
7.4555213793
 30
0.0
 10
4.4208656965
 20
7.457031439
 30
0.0
 10
4.4191002437
 20
7.4580112345
 30
0.0
 10
4.4178573376
 20
7.4583143198
 30
0.0
 10
4.4172571423
 20
7.458367747
 30
0.0
  0
SPLINE
  5
460
100
AcDbEntity
  8
0
100
AcDbSpline
 62
9
  6
CONTINUOUS
 70
0
 71
3
 72
15
 73
11
 74
0
 42
0.0000001
 43
0.0000001
 44
0.0000000001
 40
0.0
 40
0.0
 40
0.0
 40
0.0
 40
0.1282425357
 40
0.2556260213
 40
0.3817988983
 40
0.5069795296
 40
0.6314822289
 40
0.7549657465
 40
0.8777353869
 40
1.0
 40
1.0
 40
1.0
 40
1.0
 10
4.4295265815
 20
7.4466207361
 30
0.0
 10
4.4305573943
 20
7.4462632118
 30
0.0
 10
4.4325778499
 20
7.4454458696
 30
0.0
 10
4.4354428851
 20
7.4439005619
 30
0.0
 10
4.4380785424
 20
7.442031207
 30
0.0
 10
4.4404170222
 20
7.4398339159
 30
0.0
 10
4.4423833521
 20
7.4373242803
 30
0.0
 10
4.4438894229
 20
7.4345325247
 30
0.0
 10
4.4448305423
 20
7.431521994
 30
0.0
 10
4.4450520731
 20
7.4294319989
 30
0.0
 10
4.4450524953
 20
7.4283918037
 30
0.0
  0
SPLINE
  5
461
100
AcDbEntity
  8
0
100
AcDbSpline
 62
9
  6
CONTINUOUS
 70
0
 71
3
 72
15
 73
11
 74
0
 42
0.0000001
 43
0.0000001
 44
0.0000000001
 40
0.0
 40
0.0
 40
0.0
 40
0.0
 40
0.1222673027
 40
0.2450399288
 40
0.36852386
 40
0.4930260066
 40
0.6182066084
 40
0.7443729102
 40
0.8717510022
 40
1.0
 40
1.0
 40
1.0
 40
1.0
 10
4.4450525859
 20
7.3903918043
 30
0.0
 10
4.4450521822
 20
7.3893537938
 30
0.0
 10
4.4448315802
 20
7.3872682033
 30
0.0
 10
4.4438942917
 20
7.384263513
 30
0.0
 10
4.4423940995
 20
7.3814762697
 30
0.0
 10
4.4404348925
 20
7.3789696989
 30
0.0
 10
4.4381045122
 20
7.3767738698
 30
0.0
 10
4.435477392
 20
7.3749045349
 30
0.0
 10
4.4326209377
 20
7.3733579891
 30
0.0
 10
4.4306060891
 20
7.3725391112
 30
0.0
 10
4.4295779989
 20
7.3721806401
 30
0.0
  0
SPLINE
  5
462
100
AcDbEntity
  8
0
100
AcDbSpline
 62
9
  6
CONTINUOUS
 70
0
 71
3
 72
19
 73
15
 74
0
 42
0.0000001
 43
0.0000001
 44
0.0000000001
 40
0.0
 40
0.0
 40
0.0
 40
0.0
 40
0.1305283985
 40
0.1956142428
 40
0.2602658194
 40
0.324446996
 40
0.3880906087
 40
0.4512018243
 40
0.5138005903
 40
0.6373956347
 40
0.7592727427
 40
0.8197371677
 40
0.8799902287
 40
1.0
 40
1.0
 40
1.0
 40
1.0
 10
4.5081460336
 20
7.428391804
 30
0.0
 10
4.5081465395
 20
7.4302774208
 30
0.0
 10
4.507855999
 20
7.4331137745
 30
0.0
 10
4.5069188492
 20
7.4367591832
 30
0.0
 10
4.5059525978
 20
7.4393938911
 30
0.0
 10
4.5047460683
 20
7.4419036096
 30
0.0
 10
4.503317443
 20
7.4442678733
 30
0.0
 10
4.5016887653
 20
7.44647049
 30
0.0
 10
4.4992924613
 20
7.4491645531
 30
0.0
 10
4.4959042528
 20
7.4520863263
 30
0.0
 10
4.4921081217
 20
7.4543887734
 30
0.0
 10
4.4889137778
 20
7.4558380298
 30
0.0
 10
4.4856429901
 20
7.4570267195
 30
0.0
 10
4.4830984552
 20
7.4576366686
 30
0.0
 10
4.4813876622
 20
7.4579173458
 30
0.0
  0
SPLINE
  5
463
100
AcDbEntity
  8
0
100
AcDbSpline
 62
7
  6
CONTINUOUS
 70
0
 71
3
 72
11
 73
7
 74
0
 42
0.0000001
 43
0.0000001
 44
0.0000000001
 40
0.0
 40
0.0
 40
0.0
 40
0.0
 40
0.256952984
 40
0.5083464067
 40
0.7556799431
 40
1.0
 40
1.0
 40
1.0
 40
1.0
 10
4.4240417113
 20
7.4557517603
 30
0.0
 10
4.4235495658
 20
7.4561492406
 30
0.0
 10
4.4225128134
 20
7.4568611405
 30
0.0
 10
4.4208260537
 20
7.4576635809
 30
0.0
 10
4.4190643454
 20
7.4581828523
 30
0.0
 10
4.4178579616
 20
7.4583390231
 30
0.0
 10
4.4172571522
 20
7.4583680443
 30
0.0
  0
SPLINE
  5
464
100
AcDbEntity
  8
0
100
AcDbSpline
 62
7
  6
CONTINUOUS
 70
0
 71
3
 72
15
 73
11
 74
0
 42
0.0000001
 43
0.0000001
 44
0.0000000001
 40
0.0
 40
0.0
 40
0.0
 40
0.0
 40
0.1443054236
 40
0.2825400021
 40
0.4145027461
 40
0.5404287008
 40
0.6608218962
 40
0.7767977737
 40
0.8895075723
 40
1.0
 40
1.0
 40
1.0
 40
1.0
 10
4.3942493392
 20
7.4489589996
 30
0.0
 10
4.3941210368
 20
7.4496516882
 30
0.0
 10
4.3937478268
 20
7.450988337
 30
0.0
 10
4.3928802394
 20
7.4528257212
 30
0.0
 10
4.3917846031
 20
7.4544289483
 30
0.0
 10
4.3905113912
 20
7.4557771516
 30
0.0
 10
4.3891016734
 20
7.4568580555
 30
0.0
 10
4.3875896434
 20
7.4576616042
 30
0.0
 10
4.3860095432
 20
7.4581819822
 30
0.0
 10
4.3849245152
 20
7.4583389952
 30
0.0
 10
4.3843858945
 20
7.4583680224
 30
0.0
  0
SPLINE
  5
465
100
AcDbEntity
  8
0
100
AcDbSpline
 62
7
  6
CONTINUOUS
 70
0
 71
3
 72
9
 73
5
 74
0
 42
0.0000001
 43
0.0000001
 44
0.0000000001
 40
0.0
 40
0.0
 40
0.0
 40
0.0
 40
0.5004710101
 40
1.0
 40
1.0
 40
1.0
 40
1.0
 10
3.8057103258
 20
7.3698661049
 30
0.0
 10
3.8058626185
 20
7.3690484657
 30
0.0
 10
3.8063607676
 20
7.3674445815
 30
0.0
 10
3.8072306385
 20
7.3660061542
 30
0.0
 10
3.8077453978
 20
7.3653548876
 30
0.0
  0
SPLINE
  5
466
100
AcDbEntity
  8
0
100
AcDbSpline
 62
7
  6
CONTINUOUS
 70
0
 71
3
 72
9
 73
5
 74
0
 42
0.0000001
 43
0.0000001
 44
0.0000000001
 40
0.0
 40
0.0
 40
0.0
 40
0.0
 40
0.50014419
 40
1.0
 40
1.0
 40
1.0
 40
1.0
 10
3.8077453978
 20
7.3653548876
 30
0.0
 10
3.8084269265
 20
7.3644926267
 30
0.0
 10
3.8100888435
 20
7.3629847386
 30
0.0
 10
3.8121611866
 20
7.362117124
 30
0.0
 10
3.8132321663
 20
7.3618730237
 30
0.0
  0
SPLINE
  5
467
100
AcDbEntity
  8
0
100
AcDbSpline
 62
9
  6
CONTINUOUS
 70
0
 71
3
 72
15
 73
11
 74
0
 42
0.0000001
 43
0.0000001
 44
0.0000000001
 40
0.0
 40
0.0
 40
0.0
 40
0.0
 40
0.1554930326
 40
0.3067376574
 40
0.4497333813
 40
0.5821206096
 40
0.7028917567
 40
0.8120558104
 40
0.9104772117
 40
1.0
 40
1.0
 40
1.0
 40
1.0
 10
4.4609367306
 20
7.428391804
 30
0.0
 10
4.4609359404
 20
7.4300564227
 30
0.0
 10
4.4607780938
 20
7.4333423101
 30
0.0
 10
4.4600843948
 20
7.4381142648
 30
0.0
 10
4.4589683436
 20
7.4425518446
 30
0.0
 10
4.457488847
 20
7.4465362478
 30
0.0
 10
4.4557055399
 20
7.449992717
 30
0.0
 10
4.4536756189
 20
7.4528780238
 30
0.0
 10
4.4514551515
 20
7.4551746334
 30
0.0
 10
4.449805932
 20
7.4563533283
 30
0.0
 10
4.4489712427
 20
7.4568242688
 30
0.0
  0
SPLINE
  5
468
100
AcDbEntity
  8
0
100
AcDbSpline
 62
9
  6
CONTINUOUS
 70
0
 71
3
 72
9
 73
5
 74
0
 42
0.0000001
 43
0.0000001
 44
0.0000000001
 40
0.0
 40
0.0
 40
0.0
 40
0.0
 40
0.5128367227
 40
1.0
 40
1.0
 40
1.0
 40
1.0
 10
4.4489712427
 20
7.4568242688
 30
0.0
 10
4.4481846255
 20
7.4572680865
 30
0.0
 10
4.4465575318
 20
7.457981462
 30
0.0
 10
4.4448091004
 20
7.4583107423
 30
0.0
 10
4.4439530273
 20
7.458367747
 30
0.0
  0
SPLINE
  5
469
100
AcDbEntity
  8
0
100
AcDbSpline
 62
9
  6
CONTINUOUS
 70
0
 71
3
 72
11
 73
7
 74
0
 42
0.0000001
 43
0.0000001
 44
0.0000000001
 40
0.0
 40
0.0
 40
0.0
 40
0.0
 40
0.2532924071
 40
0.5047140692
 40
0.7534934736
 40
1.0
 40
1.0
 40
1.0
 40
1.0
 10
4.4968946825
 20
7.428391804
 30
0.0
 10
4.4968961662
 20
7.4311508557
 30
0.0
 10
4.4960186732
 20
7.4366856154
 30
0.0
 10
4.4923099886
 20
7.4441343351
 30
0.0
 10
4.4867580068
 20
7.4502057806
 30
0.0
 10
4.4821931977
 20
7.4531904578
 30
0.0
 10
4.4797943743
 20
7.454396939
 30
0.0
  0
SPLINE
  5
46A
100
AcDbEntity
  8
0
100
AcDbSpline
 62
9
  6
CONTINUOUS
 70
0
 71
3
 72
9
 73
5
 74
0
 42
0.0000001
 43
0.0000001
 44
0.0000000001
 40
0.0
 40
0.0
 40
0.0
 40
0.0
 40
0.2504267466
 40
1.0
 40
1.0
 40
1.0
 40
1.0
 10
4.4797943743
 20
7.454396939
 30
0.0
 10
4.4793008855
 20
7.4546451377
 30
0.0
 10
4.4773073515
 20
7.4555901172
 30
0.0
 10
4.4752273184
 20
7.4563512618
 30
0.0
 10
4.4736407514
 20
7.4568166055
 30
0.0
  0
SPLINE
  5
46B
100
AcDbEntity
  8
0
100
AcDbSpline
 62
7
  6
CONTINUOUS
 70
0
 71
3
 72
9
 73
5
 74
0
 42
0.0000001
 43
0.0000001
 44
0.0000000001
 40
0.0
 40
0.0
 40
0.0
 40
0.0
 40
0.5013220984
 40
1.0
 40
1.0
 40
1.0
 40
1.0
 10
3.7749557913
 20
7.3639944359
 30
0.0
 10
3.7755413909
 20
7.3634805419
 30
0.0
 10
3.7768383941
 20
7.3625935223
 30
0.0
 10
3.7783130717
 20
7.3620480793
 30
0.0
 10
3.7790680439
 20
7.3618730237
 30
0.0
  0
SPLINE
  5
46C
100
AcDbEntity
  8
0
100
AcDbSpline
 62
9
  6
CONTINUOUS
 70
0
 71
3
 72
14
 73
10
 74
0
 42
0.0000001
 43
0.0000001
 44
0.0000000001
 40
0.0
 40
0.0
 40
0.0
 40
0.0
 40
0.2514160146
 40
0.3764731016
 40
0.501449435
 40
0.6263643113
 40
0.7510085667
 40
0.8755868885
 40
1.0
 40
1.0
 40
1.0
 40
1.0
 10
4.4590415592
 20
7.445855821
 30
0.0
 10
4.460808509
 20
7.445076818
 30
0.0
 10
4.4633519022
 20
7.4436368722
 30
0.0
 10
4.4663152735
 20
7.441163961
 30
0.0
 10
4.4682702696
 20
7.4390364896
 30
0.0
 10
4.4699014713
 20
7.4366540569
 30
0.0
 10
4.4711350953
 20
7.4340435503
 30
0.0
 10
4.4719012597
 20
7.4312636518
 30
0.0
 10
4.4720811006
 20
7.4293473829
 30
0.0
 10
4.4720816589
 20
7.4283918034
 30
0.0
  0
SPLINE
  5
46D
100
AcDbEntity
  8
0
100
AcDbSpline
 62
9
  6
CONTINUOUS
 70
0
 71
3
 72
14
 73
10
 74
0
 42
0.0000001
 43
0.0000001
 44
0.0000000001
 40
0.0
 40
0.0
 40
0.0
 40
0.0
 40
0.1243955453
 40
0.2489531069
 40
0.3735871531
 40
0.4985013511
 40
0.6234771228
 40
0.7485453836
 40
1.0
 40
1.0
 40
1.0
 40
1.0
 10
4.4720818774
 20
7.3903918044
 30
0.0
 10
4.4720814357
 20
7.3894338074
 30
0.0
 10
4.4719007732
 20
7.3875126678
 30
0.0
 10
4.471130614
 20
7.3847261945
 30
0.0
 10
4.4698909139
 20
7.382110255
 30
0.0
 10
4.468252303
 20
7.3797236159
 30
0.0
 10
4.4662885752
 20
7.3775935258
 30
0.0
 10
4.4633122929
 20
7.3751193612
 30
0.0
 10
4.4607587234
 20
7.3736806839
 30
0.0
 10
4.458985145
 20
7.372903202
 30
0.0
  0
SPLINE
  5
46E
100
AcDbEntity
  8
0
100
AcDbSpline
 62
7
  6
CONTINUOUS
 70
0
 71
3
 72
9
 73
5
 74
0
 42
0.0000001
 43
0.0000001
 44
0.0000000001
 40
0.0
 40
0.0
 40
0.0
 40
0.0
 40
0.502508949
 40
1.0
 40
1.0
 40
1.0
 40
1.0
 10
3.7482979024
 20
7.3631269275
 30
0.0
 10
3.7487338615
 20
7.3628363901
 30
0.0
 10
3.7496529221
 20
7.362331993
 30
0.0
 10
3.750645911
 20
7.3619944129
 30
0.0
 10
3.7511501756
 20
7.3618730237
 30
0.0
  0
SPLINE
  5
46F
100
AcDbEntity
  8
0
100
AcDbSpline
 62
9
  6
CONTINUOUS
 70
0
 71
3
 72
18
 73
14
 74
0
 42
0.0000001
 43
0.0000001
 44
0.0000000001
 40
0.0
 40
0.0
 40
0.0
 40
0.0
 40
0.1255675939
 40
0.1884700687
 40
0.2512710295
 40
0.3139938426
 40
0.3766216403
 40
0.5015669587
 40
0.5640236748
 40
0.6264409741
 40
0.7509631948
 40
0.8754821941
 40
1.0
 40
1.0
 40
1.0
 40
1.0
 10
4.4779179062
 20
7.428391804
 30
0.0
 10
4.4779196839
 20
7.4303947643
 30
0.0
 10
4.4775604499
 20
7.4334158123
 30
0.0
 10
4.4764126992
 20
7.4372619028
 30
0.0
 10
4.4752330537
 20
7.4400335616
 30
0.0
 10
4.473764966
 20
7.4426578194
 30
0.0
 10
4.4714591449
 20
7.4459241891
 30
0.0
 10
4.4686790949
 20
7.448824327
 30
0.0
 10
4.4655496409
 20
7.4512975074
 30
0.0
 10
4.4622222946
 20
7.4534862157
 30
0.0
 10
4.4577412707
 20
7.4556863366
 30
0.0
 10
4.4520300505
 20
7.4574575167
 30
0.0
 10
4.4480892868
 20
7.458072581
 30
0.0
 10
4.4461101656
 20
7.4582403061
 30
0.0
  0
SPLINE
  5
470
100
AcDbEntity
  8
0
100
AcDbSpline
 62
9
  6
CONTINUOUS
 70
0
 71
3
 72
14
 73
10
 74
0
 42
0.0000001
 43
0.0000001
 44
0.0000000001
 40
0.0
 40
0.0
 40
0.0
 40
0.0
 40
0.1424983429
 40
0.2829280612
 40
0.4188197434
 40
0.5487820206
 40
0.6719581927
 40
0.7881105579
 40
1.0
 40
1.0
 40
1.0
 40
1.0
 10
4.4849242964
 20
7.428391804
 30
0.0
 10
4.4849238141
 20
7.429772329
 30
0.0
 10
4.4847870218
 20
7.4325151159
 30
0.0
 10
4.4841894805
 20
7.4365349198
 30
0.0
 10
4.4832142849
 20
7.4403556825
 30
0.0
 10
4.4819059168
 20
7.4438974557
 30
0.0
 10
4.4803025012
 20
7.4471054167
 30
0.0
 10
4.4779100379
 20
7.450770104
 30
0.0
 10
4.4756966723
 20
7.4531151102
 30
0.0
 10
4.4740867456
 20
7.4543887147
 30
0.0
  0
SPLINE
  5
471
100
AcDbEntity
  8
0
100
AcDbSpline
 62
9
  6
CONTINUOUS
 70
0
 71
3
 72
11
 73
7
 74
0
 42
0.0000001
 43
0.0000001
 44
0.0000000001
 40
0.0
 40
0.0
 40
0.0
 40
0.0
 40
0.263560063
 40
0.5161811347
 40
0.7608882885
 40
1.0
 40
1.0
 40
1.0
 40
1.0
 10
4.4740867456
 20
7.4543887147
 30
0.0
 10
4.4733659572
 20
7.4549589266
 30
0.0
 10
4.4718788251
 20
7.4559848717
 30
0.0
 10
4.4694954791
 20
7.4571713028
 30
0.0
 10
4.4670453746
 20
7.4579702175
 30
0.0
 10
4.4653740844
 20
7.4582502836
 30
0.0
 10
4.4645436489
 20
7.4583252148
 30
0.0
  0
SPLINE
  5
472
100
AcDbEntity
  8
0
100
AcDbSpline
 62
9
  6
CONTINUOUS
 70
0
 71
3
 72
12
 73
8
 74
0
 42
0.0000001
 43
0.0000001
 44
0.0000000001
 40
0.0
 40
0.0
 40
0.0
 40
0.0
 40
0.2462316601
 40
0.4948356971
 40
0.6204813681
 40
0.7467784739
 40
1.0
 40
1.0
 40
1.0
 40
1.0
 10
4.4821064626
 20
7.4444977534
 30
0.0
 10
4.4834809074
 20
7.4436546827
 30
0.0
 10
4.4860853045
 20
7.4416813384
 30
0.0
 10
4.4887132666
 20
7.4385277202
 30
0.0
 10
4.490301782
 20
7.4356496133
 30
0.0
 10
4.4914865458
 20
7.4325531572
 30
0.0
 10
4.4918681975
 20
7.4300499858
 30
0.0
 10
4.4918688083
 20
7.4283918037
 30
0.0
  0
SPLINE
  5
473
100
AcDbEntity
  8
0
100
AcDbSpline
 62
9
  6
CONTINUOUS
 70
0
 71
3
 72
20
 73
16
 74
0
 42
0.0000001
 43
0.0000001
 44
0.0000000001
 40
0.0
 40
0.0
 40
0.0
 40
0.0
 40
0.0866446506
 40
0.1724604496
 40
0.3369764095
 40
0.4874073215
 40
0.5563394544
 40
0.6207885486
 40
0.6807769966
 40
0.7364365868
 40
0.8355978799
 40
0.8800691333
 40
0.9217924744
 40
0.9614949467
 40
1.0
 40
1.0
 40
1.0
 40
1.0
 10
4.0619572228
 20
7.428391804
 30
0.0
 10
4.0619593451
 20
7.4294378392
 30
0.0
 10
4.0619017894
 20
7.4315205669
 30
0.0
 10
4.0615594585
 20
7.4355759695
 30
0.0
 10
4.0607514454
 20
7.4403575961
 30
0.0
 10
4.0594349867
 20
7.4448157044
 30
0.0
 10
4.0581249234
 20
7.4479846516
 30
0.0
 10
4.057076018
 20
7.4500726826
 30
0.0
 10
4.0559456871
 20
7.4519336109
 30
0.0
 10
4.0544081876
 20
7.4540239785
 30
0.0
 10
4.0527064495
 20
7.4557580575
 30
0.0
 10
4.0508623693
 20
7.4570355927
 30
0.0
 10
4.0495024246
 20
7.4577262651
 30
0.0
 10
4.0481225981
 20
7.4581830271
 30
0.0
 10
4.0471853189
 20
7.4583328194
 30
0.0
 10
4.0467217719
 20
7.458367747
 30
0.0
  0
SPLINE
  5
474
100
AcDbEntity
  8
0
100
AcDbSpline
 62
9
  6
CONTINUOUS
 70
0
 71
3
 72
20
 73
16
 74
0
 42
0.0000001
 43
0.0000001
 44
0.0000000001
 40
0.0
 40
0.0
 40
0.0
 40
0.0
 40
0.1856130066
 40
0.361634059
 40
0.5203889531
 40
0.5919210289
 40
0.6577900364
 40
0.7179267033
 40
0.7723848875
 40
0.8213020411
 40
0.8650035768
 40
0.9039390086
 40
0.9387432248
 40
0.9703568113
 40
1.0
 40
1.0
 40
1.0
 40
1.0
 10
4.0053026096
 20
7.428391804
 30
0.0
 10
4.0053067326
 20
7.4304714383
 30
0.0
 10
4.0051437965
 20
7.4345254324
 30
0.0
 10
4.0044471207
 20
7.4403199792
 30
0.0
 10
4.0035114651
 20
7.4447831328
 30
0.0
 10
4.0025750585
 20
7.447967974
 30
0.0
 10
4.0018308367
 20
7.4500537781
 30
0.0
 10
4.0010303337
 20
7.4519122111
 30
0.0
 10
4.0001831106
 20
7.4535387267
 30
0.0
 10
3.9992970698
 20
7.4549309851
 30
0.0
 10
3.9983805517
 20
7.4560892648
 30
0.0
 10
3.9974407685
 20
7.4570158849
 30
0.0
 10
3.9964811946
 20
7.4577127812
 30
0.0
 10
3.9955028008
 20
7.4581775629
 30
0.0
 10
3.994826994
 20
7.4583325223
 30
0.0
 10
3.9944967401
 20
7.458367747
 30
0.0
  0
SPLINE
  5
475
100
AcDbEntity
  8
0
100
AcDbSpline
 62
9
  6
CONTINUOUS
 70
0
 71
3
 72
21
 73
17
 74
0
 42
0.0000001
 43
0.0000001
 44
0.0000000001
 40
0.0
 40
0.0
 40
0.0
 40
0.0
 40
0.1985939897
 40
0.3860958934
 40
0.5535385472
 40
0.6280277716
 40
0.6957892171
 40
0.7566451206
 40
0.8105332321
 40
0.8574563858
 40
0.897587406
 40
0.9312045877
 40
0.9587713651
 40
0.9705574032
 40
0.9812121996
 40
1.0
 40
1.0
 40
1.0
 40
1.0
 10
3.9504908519
 20
7.428391804
 30
0.0
 10
3.9504947979
 20
7.4304703482
 30
0.0
 10
3.9503991245
 20
7.4345121274
 30
0.0
 10
3.9499966105
 20
7.4402935005
 30
0.0
 10
3.9494572886
 20
7.444758359
 30
0.0
 10
3.9489160288
 20
7.4479547251
 30
0.0
 10
3.9484893362
 20
7.4500377343
 30
0.0
 10
3.9480319603
 20
7.4518929238
 30
0.0
 10
3.9475495913
 20
7.4535155875
 30
0.0
 10
3.9470470377
 20
7.4549035406
 30
0.0
 10
3.9465302351
 20
7.4560576919
 30
0.0
 10
3.9460047953
 20
7.4569807823
 30
0.0
 10
3.9455396212
 20
7.4575917197
 30
0.0
 10
3.9451584477
 20
7.4579525149
 30
0.0
 10
3.9448096908
 20
7.45820727
 30
0.0
 10
3.9445181139
 20
7.4583312699
 30
0.0
 10
3.9443248877
 20
7.458367747
 30
0.0
  0
SPLINE
  5
476
100
AcDbEntity
  8
0
100
AcDbSpline
 62
9
  6
CONTINUOUS
 70
0
 71
3
 72
24
 73
20
 74
0
 42
0.0000001
 43
0.0000001
 44
0.0000000001
 40
0.0
 40
0.0
 40
0.0
 40
0.0
 40
0.2073838514
 40
0.4027721105
 40
0.4927715422
 40
0.5764275816
 40
0.6531935644
 40
0.7225957121
 40
0.784387312
 40
0.8384236587
 40
0.884599381
 40
0.9229449297
 40
0.9535233109
 40
0.9659233626
 40
0.9764153811
 40
0.9850192685
 40
0.9917657291
 40
0.9967122225
 40
1.0
 40
1.0
 40
1.0
 40
1.0
 10
3.8985887983
 20
7.428391804
 30
0.0
 10
3.8985924908
 20
7.4304698339
 30
0.0
 10
3.8985652128
 20
7.434505764
 30
0.0
 10
3.8984767217
 20
7.4394427531
 30
0.0
 10
3.8983755701
 20
7.4431392985
 30
0.0
 10
3.8982892383
 20
7.4456471144
 30
0.0
 10
3.8981934151
 20
7.4479480309
 30
0.0
 10
3.8980907414
 20
7.4500293264
 30
0.0
 10
3.8979828347
 20
7.4518822642
 30
0.0
 10
3.897870975
 20
7.4535017562
 30
0.0
 10
3.8977563575
 20
7.4548854572
 30
0.0
 10
3.8976417476
 20
7.456033118
 30
0.0
 10
3.8975436213
 20
7.4568422047
 30
0.0
 10
3.8974651351
 20
7.4573722248
 30
0.0
 10
3.8974111559
 20
7.4576832651
 30
0.0
 10
3.8973576733
 20
7.4579365761
 30
0.0
 10
3.8973042551
 20
7.4581333509
 30
0.0
 10
3.8972512102
 20
7.4582733062
 30
0.0
 10
3.8972072843
 20
7.4583457576
 30
0.0
 10
3.8971827529
 20
7.458367747
 30
0.0
  0
SPLINE
  5
477
100
AcDbEntity
  8
0
100
AcDbSpline
 62
9
  6
CONTINUOUS
 70
0
 71
3
 72
20
 73
16
 74
0
 42
0.0000001
 43
0.0000001
 44
0.0000000001
 40
0.0
 40
0.0
 40
0.0
 40
0.0
 40
0.2043274966
 40
0.396912186
 40
0.5682513821
 40
0.7127873961
 40
0.7740907296
 40
0.8278928386
 40
0.8741317833
 40
0.9129182856
 40
0.9444547715
 40
0.9690403386
 40
0.9788775891
 40
0.9872013464
 40
1.0
 40
1.0
 40
1.0
 40
1.0
 10
3.850606663
 20
7.428391804
 30
0.0
 10
3.8506100314
 20
7.4304699357
 30
0.0
 10
3.8506514159
 20
7.434506896
 30
0.0
 10
3.8508483728
 20
7.4402836511
 30
0.0
 10
3.8511624536
 20
7.4454460488
 30
0.0
 10
3.8515201219
 20
7.4492666688
 30
0.0
 10
3.8518629949
 20
7.4518853115
 30
0.0
 10
3.8521225379
 20
7.453505913
 30
0.0
 10
3.8523959927
 20
7.4548915165
 30
0.0
 10
3.8526822908
 20
7.4560426816
 30
0.0
 10
3.8529815673
 20
7.456961412
 30
0.0
 10
3.8532560333
 20
7.4575759638
 30
0.0
 10
3.8534883064
 20
7.4579453007
 30
0.0
 10
3.8536859798
 20
7.4581889047
 30
0.0
 10
3.8538640661
 20
7.4583276403
 30
0.0
 10
3.8539879035
 20
7.458367747
 30
0.0
  0
SPLINE
  5
478
100
AcDbEntity
  8
0
100
AcDbSpline
 62
9
  6
CONTINUOUS
 70
0
 71
3
 72
20
 73
16
 74
0
 42
0.0000001
 43
0.0000001
 44
0.0000000001
 40
0.0
 40
0.0
 40
0.0
 40
0.0
 40
0.1929834754
 40
0.3753972313
 40
0.5387767453
 40
0.6117577063
 40
0.6784390896
 40
0.7387014064
 40
0.7925425506
 40
0.8400484976
 40
0.8815383113
 40
0.9175022789
 40
0.9486013736
 40
0.9756952513
 40
1.0
 40
1.0
 40
1.0
 40
1.0
 10
3.8074783639
 20
7.428391804
 30
0.0
 10
3.8074813434
 20
7.4304706456
 30
0.0
 10
3.8075909326
 20
7.4345154774
 30
0.0
 10
3.8080861802
 20
7.4403013233
 30
0.0
 10
3.8087598842
 20
7.4447662405
 30
0.0
 10
3.809442046
 20
7.4479594953
 30
0.0
 10
3.8099872949
 20
7.4500438309
 30
0.0
 10
3.8105780341
 20
7.45190058
 30
0.0
 10
3.811206875
 20
7.4535253037
 30
0.0
 10
3.8118680783
 20
7.4549165846
 30
0.0
 10
3.8125585682
 20
7.4560749946
 30
0.0
 10
3.8132766243
 20
7.4570025385
 30
0.0
 10
3.8140201386
 20
7.4577004397
 30
0.0
 10
3.8147832856
 20
7.4581697651
 30
0.0
 10
3.8153217326
 20
7.4583318807
 30
0.0
 10
3.8155810783
 20
7.458367747
 30
0.0
  0
SPLINE
  5
479
100
AcDbEntity
  8
0
100
AcDbSpline
 62
9
  6
CONTINUOUS
 70
0
 71
3
 72
15
 73
11
 74
0
 42
0.0000001
 43
0.0000001
 44
0.0000000001
 40
0.0
 40
0.0
 40
0.0
 40
0.0
 40
0.1493678941
 40
0.2960212189
 40
0.4367737402
 40
0.5695752669
 40
0.6928685194
 40
0.8058647347
 40
0.9081823336
 40
1.0
 40
1.0
 40
1.0
 40
1.0
 10
3.7700433442
 20
7.428391804
 30
0.0
 10
3.7700449295
 20
7.4296936732
 30
0.0
 10
3.7701178058
 20
7.4322742022
 30
0.0
 10
3.7704333686
 20
7.4360699591
 30
0.0
 10
3.770953435
 20
7.4396976005
 30
0.0
 10
3.7716545322
 20
7.443087085
 30
0.0
 10
3.7725171972
 20
7.446188944
 30
0.0
 10
3.7735190137
 20
7.448968402
 30
0.0
 10
3.7746406038
 20
7.4514027787
 30
0.0
 10
3.7754988414
 20
7.4528656387
 30
0.0
 10
3.7759457747
 20
7.4535294783
 30
0.0
  0
SPLINE
  5
47A
100
AcDbEntity
  8
0
100
AcDbSpline
 62
9
  6
CONTINUOUS
 70
0
 71
3
 72
11
 73
7
 74
0
 42
0.0000001
 43
0.0000001
 44
0.0000000001
 40
0.0
 40
0.0
 40
0.0
 40
0.0
 40
0.2981790013
 40
0.5580907749
 40
0.7886488419
 40
1.0
 40
1.0
 40
1.0
 40
1.0
 10
3.7759457747
 20
7.4535294783
 30
0.0
 10
3.7764219739
 20
7.4542367871
 30
0.0
 10
3.7774026769
 20
7.4555055857
 30
0.0
 10
3.7790904186
 20
7.4570242229
 30
0.0
 10
3.780860948
 20
7.458009462
 30
0.0
 10
3.7821078229
 20
7.4583141566
 30
0.0
 10
3.7827098223
 20
7.458367747
 30
0.0
  0
SPLINE
  5
47B
100
AcDbEntity
  8
0
100
AcDbSpline
 62
9
  6
CONTINUOUS
 70
0
 71
3
 72
15
 73
11
 74
0
 42
0.0000001
 43
0.0000001
 44
0.0000000001
 40
0.0
 40
0.0
 40
0.0
 40
0.0
 40
0.1554557915
 40
0.3066635711
 40
0.4496470335
 40
0.5820334678
 40
0.7028175192
 40
0.8120089367
 40
0.9104557719
 40
1.0
 40
1.0
 40
1.0
 40
1.0
 10
3.739030234
 20
7.428391804
 30
0.0
 10
3.7390318617
 20
7.4300552177
 30
0.0
 10
3.7391890174
 20
7.433338659
 30
0.0
 10
3.7398810642
 20
7.4381076054
 30
0.0
 10
3.7409960067
 20
7.4425426153
 30
0.0
 10
3.7424734806
 20
7.4465255388
 30
0.0
 10
3.7442546923
 20
7.449981435
 30
0.0
 10
3.7462824731
 20
7.4528669801
 30
0.0
 10
3.7485005938
 20
7.4551647564
 30
0.0
 10
3.7501481959
 20
7.456344832
 30
0.0
 10
3.7509821435
 20
7.4568166085
 30
0.0
  0
SPLINE
  5
47C
100
AcDbEntity
  8
0
100
AcDbSpline
 62
9
  6
CONTINUOUS
 70
0
 71
3
 72
9
 73
5
 74
0
 42
0.0000001
 43
0.0000001
 44
0.0000000001
 40
0.0
 40
0.0
 40
0.0
 40
0.0
 40
0.5128991537
 40
1.0
 40
1.0
 40
1.0
 40
1.0
 10
3.7509821435
 20
7.4568166085
 30
0.0
 10
3.751770656
 20
7.4572626816
 30
0.0
 10
3.7534019242
 20
7.4579796935
 30
0.0
 10
3.7551554633
 20
7.4583105808
 30
0.0
 10
3.7560139373
 20
7.458367747
 30
0.0
  0
SPLINE
  5
47D
100
AcDbEntity
  8
0
100
AcDbSpline
 62
9
  6
CONTINUOUS
 70
0
 71
3
 72
14
 73
10
 74
0
 42
0.0000001
 43
0.0000001
 44
0.0000000001
 40
0.0
 40
0.0
 40
0.0
 40
0.0
 40
0.1425064082
 40
0.2829331106
 40
0.4188294287
 40
0.5487937458
 40
0.6719684752
 40
0.7881173262
 40
1.0
 40
1.0
 40
1.0
 40
1.0
 10
3.7150426682
 20
7.428391804
 30
0.0
 10
3.7150436628
 20
7.4297728157
 30
0.0
 10
3.7151804672
 20
7.4325164176
 30
0.0
 10
3.7157778047
 20
7.4365375892
 30
0.0
 10
3.7167537426
 20
7.4403594268
 30
0.0
 10
3.718063075
 20
7.4439020843
 30
0.0
 10
3.7196673922
 20
7.44711076
 30
0.0
 10
3.7220614136
 20
7.4507758541
 30
0.0
 10
3.7242761447
 20
7.4531208049
 30
0.0
 10
3.7258870089
 20
7.4543940983
 30
0.0
  0
SPLINE
  5
47E
100
AcDbEntity
  8
0
100
AcDbSpline
 62
9
  6
CONTINUOUS
 70
0
 71
3
 72
11
 73
7
 74
0
 42
0.0000001
 43
0.0000001
 44
0.0000000001
 40
0.0
 40
0.0
 40
0.0
 40
0.0
 40
0.2635370163
 40
0.5161565634
 40
0.76087628
 40
1.0
 40
1.0
 40
1.0
 40
1.0
 10
3.7258870089
 20
7.4543940983
 30
0.0
 10
3.7266073774
 20
7.4549635072
 30
0.0
 10
3.7280936033
 20
7.4559880166
 30
0.0
 10
3.7304753139
 20
7.4571727556
 30
0.0
 10
3.7329236332
 20
7.4579705984
 30
0.0
 10
3.7345936541
 20
7.4582503547
 30
0.0
 10
3.7354234566
 20
7.4583252257
 30
0.0
  0
SPLINE
  5
47F
100
AcDbEntity
  8
0
100
AcDbSpline
 62
9
  6
CONTINUOUS
 70
0
 71
3
 72
10
 73
6
 74
0
 42
0.0000001
 43
0.0000001
 44
0.0000000001
 40
0.0
 40
0.0
 40
0.0
 40
0.0
 40
0.2561047684
 40
0.5101052625
 40
1.0
 40
1.0
 40
1.0
 40
1.0
 10
3.6985475375
 20
7.428391804
 30
0.0
 10
3.6985480924
 20
7.429630612
 30
0.0
 10
3.6986784338
 20
7.4321003237
 30
0.0
 10
3.6994258224
 20
7.436884455
 30
0.0
 10
3.7005395599
 20
7.4403438751
 30
0.0
 10
3.7015091148
 20
7.4425061267
 30
0.0
  0
SPLINE
  5
480
100
AcDbEntity
  8
0
100
AcDbSpline
 62
9
  6
CONTINUOUS
 70
0
 71
3
 72
9
 73
5
 74
0
 42
0.0000001
 43
0.0000001
 44
0.0000000001
 40
0.0
 40
0.0
 40
0.0
 40
0.0
 40
0.2565491988
 40
1.0
 40
1.0
 40
1.0
 40
1.0
 10
3.7016859907
 20
7.4428936204
 30
0.0
 10
3.7019092394
 20
7.4433741509
 30
0.0
 10
3.7028261408
 20
7.4452250572
 30
0.0
 10
3.7039283148
 20
7.4469849188
 30
0.0
 10
3.7048449378
 20
7.4482167742
 30
0.0
  0
SPLINE
  5
481
100
AcDbEntity
  8
0
100
AcDbSpline
 62
9
  6
CONTINUOUS
 70
0
 71
3
 72
9
 73
5
 74
0
 42
0.0000001
 43
0.0000001
 44
0.0000000001
 40
0.0
 40
0.0
 40
0.0
 40
0.0
 40
0.2567178523
 40
1.0
 40
1.0
 40
1.0
 40
1.0
 10
3.705618272
 20
7.4492093611
 30
0.0
 10
3.7059331511
 20
7.449595429
 30
0.0
 10
3.7071994559
 20
7.4510663271
 30
0.0
 10
3.7086233457
 20
7.4524023644
 30
0.0
 10
3.7097553587
 20
7.4532963244
 30
0.0
  0
SPLINE
  5
482
100
AcDbEntity
  8
0
100
AcDbSpline
 62
9
  6
CONTINUOUS
 70
0
 71
3
 72
12
 73
8
 74
0
 42
0.0000001
 43
0.0000001
 44
0.0000000001
 40
0.0
 40
0.0
 40
0.0
 40
0.0
 40
0.253236352
 40
0.3795367165
 40
0.5051844055
 40
0.7537567336
 40
1.0
 40
1.0
 40
1.0
 40
1.0
 10
4.4918688905
 20
7.3903918043
 30
0.0
 10
4.4918683011
 20
7.3887217696
 30
0.0
 10
4.4914811722
 20
7.3862004571
 30
0.0
 10
4.4902797542
 20
7.383084979
 30
0.0
 10
4.4886702425
 20
7.3801919436
 30
0.0
 10
4.4860096254
 20
7.3770273243
 30
0.0
 10
4.4833760712
 20
7.3750540622
 30
0.0
 10
4.4819870189
 20
7.3742128486
 30
0.0
  0
SPLINE
  5
483
100
AcDbEntity
  8
0
100
AcDbSpline
 62
9
  6
CONTINUOUS
 70
0
 71
3
 72
16
 73
12
 74
0
 42
0.0000001
 43
0.0000001
 44
0.0000000001
 40
0.0
 40
0.0
 40
0.0
 40
0.0
 40
0.1249331545
 40
0.1875831575
 40
0.250175593
 40
0.3751652131
 40
0.5001037711
 40
0.6250800838
 40
0.7500866522
 40
0.875024247
 40
1.0
 40
1.0
 40
1.0
 40
1.0
 10
4.4515850664
 20
7.428391804
 30
0.0
 10
4.4515868339
 20
7.4300613477
 30
0.0
 10
4.451334152
 20
7.4325768014
 30
0.0
 10
4.4505235358
 20
7.4358238945
 30
0.0
 10
4.4494040474
 20
7.4389798971
 30
0.0
 10
4.4474647537
 20
7.4427066637
 30
0.0
 10
4.4443983745
 20
7.4466979343
 30
0.0
 10
4.4407320379
 20
7.4501423893
 30
0.0
 10
4.436595615
 20
7.4530001923
 30
0.0
 10
4.4321073842
 20
7.4552590791
 30
0.0
 10
4.4289445498
 20
7.4563636715
 30
0.0
 10
4.4273370265
 20
7.4568166055
 30
0.0
  0
SPLINE
  5
484
100
AcDbEntity
  8
0
100
AcDbSpline
 62
9
  6
CONTINUOUS
 70
0
 71
3
 72
18
 73
14
 74
0
 42
0.0000001
 43
0.0000001
 44
0.0000000001
 40
0.0
 40
0.0
 40
0.0
 40
0.0
 40
0.1254939858
 40
0.1883725713
 40
0.2511654215
 40
0.313887233
 40
0.3765334624
 40
0.4391421933
 40
0.5016891405
 40
0.6265175501
 40
0.7510953604
 40
0.875636752
 40
1.0
 40
1.0
 40
1.0
 40
1.0
 10
4.4184087016
 20
7.428391804
 30
0.0
 10
4.4184114242
 20
7.4304854559
 30
0.0
 10
4.4180164283
 20
7.4336450974
 30
0.0
 10
4.4167594531
 20
7.4376489851
 30
0.0
 10
4.415471886
 20
7.4405244653
 30
0.0
 10
4.4138732313
 20
7.4432332744
 30
0.0
 10
4.4119922339
 20
7.4457499414
 30
0.0
 10
4.4098651054
 20
7.4480577807
 30
0.0
 10
4.406746371
 20
7.4508350952
 30
0.0
 10
4.4023883823
 20
7.4537358695
 30
0.0
 10
4.3966558747
 20
7.4562665582
 30
0.0
 10
4.3906061154
 20
7.4578546117
 30
0.0
 10
4.386459513
 20
7.4582983015
 30
0.0
 10
4.3843858863
 20
7.458367747
 30
0.0
  0
SPLINE
  5
485
100
AcDbEntity
  8
0
100
AcDbSpline
 62
9
  6
CONTINUOUS
 70
0
 71
3
 72
10
 73
6
 74
0
 42
0.0000001
 43
0.0000001
 44
0.0000000001
 40
0.0
 40
0.0
 40
0.0
 40
0.0
 40
0.2561040765
 40
0.5101179504
 40
1.0
 40
1.0
 40
1.0
 40
1.0
 10
4.5014194271
 20
7.428391804
 30
0.0
 10
4.5014191579
 20
7.4296308672
 30
0.0
 10
4.5012887532
 20
7.4321011863
 30
0.0
 10
4.5005405917
 20
7.4368862088
 30
0.0
 10
4.4994265193
 20
7.4403463095
 30
0.0
 10
4.4984566177
 20
7.4425088802
 30
0.0
  0
SPLINE
  5
486
100
AcDbEntity
  8
0
100
AcDbSpline
 62
9
  6
CONTINUOUS
 70
0
 71
3
 72
9
 73
5
 74
0
 42
0.0000001
 43
0.0000001
 44
0.0000000001
 40
0.0
 40
0.0
 40
0.0
 40
0.0
 40
0.2563599576
 40
1.0
 40
1.0
 40
1.0
 40
1.0
 10
4.498223861
 20
7.443015897
 30
0.0
 10
4.4980053491
 20
7.4434810506
 30
0.0
 10
4.4971090057
 20
7.4452744352
 30
0.0
 10
4.4960381953
 20
7.4469812693
 30
0.0
 10
4.4951502471
 20
7.4481787374
 30
0.0
  0
SPLINE
  5
487
100
AcDbEntity
  8
0
100
AcDbSpline
 62
9
  6
CONTINUOUS
 70
0
 71
3
 72
9
 73
5
 74
0
 42
0.0000001
 43
0.0000001
 44
0.0000000001
 40
0.0
 40
0.0
 40
0.0
 40
0.0
 40
0.2563748745
 40
1.0
 40
1.0
 40
1.0
 40
1.0
 10
4.494198274
 20
7.4493921938
 30
0.0
 10
4.4938960959
 20
7.4497563616
 30
0.0
 10
4.4926816276
 20
7.4511466261
 30
0.0
 10
4.491325188
 20
7.452413542
 30
0.0
 10
4.49024962
 20
7.4532662446
 30
0.0
  0
SPLINE
  5
488
100
AcDbEntity
  8
0
100
AcDbSpline
 62
9
  6
CONTINUOUS
 70
0
 71
3
 72
10
 73
6
 74
0
 42
0.0000001
 43
0.0000001
 44
0.0000000001
 40
0.0
 40
0.0
 40
0.0
 40
0.0
 40
0.4931560502
 40
0.7450588689
 40
1.0
 40
1.0
 40
1.0
 40
1.0
 10
4.4992473996
 20
7.4408343176
 30
0.0
 10
4.5001659121
 20
7.4397849555
 30
0.0
 10
4.5013951774
 20
7.4380485478
 30
0.0
 10
4.5026363502
 20
7.435503162
 30
0.0
 10
4.5031124889
 20
7.4341468192
 30
0.0
 10
4.503310946
 20
7.4334537379
 30
0.0
  0
SPLINE
  5
489
100
AcDbEntity
  8
0
100
AcDbSpline
 62
9
  6
CONTINUOUS
 70
0
 71
3
 72
9
 73
5
 74
0
 42
0.0000001
 43
0.0000001
 44
0.0000000001
 40
0.0
 40
0.0
 40
0.0
 40
0.0
 40
0.2491549194
 40
1.0
 40
1.0
 40
1.0
 40
1.0
 10
4.503310946
 20
7.4334537379
 30
0.0
 10
4.503428038
 20
7.433044812
 30
0.0
 10
4.5038416617
 20
7.4313880419
 30
0.0
 10
4.5040274168
 20
7.4296736536
 30
0.0
 10
4.5040279949
 20
7.4283918035
 30
0.0
  0
SPLINE
  5
48A
100
AcDbEntity
  8
0
100
AcDbSpline
 62
9
  6
CONTINUOUS
 70
0
 71
3
 72
10
 73
6
 74
0
 42
0.0000001
 43
0.0000001
 44
0.0000000001
 40
0.0
 40
0.0
 40
0.0
 40
0.0
 40
0.2546719869
 40
0.5064486907
 40
1.0
 40
1.0
 40
1.0
 40
1.0
 10
4.503303707
 20
7.3853038871
 30
0.0
 10
4.5031128237
 20
7.3846410001
 30
0.0
 10
4.5026586155
 20
7.3833426614
 30
0.0
 10
4.5014843988
 20
7.3808978063
 30
0.0
 10
4.5003279383
 20
7.3792208378
 30
0.0
 10
4.4994639997
 20
7.3782006283
 30
0.0
  0
SPLINE
  5
48B
100
AcDbEntity
  8
0
100
AcDbSpline
 62
9
  6
CONTINUOUS
 70
0
 71
3
 72
18
 73
14
 74
0
 42
0.0000001
 43
0.0000001
 44
0.0000000001
 40
0.0
 40
0.0
 40
0.0
 40
0.0
 40
0.1274380482
 40
0.1911626934
 40
0.2546648993
 40
0.3179344627
 40
0.3809517712
 40
0.4437500455
 40
0.5063067037
 40
0.6306590966
 40
0.7542103721
 40
0.8773023423
 40
1.0
 40
1.0
 40
1.0
 40
1.0
 10
4.3790345522
 20
7.428391804
 30
0.0
 10
4.3790376863
 20
7.430484607
 30
0.0
 10
4.3786542793
 20
7.4336401557
 30
0.0
 10
4.3774316378
 20
7.4376458507
 30
0.0
 10
4.3761802072
 20
7.4405208977
 30
0.0
 10
4.3746263629
 20
7.4432296194
 30
0.0
 10
4.3727979361
 20
7.4457464543
 30
0.0
 10
4.3707303046
 20
7.4480546147
 30
0.0
 10
4.3677030818
 20
7.4508288948
 30
0.0
 10
4.3634728051
 20
7.4537292684
 30
0.0
 10
4.3579013536
 20
7.4562631036
 30
0.0
 10
4.352023063
 20
7.4578538079
 30
0.0
 10
4.3479928217
 20
7.4582982933
 30
0.0
 10
4.3459790611
 20
7.458367747
 30
0.0
  0
SPLINE
  5
48C
100
AcDbEntity
  8
0
100
AcDbSpline
 62
9
  6
CONTINUOUS
 70
0
 71
3
 72
16
 73
12
 74
0
 42
0.0000001
 43
0.0000001
 44
0.0000000001
 40
0.0
 40
0.0
 40
0.0
 40
0.0
 40
0.1291827994
 40
0.2579241086
 40
0.3853546315
 40
0.5112688627
 40
0.5736734086
 40
0.63567883
 40
0.7583791288
 40
0.8797316775
 40
1.0
 40
1.0
 40
1.0
 40
1.0
 10
4.5081460336
 20
7.390391804
 30
0.0
 10
4.508145425
 20
7.3889346554
 30
0.0
 10
4.5079147195
 20
7.3860206536
 30
0.0
 10
4.5069082909
 20
7.3817750817
 30
0.0
 10
4.5052765275
 20
7.3777683283
 30
0.0
 10
4.5034543444
 20
7.3746924679
 30
0.0
 10
4.5017613349
 20
7.3724302443
 30
0.0
 10
4.4999389834
 20
7.3703185756
 30
0.0
 10
4.4974187931
 20
7.3679423574
 30
0.0
 10
4.4940758321
 20
7.3655341727
 30
0.0
 10
4.4916743238
 20
7.3642282349
 30
0.0
 10
4.4904454612
 20
7.363653562
 30
0.0
  0
SPLINE
  5
48D
100
AcDbEntity
  8
0
100
AcDbSpline
 62
9
  6
CONTINUOUS
 70
0
 71
3
 72
17
 73
13
 74
0
 42
0.0000001
 43
0.0000001
 44
0.0000000001
 40
0.0
 40
0.0
 40
0.0
 40
0.0
 40
0.1269138411
 40
0.1904405016
 40
0.2538002828
 40
0.3798809593
 40
0.50522845
 40
0.5676773702
 40
0.6299358612
 40
0.7537849241
 40
0.8771073368
 40
1.0
 40
1.0
 40
1.0
 40
1.0
 10
4.4968946825
 20
7.390391804
 30
0.0
 10
4.4968933977
 20
7.3888873727
 30
0.0
 10
4.4966976308
 20
7.3866243504
 30
0.0
 10
4.4960675592
 20
7.3836800312
 30
0.0
 10
4.4951947736
 20
7.3808077677
 30
0.0
 10
4.4936716952
 20
7.3773823334
 30
0.0
 10
4.4916376441
 20
7.3742486332
 30
0.0
 10
4.4897553814
 20
7.3719559341
 30
0.0
 10
4.4877254508
 20
7.3698173347
 30
0.0
 10
4.4849241964
 20
7.3674298381
 30
0.0
 10
4.4812288628
 20
7.3650450596
 30
0.0
 10
4.4785900037
 20
7.3637781632
 30
0.0
 10
4.4772415637
 20
7.3632269156
 30
0.0
  0
SPLINE
  5
48E
100
AcDbEntity
  8
0
100
AcDbSpline
 62
9
  6
CONTINUOUS
 70
0
 71
3
 72
17
 73
13
 74
0
 42
0.0000001
 43
0.0000001
 44
0.0000000001
 40
0.0
 40
0.0
 40
0.0
 40
0.0
 40
0.1254580582
 40
0.1883254462
 40
0.2511037454
 40
0.3763525988
 40
0.5013895249
 40
0.5638927205
 40
0.626330734
 40
0.7509453719
 40
0.8755135764
 40
1.0
 40
1.0
 40
1.0
 40
1.0
 10
4.4779179063
 20
7.390391804
 30
0.0
 10
4.4779158157
 20
7.3888433167
 30
0.0
 10
4.4777016996
 20
7.3865125724
 30
0.0
 10
4.4770142054
 20
7.3834875831
 30
0.0
 10
4.4760604389
 20
7.3805374164
 30
0.0
 10
4.4743972555
 20
7.3770278365
 30
0.0
 10
4.4721874926
 20
7.3738415753
 30
0.0
 10
4.4701494341
 20
7.3715218934
 30
0.0
 10
4.4679497429
 20
7.3693622634
 30
0.0
 10
4.4649209491
 20
7.3669695658
 30
0.0
 10
4.4609430582
 20
7.3646120842
 30
0.0
 10
4.4581152636
 20
7.3633839495
 30
0.0
 10
4.4566722505
 20
7.3628561865
 30
0.0
  0
SPLINE
  5
48F
100
AcDbEntity
  8
0
100
AcDbSpline
 62
7
  6
CONTINUOUS
 70
0
 71
3
 72
9
 73
5
 74
0
 42
0.0000001
 43
0.0000001
 44
0.0000000001
 40
0.0
 40
0.0
 40
0.0
 40
0.0
 40
0.4972555133
 40
1.0
 40
1.0
 40
1.0
 40
1.0
 10
4.4488167893
 20
7.3618730244
 30
0.0
 10
4.4493929637
 20
7.362011724
 30
0.0
 10
4.4505250267
 20
7.3624129754
 30
0.0
 10
4.4515552221
 20
7.363029156
 30
0.0
 10
4.4520369741
 20
7.3633854229
 30
0.0
  0
SPLINE
  5
490
100
AcDbEntity
  8
0
100
AcDbSpline
 62
9
  6
CONTINUOUS
 70
0
 71
3
 72
17
 73
13
 74
0
 42
0.0000001
 43
0.0000001
 44
0.0000000001
 40
0.0
 40
0.0
 40
0.0
 40
0.0
 40
0.1249156927
 40
0.1875381688
 40
0.2501028979
 40
0.3750595146
 40
0.5000038908
 40
0.5625380636
 40
0.625045843
 40
0.7499606296
 40
0.8749853789
 40
1.0
 40
1.0
 40
1.0
 40
1.0
 10
4.4515850664
 20
7.390391804
 30
0.0
 10
4.4515823929
 20
7.3888015443
 30
0.0
 10
4.4513539851
 20
7.3864071491
 30
0.0
 10
4.4506214081
 20
7.383305352
 30
0.0
 10
4.4496047445
 20
7.3802830767
 30
0.0
 10
4.4478344585
 20
7.3766967885
 30
0.0
 10
4.4454903606
 20
7.3734609033
 30
0.0
 10
4.4433343123
 20
7.3711165211
 30
0.0
 10
4.441008448
 20
7.3689409785
 30
0.0
 10
4.4378131625
 20
7.3665478224
 30
0.0
 10
4.4336311711
 20
7.3642205225
 30
0.0
 10
4.4306683388
 20
7.3630312865
 30
0.0
 10
4.4291586839
 20
7.3625274188
 30
0.0
  0
SPLINE
  5
491
100
AcDbEntity
  8
0
100
AcDbSpline
 62
7
  6
CONTINUOUS
 70
0
 71
3
 72
9
 73
5
 74
0
 42
0.0000001
 43
0.0000001
 44
0.0000000001
 40
0.0
 40
0.0
 40
0.0
 40
0.0
 40
0.4986854374
 40
1.0
 40
1.0
 40
1.0
 40
1.0
 10
4.4208989209
 20
7.3618730244
 30
0.0
 10
4.4216529165
 20
7.3620478535
 30
0.0
 10
4.4231256398
 20
7.3625924884
 30
0.0
 10
4.4244214146
 20
7.3634775596
 30
0.0
 10
4.4250065684
 20
7.3639903978
 30
0.0
  0
SPLINE
  5
492
100
AcDbEntity
  8
0
100
AcDbSpline
 62
9
  6
CONTINUOUS
 70
0
 71
3
 72
16
 73
12
 74
0
 42
0.0000001
 43
0.0000001
 44
0.0000000001
 40
0.0
 40
0.0
 40
0.0
 40
0.0
 40
0.125394645
 40
0.1882303152
 40
0.2509814081
 40
0.3762175281
 40
0.5012846509
 40
0.6261737903
 40
0.7508787096
 40
0.8755356623
 40
1.0
 40
1.0
 40
1.0
 40
1.0
 10
4.4184087016
 20
7.390391804
 30
0.0
 10
4.4184053443
 20
7.388761125
 30
0.0
 10
4.4181674779
 20
7.3863060334
 30
0.0
 10
4.4174041267
 20
7.3831292041
 30
0.0
 10
4.4163452315
 20
7.3800394166
 30
0.0
 10
4.4145043246
 20
7.3763824475
 30
0.0
 10
4.41158827
 20
7.3724438799
 30
0.0
 10
4.408095236
 20
7.3690198562
 30
0.0
 10
4.404141621
 20
7.3661531457
 30
0.0
 10
4.3998402995
 20
7.3638586436
 30
0.0
 10
4.3968007462
 20
7.3627093396
 30
0.0
 10
4.3952546819
 20
7.3622302774
 30
0.0
  0
SPLINE
  5
493
100
AcDbEntity
  8
0
100
AcDbSpline
 62
7
  6
CONTINUOUS
 70
0
 71
3
 72
9
 73
5
 74
0
 42
0.0000001
 43
0.0000001
 44
0.0000000001
 40
0.0
 40
0.0
 40
0.0
 40
0.0
 40
0.4999030995
 40
1.0
 40
1.0
 40
1.0
 40
1.0
 10
4.3867347986
 20
7.3618730244
 30
0.0
 10
4.3878212008
 20
7.3621206398
 30
0.0
 10
4.3899222935
 20
7.3630065149
 30
0.0
 10
4.391597802
 20
7.3645491021
 30
0.0
 10
4.392280542
 20
7.3654302446
 30
0.0
  0
SPLINE
  5
494
100
AcDbEntity
  8
0
100
AcDbSpline
 62
7
  6
CONTINUOUS
 70
0
 71
3
 72
9
 73
5
 74
0
 42
0.0000001
 43
0.0000001
 44
0.0000000001
 40
0.0
 40
0.0
 40
0.0
 40
0.0
 40
0.4995081486
 40
1.0
 40
1.0
 40
1.0
 40
1.0
 10
4.392280542
 20
7.3654302446
 30
0.0
 10
4.3927816287
 20
7.3660769458
 30
0.0
 10
4.3936279098
 20
7.3675005264
 30
0.0
 10
4.394112442
 20
7.3690826959
 30
0.0
 10
4.3942608105
 20
7.369888882
 30
0.0
  0
SPLINE
  5
495
100
AcDbEntity
  8
0
100
AcDbSpline
 62
9
  6
CONTINUOUS
 70
0
 71
3
 72
16
 73
12
 74
0
 42
0.0000001
 43
0.0000001
 44
0.0000000001
 40
0.0
 40
0.0
 40
0.0
 40
0.0
 40
0.1269835831
 40
0.190525677
 40
0.2538887345
 40
0.3799930216
 40
0.5053706852
 40
0.6299692755
 40
0.7538760501
 40
0.8772572407
 40
1.0
 40
1.0
 40
1.0
 40
1.0
 10
4.3790345522
 20
7.390391804
 30
0.0
 10
4.3790305482
 20
7.3887081427
 30
0.0
 10
4.3787847042
 20
7.3861744029
 30
0.0
 10
4.377993853
 20
7.382898631
 30
0.0
 10
4.3768987774
 20
7.3797229311
 30
0.0
 10
4.3750003825
 20
7.3759779822
 30
0.0
 10
4.3719999359
 20
7.3719669958
 30
0.0
 10
4.3684172458
 20
7.3685114269
 30
0.0
 10
4.36437664
 20
7.3656543311
 30
0.0
 10
4.3599975307
 20
7.3634094785
 30
0.0
 10
4.3569110023
 20
7.3623168641
 30
0.0
 10
4.3553452098
 20
7.3618731907
 30
0.0
  0
SPLINE
  5
496
100
AcDbEntity
  8
0
100
AcDbSpline
 62
7
  6
CONTINUOUS
 70
0
 71
3
 72
15
 73
11
 74
0
 42
0.0000001
 43
0.0000001
 44
0.0000000001
 40
0.0
 40
0.0
 40
0.0
 40
0.0
 40
0.3344142468
 40
0.4909502803
 40
0.6342827065
 40
0.7602647968
 40
0.8652447237
 40
0.945938907
 40
0.9764122603
 40
1.0
 40
1.0
 40
1.0
 40
1.0
 10
4.3546729794
 20
7.3718168077
 30
0.0
 10
4.3546729769
 20
7.3707034778
 30
0.0
 10
4.3546944821
 20
7.3690688487
 30
0.0
 10
4.3547714056
 20
7.3669585181
 30
0.0
 10
4.3548486186
 20
7.3655428062
 30
0.0
 10
4.3549445874
 20
7.3643002076
 30
0.0
 10
4.3550563308
 20
7.3632686258
 30
0.0
 10
4.3551657048
 20
7.3625566387
 30
0.0
 10
4.3552651198
 20
7.3621190599
 30
0.0
 10
4.3553171251
 20
7.3619463593
 30
0.0
 10
4.3553452066
 20
7.3618730237
 30
0.0
  0
SPLINE
  5
497
100
AcDbEntity
  8
0
100
AcDbSpline
 62
7
  6
CONTINUOUS
 70
0
 71
3
 72
11
 73
7
 74
0
 42
0.0000001
 43
0.0000001
 44
0.0000000001
 40
0.0
 40
0.0
 40
0.0
 40
0.0
 40
0.249528806
 40
0.4993358162
 40
0.7495518628
 40
1.0
 40
1.0
 40
1.0
 40
1.0
 10
4.3469893881
 20
7.3618730244
 30
0.0
 10
4.3480845731
 20
7.3621232517
 30
0.0
 10
4.3502037969
 20
7.3630248372
 30
0.0
 10
4.3527194082
 20
7.3653704186
 30
0.0
 10
4.3543120688
 20
7.3684188148
 30
0.0
 10
4.3546730082
 20
7.3706892616
 30
0.0
 10
4.3546729794
 20
7.3718168077
 30
0.0
  0
SPLINE
  5
498
100
AcDbEntity
  8
0
100
AcDbSpline
 62
9
  6
CONTINUOUS
 70
0
 71
3
 72
16
 73
12
 74
0
 42
0.0000001
 43
0.0000001
 44
0.0000000001
 40
0.0
 40
0.0
 40
0.0
 40
0.0
 40
0.1296444512
 40
0.1943767394
 40
0.2587739226
 40
0.3863491119
 40
0.5122480933
 40
0.6363779698
 40
0.7588883828
 40
0.8800753756
 40
1.0
 40
1.0
 40
1.0
 40
1.0
 10
4.3342289911
 20
7.390391804
 30
0.0
 10
4.3342245137
 20
7.3887088607
 30
0.0
 10
4.3339913312
 20
7.3861787506
 30
0.0
 10
4.3332388094
 20
7.3829014923
 30
0.0
 10
4.3321983144
 20
7.3797313672
 30
0.0
 10
4.3303968277
 20
7.3759941273
 30
0.0
 10
4.3275435128
 20
7.3719818834
 30
0.0
 10
4.3241349452
 20
7.3685234037
 30
0.0
 10
4.3202896143
 20
7.3656627155
 30
0.0
 10
4.3161220506
 20
7.363414531
 30
0.0
 10
4.3131785257
 20
7.3623177961
 30
0.0
 10
4.3116865907
 20
7.3618731906
 30
0.0
  0
SPLINE
  5
499
100
AcDbEntity
  8
0
100
AcDbSpline
 62
7
  6
CONTINUOUS
 70
0
 71
3
 72
16
 73
12
 74
0
 42
0.0000001
 43
0.0000001
 44
0.0000000001
 40
0.0
 40
0.0
 40
0.0
 40
0.0
 40
0.3269473398
 40
0.4804972732
 40
0.6217709104
 40
0.7470313931
 40
0.8531522686
 40
0.8982417641
 40
0.9377447756
 40
0.9716170752
 40
1.0
 40
1.0
 40
1.0
 40
1.0
 10
4.3099515478
 20
7.3718168077
 30
0.0
 10
4.3099515413
 20
7.3707028554
 30
0.0
 10
4.3100073042
 20
7.3690646449
 30
0.0
 10
4.3102060104
 20
7.3669550742
 30
0.0
 10
4.3104056591
 20
7.3655370667
 30
0.0
 10
4.3106549783
 20
7.3642914111
 30
0.0
 10
4.3109084718
 20
7.3633824544
 30
0.0
 10
4.3111387037
 20
7.3627743644
 30
0.0
 10
4.3113095332
 20
7.3624080912
 30
0.0
 10
4.3114861976
 20
7.3621091148
 30
0.0
 10
4.3116186049
 20
7.3619418042
 30
0.0
 10
4.3116865822
 20
7.3618730234
 30
0.0
  0
SPLINE
  5
49A
100
AcDbEntity
  8
0
100
AcDbSpline
 62
7
  6
CONTINUOUS
 70
0
 71
3
 72
11
 73
7
 74
0
 42
0.0000001
 43
0.0000001
 44
0.0000000001
 40
0.0
 40
0.0
 40
0.0
 40
0.0
 40
0.247093452
 40
0.496184562
 40
0.7474506994
 40
1.0
 40
1.0
 40
1.0
 40
1.0
 10
4.3024362886
 20
7.3618730244
 30
0.0
 10
4.3035099694
 20
7.3621238332
 30
0.0
 10
4.305590665
 20
7.3630313999
 30
0.0
 10
4.3080479548
 20
7.3653804987
 30
0.0
 10
4.3096003238
 20
7.3684259972
 30
0.0
 10
4.3099515759
 20
7.3706898766
 30
0.0
 10
4.3099515478
 20
7.3718168077
 30
0.0
  0
SPLINE
  5
49B
100
AcDbEntity
  8
0
100
AcDbSpline
 62
9
  6
CONTINUOUS
 70
0
 71
3
 72
16
 73
12
 74
0
 42
0.0000001
 43
0.0000001
 44
0.0000000001
 40
0.0
 40
0.0
 40
0.0
 40
0.0
 40
0.1334284669
 40
0.1998602574
 40
0.2657397436
 40
0.3954429925
 40
0.5221280025
 40
0.645622948
 40
0.766146122
 40
0.8841687398
 40
1.0
 40
1.0
 40
1.0
 40
1.0
 10
4.2848641076
 20
7.390391804
 30
0.0
 10
4.2848592452
 20
7.388709804
 30
0.0
 10
4.2846433795
 20
7.3861844251
 30
0.0
 10
4.2839438661
 20
7.3829053098
 30
0.0
 10
4.2829786566
 20
7.3797427336
 30
0.0
 10
4.2813107266
 20
7.3760164706
 30
0.0
 10
4.2786613923
 20
7.3720032638
 30
0.0
 10
4.2754943516
 20
7.3685412355
 30
0.0
 10
4.2719195401
 20
7.3656755871
 30
0.0
 10
4.2680443271
 20
7.36342248
 30
0.0
 10
4.2652977779
 20
7.3623192778
 30
0.0
 10
4.2639074113
 20
7.3618731907
 30
0.0
  0
SPLINE
  5
49C
100
AcDbEntity
  8
0
100
AcDbSpline
 62
7
  6
CONTINUOUS
 70
0
 71
3
 72
15
 73
11
 74
0
 42
0.0000001
 43
0.0000001
 44
0.0000000001
 40
0.0
 40
0.0
 40
0.0
 40
0.0
 40
0.1594244477
 40
0.3157747308
 40
0.4648962743
 40
0.6032495156
 40
0.727736904
 40
0.8359923857
 40
0.9265976066
 40
1.0
 40
1.0
 40
1.0
 40
1.0
 10
4.2611433266
 20
7.3718168077
 30
0.0
 10
4.2611433214
 20
7.3712535992
 30
0.0
 10
4.2611751991
 20
7.370137789
 30
0.0
 10
4.2613163442
 20
7.3685005466
 30
0.0
 10
4.2615498319
 20
7.3669489304
 30
0.0
 10
4.2618693233
 20
7.3655274689
 30
0.0
 10
4.2622688764
 20
7.3642768298
 30
0.0
 10
4.262737352
 20
7.3632309776
 30
0.0
 10
4.263263325
 20
7.3624210499
 30
0.0
 10
4.2636885029
 20
7.3620120503
 30
0.0
 10
4.2639073977
 20
7.3618730237
 30
0.0
  0
SPLINE
  5
49D
100
AcDbEntity
  8
0
100
AcDbSpline
 62
7
  6
CONTINUOUS
 70
0
 71
3
 72
11
 73
7
 74
0
 42
0.0000001
 43
0.0000001
 44
0.0000000001
 40
0.0
 40
0.0
 40
0.0
 40
0.0
 40
0.242421223
 40
0.4901765086
 40
0.7434636245
 40
1.0
 40
1.0
 40
1.0
 40
1.0
 10
4.2539426755
 20
7.3618730244
 30
0.0
 10
4.2549762728
 20
7.3621250189
 30
0.0
 10
4.256984692
 20
7.3630445177
 30
0.0
 10
4.2593323146
 20
7.3653996204
 30
0.0
 10
4.2608098764
 20
7.3684390865
 30
0.0
 10
4.2611433535
 20
7.3706909905
 30
0.0
 10
4.2611433266
 20
7.3718168077
 30
0.0
  0
SPLINE
  5
49E
100
AcDbEntity
  8
0
100
AcDbSpline
 62
9
  6
CONTINUOUS
 70
0
 71
3
 72
16
 73
12
 74
0
 42
0.0000001
 43
0.0000001
 44
0.0000000001
 40
0.0
 40
0.0
 40
0.0
 40
0.0
 40
0.1383473279
 40
0.2069998038
 40
0.27482726
 40
0.4073670333
 40
0.5351639052
 40
0.6579031265
 40
0.775849335
 40
0.889673289
 40
1.0
 40
1.0
 40
1.0
 40
1.0
 10
4.231900733
 20
7.390391804
 30
0.0
 10
4.2318955708
 20
7.3887108991
 30
0.0
 10
4.2317012009
 20
7.3861910068
 30
0.0
 10
4.2310683452
 20
7.3829098298
 30
0.0
 10
4.2301972424
 20
7.3797563819
 30
0.0
 10
4.2286958579
 20
7.3760443277
 30
0.0
 10
4.2263032557
 20
7.3720313116
 30
0.0
 10
4.223440893
 20
7.3685658997
 30
0.0
 10
4.2202073603
 20
7.3656943023
 30
0.0
 10
4.2167003375
 20
7.363434549
 30
0.0
 10
4.2142008855
 20
7.3623215777
 30
0.0
 10
4.2129376387
 20
7.3618731909
 30
0.0
  0
SPLINE
  5
49F
100
AcDbEntity
  8
0
100
AcDbSpline
 62
7
  6
CONTINUOUS
 70
0
 71
3
 72
15
 73
11
 74
0
 42
0.0000001
 43
0.0000001
 44
0.0000000001
 40
0.0
 40
0.0
 40
0.0
 40
0.0
 40
0.1528135927
 40
0.3031015512
 40
0.4473344024
 40
0.5826176716
 40
0.706571639
 40
0.8175907011
 40
0.9150753213
 40
1.0
 40
1.0
 40
1.0
 40
1.0
 10
4.2091983123
 20
7.3718168077
 30
0.0
 10
4.2091983054
 20
7.3712534069
 30
0.0
 10
4.2092415643
 20
7.3701354524
 30
0.0
 10
4.2094330995
 20
7.3684956262
 30
0.0
 10
4.2097501673
 20
7.3669409086
 30
0.0
 10
4.2101846542
 20
7.3655154582
 30
0.0
 10
4.2107292957
 20
7.3642600451
 30
0.0
 10
4.2113699956
 20
7.3632089438
 30
0.0
 10
4.2120932233
 20
7.3623956158
 30
0.0
 10
4.212654197
 20
7.3620060882
 30
0.0
 10
4.2129376204
 20
7.3618730255
 30
0.0
  0
SPLINE
  5
4A0
100
AcDbEntity
  8
0
100
AcDbSpline
 62
7
  6
CONTINUOUS
 70
0
 71
3
 72
14
 73
10
 74
0
 42
0.0000001
 43
0.0000001
 44
0.0000000001
 40
0.0
 40
0.0
 40
0.0
 40
0.0
 40
0.1166506009
 40
0.2358144691
 40
0.3575023294
 40
0.4818897641
 40
0.6089216065
 40
0.7382834202
 40
1.0
 40
1.0
 40
1.0
 40
1.0
 10
4.2024524225
 20
7.3618730263
 30
0.0
 10
4.2029373806
 20
7.3619992313
 30
0.0
 10
4.2038938251
 20
7.3623556034
 30
0.0
 10
4.2052133786
 20
7.3631576557
 30
0.0
 10
4.2063895
 20
7.3642088209
 30
0.0
 10
4.2073898991
 20
7.3654704432
 30
0.0
 10
4.2081877156
 20
7.3669067518
 30
0.0
 10
4.2089639045
 20
7.3689989751
 30
0.0
 10
4.2091983374
 20
7.3706925185
 30
0.0
 10
4.2091983123
 20
7.3718168077
 30
0.0
  0
SPLINE
  5
4A1
100
AcDbEntity
  8
0
100
AcDbSpline
 62
7
  6
CONTINUOUS
 70
0
 71
3
 72
16
 73
12
 74
0
 42
0.0000001
 43
0.0000001
 44
0.0000000001
 40
0.0
 40
0.0
 40
0.0
 40
0.0
 40
0.1463061027
 40
0.2906726855
 40
0.4302253808
 40
0.4975067528
 40
0.5627878112
 40
0.6865335387
 40
0.8005429992
 40
0.9047117659
 40
1.0
 40
1.0
 40
1.0
 40
1.0
 10
4.1551275557
 20
7.3718168077
 30
0.0
 10
4.1551275469
 20
7.3712531771
 30
0.0
 10
4.1551814432
 20
7.370132644
 30
0.0
 10
4.1554200651
 20
7.3684899779
 30
0.0
 10
4.1557533915
 20
7.3671755933
 30
0.0
 10
4.1560987685
 20
7.3661852018
 30
0.0
 10
4.1564809682
 20
7.3652742162
 30
0.0
 10
4.1570382107
 20
7.3642436757
 30
0.0
 10
4.1578398301
 20
7.3631902231
 30
0.0
 10
4.1587445942
 20
7.3623785392
 30
0.0
 10
4.1594259669
 20
7.3620028819
 30
0.0
 10
4.1597693198
 20
7.3618730237
 30
0.0
  0
SPLINE
  5
4A2
100
AcDbEntity
  8
0
100
AcDbSpline
 62
7
  6
CONTINUOUS
 70
0
 71
3
 72
14
 73
10
 74
0
 42
0.0000001
 43
0.0000001
 44
0.0000000001
 40
0.0
 40
0.0
 40
0.0
 40
0.0
 40
0.1111863067
 40
0.2263937953
 40
0.3459538697
 40
0.4700627977
 40
0.7299006815
 40
0.864530093
 40
1.0
 40
1.0
 40
1.0
 40
1.0
 10
4.1489677268
 20
7.3618730244
 30
0.0
 10
4.1494130175
 20
7.3619999316
 30
0.0
 10
4.1502930637
 20
7.3623603501
 30
0.0
 10
4.1514981038
 20
7.3631652058
 30
0.0
 10
4.152570555
 20
7.364217975
 30
0.0
 10
4.1538027586
 20
7.3659242471
 30
0.0
 10
4.1546355659
 20
7.3679562013
 30
0.0
 10
4.155055312
 20
7.3701261695
 30
0.0
 10
4.1551275672
 20
7.3712526598
 30
0.0
 10
4.1551275557
 20
7.3718168077
 30
0.0
  0
LINE
  5
4A3
100
AcDbEntity
  8
0
100
AcDbLine
 62
7
  6
CONTINUOUS
 10
4.0999834823
 20
7.4469668003
 11
4.0999834823
 21
7.4583680443
  0
SPLINE
  5
4A4
100
AcDbEntity
  8
0
100
AcDbSpline
 62
9
  6
CONTINUOUS
 70
0
 71
3
 72
15
 73
11
 74
0
 42
0.0000001
 43
0.0000001
 44
0.0000000001
 40
0.0
 40
0.0
 40
0.0
 40
0.0
 40
0.1109483118
 40
0.225004871
 40
0.3426493034
 40
0.4647720398
 40
0.5922603692
 40
0.7246440698
 40
0.8611966405
 40
1.0
 40
1.0
 40
1.0
 40
1.0
 10
4.0999835276
 20
7.4469670113
 30
0.0
 10
4.1007776953
 20
7.4466262174
 30
0.0
 10
4.1023436935
 20
7.4458255336
 30
0.0
 10
4.1045400195
 20
7.4442949285
 30
0.0
 10
4.1065658072
 20
7.4424124076
 30
0.0
 10
4.1083652624
 20
7.4401756156
 30
0.0
 10
4.1098778787
 20
7.4376010344
 30
0.0
 10
4.1110368085
 20
7.4347258528
 30
0.0
 10
4.11175891
 20
7.4316209776
 30
0.0
 10
4.1119281147
 20
7.4294729735
 30
0.0
 10
4.1119284307
 20
7.4283918037
 30
0.0
  0
SPLINE
  5
4A5
100
AcDbEntity
  8
0
100
AcDbSpline
 62
9
  6
CONTINUOUS
 70
0
 71
3
 72
15
 73
11
 74
0
 42
0.0000001
 43
0.0000001
 44
0.0000000001
 40
0.0
 40
0.0
 40
0.0
 40
0.0
 40
0.1387980598
 40
0.2753473581
 40
0.4077284933
 40
0.5352156209
 40
0.6573387798
 40
0.7749846973
 40
0.889044497
 40
1.0
 40
1.0
 40
1.0
 40
1.0
 10
4.111928496
 20
7.3903918043
 30
0.0
 10
4.1119281931
 20
7.3893106715
 30
0.0
 10
4.1117589994
 20
7.3871627237
 30
0.0
 10
4.1110369092
 20
7.3840579219
 30
0.0
 10
4.1098779875
 20
7.3811827834
 30
0.0
 10
4.1083654019
 20
7.3786082051
 30
0.0
 10
4.1065660289
 20
7.3763713295
 30
0.0
 10
4.1045402888
 20
7.3744886797
 30
0.0
 10
4.1023439019
 20
7.372957972
 30
0.0
 10
4.1007777866
 20
7.3721573078
 30
0.0
 10
4.0999835366
 20
7.3718165545
 30
0.0
  0
SPLINE
  5
4A6
100
AcDbEntity
  8
0
100
AcDbSpline
 62
9
  6
CONTINUOUS
 70
0
 71
3
 72
16
 73
12
 74
0
 42
0.0000001
 43
0.0000001
 44
0.0000000001
 40
0.0
 40
0.0
 40
0.0
 40
0.0
 40
0.1513545197
 40
0.225936146
 40
0.2990241005
 40
0.4394478605
 40
0.5707148121
 40
0.691922256
 40
0.803178804
 40
0.9054306693
 40
1.0
 40
1.0
 40
1.0
 40
1.0
 10
4.1193519738
 20
7.390391804
 30
0.0
 10
4.1193465483
 20
7.3887131991
 30
0.0
 10
4.119205388
 20
7.3862048493
 30
0.0
 10
4.1187412302
 20
7.3829196525
 30
0.0
 10
4.1181053989
 20
7.3797867738
 30
0.0
 10
4.1170171287
 20
7.3761107546
 30
0.0
 10
4.115272491
 20
7.3721052695
 30
0.0
 10
4.1131840714
 20
7.3686390967
 30
0.0
 10
4.1108210675
 20
7.3657574141
 30
0.0
 10
4.1082535855
 20
7.3634807141
 30
0.0
 10
4.1063809142
 20
7.3623310543
 30
0.0
 10
4.1054373155
 20
7.3618731582
 30
0.0
  0
SPLINE
  5
4A7
100
AcDbEntity
  8
0
100
AcDbSpline
 62
9
  6
CONTINUOUS
 70
0
 71
3
 72
19
 73
15
 74
0
 42
0.0000001
 43
0.0000001
 44
0.0000000001
 40
0.0
 40
0.0
 40
0.0
 40
0.0
 40
0.0866556297
 40
0.1724826125
 40
0.3370166634
 40
0.4874631199
 40
0.6207616283
 40
0.68075378
 40
0.736417461
 40
0.8355845189
 40
0.8800585711
 40
0.9217858336
 40
0.9614922797
 40
1.0
 40
1.0
 40
1.0
 40
1.0
 10
4.1380097419
 20
7.428391804
 30
0.0
 10
4.1380087123
 20
7.4294378763
 30
0.0
 10
4.1380668971
 20
7.4315206208
 30
0.0
 10
4.1384073063
 20
7.435576174
 30
0.0
 10
4.1392154337
 20
7.4403588
 30
0.0
 10
4.1407528288
 20
7.4455611592
 30
0.0
 10
4.1424592555
 20
7.449361828
 30
0.0
 10
4.1440213358
 20
7.4519338223
 30
0.0
 10
4.1455590172
 20
7.4540240389
 30
0.0
 10
4.1472605762
 20
7.4557581383
 30
0.0
 10
4.1491046062
 20
7.4570356638
 30
0.0
 10
4.1504645575
 20
7.457726297
 30
0.0
 10
4.1518443861
 20
7.4581830279
 30
0.0
 10
4.1527816568
 20
7.4583328178
 30
0.0
 10
4.1532451927
 20
7.458367747
 30
0.0
  0
SPLINE
  5
4A8
100
AcDbEntity
  8
0
100
AcDbSpline
 62
9
  6
CONTINUOUS
 70
0
 71
3
 72
15
 73
11
 74
0
 42
0.0000001
 43
0.0000001
 44
0.0000000001
 40
0.0
 40
0.0
 40
0.0
 40
0.0
 40
0.1030443932
 40
0.2111857314
 40
0.3252734852
 40
0.4464130179
 40
0.5755113698
 40
0.7118835261
 40
0.8543058587
 40
1.0
 40
1.0
 40
1.0
 40
1.0
 10
4.1551275096
 20
7.3718165557
 30
0.0
 10
4.1544452761
 20
7.37216046
 30
0.0
 10
4.1530984663
 20
7.3729720423
 30
0.0
 10
4.1512288373
 20
7.3745080021
 30
0.0
 10
4.1495066493
 20
7.3763947895
 30
0.0
 10
4.1479792008
 20
7.378633227
 30
0.0
 10
4.1466967137
 20
7.381206361
 30
0.0
 10
4.1457152433
 20
7.3840767237
 30
0.0
 10
4.1451044377
 20
7.3871730355
 30
0.0
 10
4.1449614714
 20
7.3893115717
 30
0.0
 10
4.1449612148
 20
7.3903918043
 30
0.0
  0
SPLINE
  5
4A9
100
AcDbEntity
  8
0
100
AcDbSpline
 62
9
  6
CONTINUOUS
 70
0
 71
3
 72
15
 73
11
 74
0
 42
0.0000001
 43
0.0000001
 44
0.0000000001
 40
0.0
 40
0.0
 40
0.0
 40
0.0
 40
0.145700227
 40
0.2881271299
 40
0.4245019098
 40
0.5536006466
 40
0.6747387153
 40
0.7888241282
 40
0.8969620045
 40
1.0
 40
1.0
 40
1.0
 40
1.0
 10
4.14496127
 20
7.4283918037
 30
0.0
 10
4.1449615398
 20
7.4294720771
 30
0.0
 10
4.1451045207
 20
7.4316106819
 30
0.0
 10
4.1457153344
 20
7.4347070796
 30
0.0
 10
4.146696813
 20
7.4375774868
 30
0.0
 10
4.1479793285
 20
7.4401506104
 30
0.0
 10
4.1495068499
 20
7.4423889579
 30
0.0
 10
4.1512290823
 20
7.4442756158
 30
0.0
 10
4.1530986602
 20
7.4458114723
 30
0.0
 10
4.1544453596
 20
7.446623069
 30
0.0
 10
4.155127517
 20
7.4469670123
 30
0.0
  0
SPLINE
  5
4AA
100
AcDbEntity
  8
0
100
AcDbSpline
 62
9
  6
CONTINUOUS
 70
0
 71
3
 72
13
 73
9
 74
0
 42
0.0000001
 43
0.0000001
 44
0.0000000001
 40
0.0
 40
0.0
 40
0.0
 40
0.0
 40
0.2640614627
 40
0.3933972081
 40
0.5198803654
 40
0.6431495042
 40
0.7639935198
 40
1.0
 40
1.0
 40
1.0
 40
1.0
 10
4.1686187459
 20
7.3903918043
 30
0.0
 10
4.1686180671
 20
7.3882464092
 30
0.0
 10
4.168052431
 20
7.3850157731
 30
0.0
 10
4.1662913979
 20
7.3811626429
 30
0.0
 10
4.1645782445
 20
7.3785870885
 30
0.0
 10
4.1625425608
 20
7.3763531017
 30
0.0
 10
4.159520625
 20
7.3738713304
 30
0.0
 10
4.1569201123
 20
7.372497445
 30
0.0
 10
4.155127617
 20
7.3718165545
 30
0.0
  0
SPLINE
  5
4AB
100
AcDbEntity
  8
0
100
AcDbSpline
 62
9
  6
CONTINUOUS
 70
0
 71
3
 72
13
 73
9
 74
0
 42
0.0000001
 43
0.0000001
 44
0.0000000001
 40
0.0
 40
0.0
 40
0.0
 40
0.0
 40
0.2359955036
 40
0.3568385215
 40
0.4801077192
 40
0.6065921818
 40
0.7359303637
 40
1.0
 40
1.0
 40
1.0
 40
1.0
 10
4.1551276068
 20
7.4469670113
 30
0.0
 10
4.1569199621
 20
7.4462860224
 30
0.0
 10
4.1595203457
 20
7.4449121987
 30
0.0
 10
4.1625423095
 20
7.4424306346
 30
0.0
 10
4.164578083
 20
7.440196736
 30
0.0
 10
4.1662912739
 20
7.4376211772
 30
0.0
 10
4.1680523313
 20
7.4337679651
 30
0.0
 10
4.1686179638
 20
7.4305372577
 30
0.0
 10
4.1686186721
 20
7.4283918037
 30
0.0
  0
SPLINE
  5
4AC
100
AcDbEntity
  8
0
100
AcDbSpline
 62
9
  6
CONTINUOUS
 70
0
 71
3
 72
16
 73
12
 74
0
 42
0.0000001
 43
0.0000001
 44
0.0000000001
 40
0.0
 40
0.0
 40
0.0
 40
0.0
 40
0.1443679813
 40
0.2157551409
 40
0.285998459
 40
0.4221191071
 40
0.5514242691
 40
0.6733631895
 40
0.788181565
 40
0.8967323833
 40
1.0
 40
1.0
 40
1.0
 40
1.0
 10
4.1763697392
 20
7.390391804
 30
0.0
 10
4.1763643983
 20
7.3887120631
 30
0.0
 10
4.1761951251
 20
7.3861979994
 30
0.0
 10
4.1756412334
 20
7.3829147445
 30
0.0
 10
4.1748807848
 20
7.3797714429
 30
0.0
 10
4.173574394
 20
7.3760764396
 30
0.0
 10
4.1714857038
 20
7.3720657487
 30
0.0
 10
4.1689854029
 20
7.3685984074
 30
0.0
 10
4.1661582122
 20
7.3657208219
 30
0.0
 10
4.1630893232
 20
7.363452832
 30
0.0
 10
4.1608826202
 20
7.3623251957
 30
0.0
 10
4.1597693427
 20
7.3618731907
 30
0.0
  0
SPLINE
  5
4AD
100
AcDbEntity
  8
0
100
AcDbSpline
 62
7
  6
CONTINUOUS
 70
0
 71
3
 72
9
 73
5
 74
0
 42
0.0000001
 43
0.0000001
 44
0.0000000001
 40
0.0
 40
0.0
 40
0.0
 40
0.0
 40
0.2480260795
 40
1.0
 40
1.0
 40
1.0
 40
1.0
 10
4.1489677268
 20
7.3618730244
 30
0.0
 10
4.1494932485
 20
7.3620227974
 30
0.0
 10
4.1515983547
 20
7.3626734594
 30
0.0
 10
4.1536450524
 20
7.3635154831
 30
0.0
 10
4.1551275557
 20
7.3642550553
 30
0.0
  0
SPLINE
  5
4AE
100
AcDbEntity
  8
0
100
AcDbSpline
 62
9
  6
CONTINUOUS
 70
0
 71
3
 72
16
 73
12
 74
0
 42
0.0000001
 43
0.0000001
 44
0.0000000001
 40
0.0
 40
0.0
 40
0.0
 40
0.0
 40
0.158961922
 40
0.2370466916
 40
0.3132815072
 40
0.4585700822
 40
0.5922461413
 40
0.7129394498
 40
0.8204543862
 40
0.9156365462
 40
1.0
 40
1.0
 40
1.0
 40
1.0
 10
4.1380097418
 20
7.390391804
 30
0.0
 10
4.1380134918
 20
7.3887142845
 30
0.0
 10
4.138124503
 20
7.3862110663
 30
0.0
 10
4.1384913186
 20
7.3829244876
 30
0.0
 10
4.138991591
 20
7.3798015423
 30
0.0
 10
4.1398434948
 20
7.3761446738
 30
0.0
 10
4.1412124403
 20
7.3721472437
 30
0.0
 10
4.1428492339
 20
7.3686868221
 30
0.0
 10
4.1446999251
 20
7.3658059854
 30
0.0
 10
4.1467103169
 20
7.36352324
 30
0.0
 10
4.1482102224
 20
7.3623409979
 30
0.0
 10
4.1489676965
 20
7.3618731908
 30
0.0
  0
SPLINE
  5
4AF
100
AcDbEntity
  8
0
100
AcDbSpline
 62
9
  6
CONTINUOUS
 70
0
 71
3
 72
19
 73
15
 74
0
 42
0.0000001
 43
0.0000001
 44
0.0000000001
 40
0.0
 40
0.0
 40
0.0
 40
0.0
 40
0.0654761942
 40
0.1309631979
 40
0.1961293849
 40
0.2608405645
 40
0.3250425291
 40
0.3886879659
 40
0.4518010845
 40
0.5143621517
 40
0.6378647213
 40
0.7596117042
 40
0.8801893448
 40
1.0
 40
1.0
 40
1.0
 40
1.0
 10
4.3342289911
 20
7.428391804
 30
0.0
 10
4.3342307467
 20
7.4294391237
 30
0.0
 10
4.3341104158
 20
7.4315359858
 30
0.0
 10
4.3335775384
 20
7.4346339359
 30
0.0
 10
4.3327041255
 20
7.4376412033
 30
0.0
 10
4.3315136772
 20
7.4405148085
 30
0.0
 10
4.3300352281
 20
7.4432234659
 30
0.0
 10
4.3282952845
 20
7.4457404927
 30
0.0
 10
4.3263276229
 20
7.4480491874
 30
0.0
 10
4.3234535039
 20
7.4508181331
 30
0.0
 10
4.319436573
 20
7.453717596
 30
0.0
 10
4.3141328585
 20
7.4562571649
 30
0.0
 10
4.3085379638
 20
7.457852323
 30
0.0
 10
4.3046993771
 20
7.458298267
 30
0.0
 10
4.3027842118
 20
7.458367747
 30
0.0
  0
SPLINE
  5
4B0
100
AcDbEntity
  8
0
100
AcDbSpline
 62
9
  6
CONTINUOUS
 70
0
 71
3
 72
18
 73
14
 74
0
 42
0.0000001
 43
0.0000001
 44
0.0000000001
 40
0.0
 40
0.0
 40
0.0
 40
0.0
 40
0.0679554806
 40
0.1358067325
 40
0.2031026043
 40
0.2696152607
 40
0.3352250315
 40
0.3998408862
 40
0.5259437692
 40
0.6482992159
 40
0.7674665079
 40
0.884401703
 40
1.0
 40
1.0
 40
1.0
 40
1.0
 10
4.2848641076
 20
7.428391804
 30
0.0
 10
4.2848660137
 20
7.4294388936
 30
0.0
 10
4.2847544174
 20
7.431533281
 30
0.0
 10
4.2842590677
 20
7.4346288516
 30
0.0
 10
4.2834474063
 20
7.4376342425
 30
0.0
 10
4.282341297
 20
7.4405066892
 30
0.0
 10
4.2809671736
 20
7.443214951
 30
0.0
 10
4.2788296327
 20
7.4465427023
 30
0.0
 10
4.2756332566
 20
7.4502001353
 30
0.0
 10
4.271137125
 20
7.4536987833
 30
0.0
 10
4.2662026579
 20
7.4562480323
 30
0.0
 10
4.2609977758
 20
7.4578498268
 30
0.0
 10
4.2574219143
 20
7.4582982159
 30
0.0
 10
4.2556420769
 20
7.458367747
 30
0.0
  0
SPLINE
  5
4B1
100
AcDbEntity
  8
0
100
AcDbSpline
 62
9
  6
CONTINUOUS
 70
0
 71
3
 72
10
 73
6
 74
0
 42
0.0000001
 43
0.0000001
 44
0.0000000001
 40
0.0
 40
0.0
 40
0.0
 40
0.0
 40
0.2560058964
 40
0.5099616048
 40
1.0
 40
1.0
 40
1.0
 40
1.0
 10
4.5014194271
 20
7.390391804
 30
0.0
 10
4.5014200322
 20
7.3891657222
 30
0.0
 10
4.5012925235
 20
7.3867210348
 30
0.0
 10
4.5005579314
 20
7.3819835519
 30
0.0
 10
4.4994673886
 20
7.3785548279
 30
0.0
 10
4.4985165642
 20
7.3764091343
 30
0.0
  0
SPLINE
  5
4B2
100
AcDbEntity
  8
0
100
AcDbSpline
 62
9
  6
CONTINUOUS
 70
0
 71
3
 72
9
 73
5
 74
0
 42
0.0000001
 43
0.0000001
 44
0.0000000001
 40
0.0
 40
0.0
 40
0.0
 40
0.0
 40
0.2573421883
 40
1.0
 40
1.0
 40
1.0
 40
1.0
 10
4.4985165642
 20
7.3764091343
 30
0.0
 10
4.4982737309
 20
7.3758611406
 30
0.0
 10
4.4972703892
 20
7.3737588149
 30
0.0
 10
4.4960310019
 20
7.3717680377
 30
0.0
 10
4.4949879246
 20
7.3703881641
 30
0.0
  0
LINE
  5
4B3
100
AcDbEntity
  8
0
100
AcDbLine
 62
9
  6
CONTINUOUS
 10
4.493459657
 20
7.3685363503
 11
4.4901601931
 21
7.3654466143
  0
SPLINE
  5
4B4
100
AcDbEntity
  8
0
100
AcDbSpline
 62
9
  6
CONTINUOUS
 70
0
 71
3
 72
9
 73
5
 74
0
 42
0.0000001
 43
0.0000001
 44
0.0000000001
 40
0.0
 40
0.0
 40
0.0
 40
0.0
 40
0.5072846547
 40
1.0
 40
1.0
 40
1.0
 40
1.0
 10
4.4897004123
 20
7.3650942802
 30
0.0
 10
4.4889002774
 20
7.3644956422
 30
0.0
 10
4.4872506779
 20
7.3634089119
 30
0.0
 10
4.4854800691
 20
7.3625327148
 30
0.0
 10
4.4845848263
 20
7.3621577636
 30
0.0
  0
SPLINE
  5
4B5
100
AcDbEntity
  8
0
100
AcDbSpline
 62
9
  6
CONTINUOUS
 70
0
 71
3
 72
10
 73
6
 74
0
 42
0.0000001
 43
0.0000001
 44
0.0000000001
 40
0.0
 40
0.0
 40
0.0
 40
0.0
 40
0.2685989113
 40
0.5288813351
 40
1.0
 40
1.0
 40
1.0
 40
1.0
 10
4.4849242964
 20
7.390391804
 30
0.0
 10
4.4849258298
 20
7.3884593716
 30
0.0
 10
4.4846604464
 20
7.3846466631
 30
0.0
 10
4.4831752234
 20
7.3775971913
 30
0.0
 10
4.4810002268
 20
7.3726838572
 30
0.0
 10
4.4791015509
 20
7.3698761054
 30
0.0
  0
LINE
  5
4B6
100
AcDbEntity
  8
0
100
AcDbLine
 62
9
  6
CONTINUOUS
 10
4.4791015509
 20
7.3698761054
 11
4.4768982688
 21
7.367046838
  0
SPLINE
  5
4B7
100
AcDbEntity
  8
0
100
AcDbSpline
 62
9
  6
CONTINUOUS
 70
0
 71
3
 72
9
 73
5
 74
0
 42
0.0000001
 43
0.0000001
 44
0.0000000001
 40
0.0
 40
0.0
 40
0.0
 40
0.0
 40
0.5142880109
 40
1.0
 40
1.0
 40
1.0
 40
1.0
 10
4.4753183681
 20
7.3654466143
 30
0.0
 10
4.4745010538
 20
7.3646956877
 30
0.0
 10
4.4728003346
 20
7.3633510565
 30
0.0
 10
4.4709027959
 20
7.3622990872
 30
0.0
 10
4.4699449803
 20
7.3618731908
 30
0.0
  0
SPLINE
  5
4B8
100
AcDbEntity
  8
0
100
AcDbSpline
 62
9
  6
CONTINUOUS
 70
0
 71
3
 72
11
 73
7
 74
0
 42
0.0000001
 43
0.0000001
 44
0.0000000001
 40
0.0
 40
0.0
 40
0.0
 40
0.0
 40
0.2714815495
 40
0.5333544653
 40
0.7775893967
 40
1.0
 40
1.0
 40
1.0
 40
1.0
 10
4.4609367306
 20
7.390391804
 30
0.0
 10
4.4609387542
 20
7.3885147326
 30
0.0
 10
4.46073751
 20
7.3848237579
 30
0.0
 10
4.4598606987
 20
7.3795082826
 30
0.0
 10
4.4584679629
 20
7.374655464
 30
0.0
 10
4.4571850451
 20
7.3716819834
 30
0.0
 10
4.4564703969
 20
7.3703203419
 30
0.0
  0
SPLINE
  5
4B9
100
AcDbEntity
  8
0
100
AcDbSpline
 62
9
  6
CONTINUOUS
 70
0
 71
3
 72
9
 73
5
 74
0
 42
0.0000001
 43
0.0000001
 44
0.0000000001
 40
0.0
 40
0.0
 40
0.0
 40
0.0
 40
0.2626119438
 40
1.0
 40
1.0
 40
1.0
 40
1.0
 10
4.4561426128
 20
7.3697131741
 30
0.0
 10
4.4559472464
 20
7.3693613322
 30
0.0
 10
4.455175335
 20
7.3680374968
 30
0.0
 10
4.4542888404
 20
7.3667788144
 30
0.0
 10
4.4535669407
 20
7.3659094423
 30
0.0
  0
SPLINE
  5
4BA
100
AcDbEntity
  8
0
100
AcDbSpline
 62
9
  6
CONTINUOUS
 70
0
 71
3
 72
9
 73
5
 74
0
 42
0.0000001
 43
0.0000001
 44
0.0000000001
 40
0.0
 40
0.0
 40
0.0
 40
0.0
 40
0.5225510877
 40
1.0
 40
1.0
 40
1.0
 40
1.0
 10
4.4531710765
 20
7.3654466143
 30
0.0
 10
4.452519925
 20
7.3647077521
 30
0.0
 10
4.4511684433
 20
7.3633813601
 30
0.0
 10
4.4496057585
 20
7.3623058369
 30
0.0
 10
4.4488167535
 20
7.3618731908
 30
0.0
  0
SPLINE
  5
4BB
100
AcDbEntity
  8
0
100
AcDbSpline
 62
9
  6
CONTINUOUS
 70
0
 71
3
 72
17
 73
13
 74
0
 42
0.0000001
 43
0.0000001
 44
0.0000000001
 40
0.0
 40
0.0
 40
0.0
 40
0.0
 40
0.0712677462
 40
0.1422851809
 40
0.2812470249
 40
0.34879102
 40
0.414765996
 40
0.5417679017
 40
0.6626536696
 40
0.778329891
 40
0.8902520867
 40
1.0
 40
1.0
 40
1.0
 40
1.0
 10
4.231900733
 20
7.428391804
 30
0.0
 10
4.2319027533
 20
7.4294386293
 30
0.0
 10
4.2318019549
 20
7.4315303897
 30
0.0
 10
4.2312092499
 20
7.4356231727
 30
0.0
 10
4.2300489718
 20
7.4395620632
 30
0.0
 10
4.2283769708
 20
7.4432039176
 30
0.0
 10
4.2264520049
 20
7.4465170178
 30
0.0
 10
4.2235795059
 20
7.450161564
 30
0.0
 10
4.2195130039
 20
7.4536721675
 30
0.0
 10
4.2150445708
 20
7.4562336778
 30
0.0
 10
4.2103286503
 20
7.4578458651
 30
0.0
 10
4.2070807694
 20
7.4582981255
 30
0.0
 10
4.2054702245
 20
7.458367747
 30
0.0
  0
SPLINE
  5
4BC
100
AcDbEntity
  8
0
100
AcDbSpline
 62
7
  6
CONTINUOUS
 70
0
 71
3
 72
9
 73
5
 74
0
 42
0.0000001
 43
0.0000001
 44
0.0000000001
 40
0.0
 40
0.0
 40
0.0
 40
0.0
 40
0.7498111716
 40
1.0
 40
1.0
 40
1.0
 40
1.0
 10
4.4208989209
 20
7.3618730244
 30
0.0
 10
4.4224659813
 20
7.362236379
 30
0.0
 10
4.4245362975
 20
7.3628149993
 30
0.0
 10
4.4265611472
 20
7.3635245966
 30
0.0
 10
4.4270646542
 20
7.3637105617
 30
0.0
  0
SPLINE
  5
4BD
100
AcDbEntity
  8
0
100
AcDbSpline
 62
9
  6
CONTINUOUS
 70
0
 71
3
 72
11
 73
7
 74
0
 42
0.0000001
 43
0.0000001
 44
0.0000000001
 40
0.0
 40
0.0
 40
0.0
 40
0.0
 40
0.2752186714
 40
0.5392487234
 40
0.7826323045
 40
1.0
 40
1.0
 40
1.0
 40
1.0
 10
4.4299236204
 20
7.390391804
 30
0.0
 10
4.429926137
 20
7.388515988
 30
0.0
 10
4.4297769197
 20
7.3848387739
 30
0.0
 10
4.429129629
 20
7.3795378747
 30
0.0
 10
4.4281025935
 20
7.3746991885
 30
0.0
 10
4.4271451275
 20
7.3717004106
 30
0.0
 10
4.4266063193
 20
7.3703203419
 30
0.0
  0
LINE
  5
4BE
100
AcDbEntity
  8
0
100
AcDbLine
 62
9
  6
CONTINUOUS
 10
4.4266063193
 20
7.3703203419
 11
4.4245727713
 21
7.3661194678
  0
SPLINE
  5
4BF
100
AcDbEntity
  8
0
100
AcDbSpline
 62
9
  6
CONTINUOUS
 70
0
 71
3
 72
9
 73
5
 74
0
 42
0.0000001
 43
0.0000001
 44
0.0000000001
 40
0.0
 40
0.0
 40
0.0
 40
0.0
 40
0.5351008277
 40
1.0
 40
1.0
 40
1.0
 40
1.0
 10
4.4241493902
 20
7.3654466143
 30
0.0
 10
4.4236744176
 20
7.3647236926
 30
0.0
 10
4.422696935
 20
7.3634277932
 30
0.0
 10
4.4215047944
 20
7.362317762
 30
0.0
 10
4.4208988837
 20
7.3618731908
 30
0.0
  0
SPLINE
  5
4C0
100
AcDbEntity
  8
0
100
AcDbSpline
 62
9
  6
CONTINUOUS
 70
0
 71
3
 72
19
 73
15
 74
0
 42
0.0000001
 43
0.0000001
 44
0.0000000001
 40
0.0
 40
0.0
 40
0.0
 40
0.0
 40
0.1305330562
 40
0.1956218816
 40
0.2602738044
 40
0.3244544999
 40
0.3880979249
 40
0.4512081209
 40
0.5138062414
 40
0.6373997018
 40
0.7592761696
 40
0.8197401511
 40
0.8799923596
 40
1.0
 40
1.0
 40
1.0
 40
1.0
 10
3.691820931
 20
7.428391804
 30
0.0
 10
3.6918206735
 20
7.4302774837
 30
0.0
 10
3.6921111966
 20
7.4331138962
 30
0.0
 10
3.6930480984
 20
7.4367594888
 30
0.0
 10
3.6940143987
 20
7.439394223
 30
0.0
 10
3.6952210398
 20
7.4419038742
 30
0.0
 10
3.6966496865
 20
7.4442680872
 30
0.0
 10
3.6982783817
 20
7.4464706494
 30
0.0
 10
3.7006746523
 20
7.4491646661
 30
0.0
 10
3.7040628177
 20
7.4520864128
 30
0.0
 10
3.7078589289
 20
7.4543887985
 30
0.0
 10
3.7110532387
 20
7.4558380409
 30
0.0
 10
3.7143239694
 20
7.4570267185
 30
0.0
 10
3.7168684541
 20
7.4576366664
 30
0.0
 10
3.7185792125
 20
7.4579173397
 30
0.0
  0
SPLINE
  5
4C1
100
AcDbEntity
  8
0
100
AcDbSpline
 62
9
  6
CONTINUOUS
 70
0
 71
3
 72
10
 73
6
 74
0
 42
0.0000001
 43
0.0000001
 44
0.0000000001
 40
0.0
 40
0.0
 40
0.0
 40
0.0
 40
0.2548462851
 40
0.5067058707
 40
1.0
 40
1.0
 40
1.0
 40
1.0
 10
3.6966631722
 20
7.4334789747
 30
0.0
 10
3.6968596301
 20
7.434161384
 30
0.0
 10
3.6973293801
 20
7.4354971457
 30
0.0
 10
3.6985493775
 20
7.438006639
 30
0.0
 10
3.6997546129
 20
7.4397215733
 30
0.0
 10
3.7006549335
 20
7.4407602404
 30
0.0
  0
SPLINE
  5
4C2
100
AcDbEntity
  8
0
100
AcDbSpline
 62
9
  6
CONTINUOUS
 70
0
 71
3
 72
10
 73
6
 74
0
 42
0.0000001
 43
0.0000001
 44
0.0000000001
 40
0.0
 40
0.0
 40
0.0
 40
0.0
 40
0.4933380268
 40
0.7451740603
 40
1.0
 40
1.0
 40
1.0
 40
1.0
 10
3.7006066958
 20
7.3780796452
 30
0.0
 10
3.6997150468
 20
7.3791158305
 30
0.0
 10
3.6985218394
 20
7.3808247611
 30
0.0
 10
3.6973146527
 20
7.3833231381
 30
0.0
 10
3.6968501252
 20
7.3846521868
 30
0.0
 10
3.6966558247
 20
7.3853310353
 30
0.0
  0
SPLINE
  5
4C3
100
AcDbEntity
  8
0
100
AcDbSpline
 62
9
  6
CONTINUOUS
 70
0
 71
3
 72
9
 73
5
 74
0
 42
0.0000001
 43
0.0000001
 44
0.0000000001
 40
0.0
 40
0.0
 40
0.0
 40
0.0
 40
0.2491687124
 40
1.0
 40
1.0
 40
1.0
 40
1.0
 10
3.6966558247
 20
7.3853310353
 30
0.0
 10
3.6965387988
 20
7.3857399008
 30
0.0
 10
3.6961254363
 20
7.3873963231
 30
0.0
 10
3.6959397126
 20
7.3891102791
 30
0.0
 10
3.69593901
 20
7.3903918047
 30
0.0
  0
SPLINE
  5
4C4
100
AcDbEntity
  8
0
100
AcDbSpline
 62
7
  6
CONTINUOUS
 70
0
 71
3
 72
9
 73
5
 74
0
 42
0.0000001
 43
0.0000001
 44
0.0000000001
 40
0.0
 40
0.0
 40
0.0
 40
0.0
 40
0.2500846354
 40
1.0
 40
1.0
 40
1.0
 40
1.0
 10
4.3867347986
 20
7.3618730244
 30
0.0
 10
4.3873904401
 20
7.3620224598
 30
0.0
 10
4.3900009085
 20
7.3626675746
 30
0.0
 10
4.3925642653
 20
7.3635078417
 30
0.0
 10
4.3944371697
 20
7.3642550553
 30
0.0
  0
SPLINE
  5
4C5
100
AcDbEntity
  8
0
100
AcDbSpline
 62
9
  6
CONTINUOUS
 70
0
 71
3
 72
17
 73
13
 74
0
 42
0.0000001
 43
0.0000001
 44
0.0000000001
 40
0.0
 40
0.0
 40
0.0
 40
0.0
 40
0.1704658715
 40
0.3349258259
 40
0.4877976208
 40
0.6255077399
 40
0.7459009199
 40
0.8481040136
 40
0.8924676223
 40
0.9324527045
 40
0.9682222515
 40
1.0
 40
1.0
 40
1.0
 40
1.0
 10
4.3924886007
 20
7.390391804
 30
0.0
 10
4.3924912476
 20
7.3887155677
 30
0.0
 10
4.3924151858
 20
7.3854215539
 30
0.0
 10
4.3920844279
 20
7.3806346844
 30
0.0
 10
4.3915586814
 20
7.3761890888
 30
0.0
 10
4.3908582585
 20
7.3722063854
 30
0.0
 10
4.3900150331
 20
7.368762379
 30
0.0
 10
4.3891810481
 20
7.3662682116
 30
0.0
 10
4.3884489607
 20
7.3645850215
 30
0.0
 10
4.3879058566
 20
7.3635349023
 30
0.0
 10
4.3873460988
 20
7.3626364007
 30
0.0
 10
4.3869406125
 20
7.3621082833
 30
0.0
 10
4.3867347608
 20
7.3618731908
 30
0.0
  0
LINE
  5
4C6
100
AcDbEntity
  8
0
100
AcDbLine
 62
7
  6
CONTINUOUS
 10
4.3546729794
 20
7.3642550553
 11
4.3553452066
 21
7.3618730237
  0
SPLINE
  5
4C7
100
AcDbEntity
  8
0
100
AcDbSpline
 62
9
  6
CONTINUOUS
 70
0
 71
3
 72
11
 73
7
 74
0
 42
0.0000001
 43
0.0000001
 44
0.0000000001
 40
0.0
 40
0.0
 40
0.0
 40
0.0
 40
0.2533024704
 40
0.5047266565
 40
0.7535010124
 40
1.0
 40
1.0
 40
1.0
 40
1.0
 10
3.7030722822
 20
7.428391804
 30
0.0
 10
3.7030715625
 20
7.4311505586
 30
0.0
 10
3.7039476076
 20
7.4366846689
 30
0.0
 10
3.7076560172
 20
7.4441324296
 30
0.0
 10
3.713206246
 20
7.4502035334
 30
0.0
 10
3.7177700128
 20
7.4531881184
 30
0.0
 10
3.7201682424
 20
7.4543947159
 30
0.0
  0
SPLINE
  5
4C8
100
AcDbEntity
  8
0
100
AcDbSpline
 62
9
  6
CONTINUOUS
 70
0
 71
3
 72
9
 73
5
 74
0
 42
0.0000001
 43
0.0000001
 44
0.0000000001
 40
0.0
 40
0.0
 40
0.0
 40
0.0
 40
0.2504310182
 40
1.0
 40
1.0
 40
1.0
 40
1.0
 10
3.7201682424
 20
7.4543947159
 30
0.0
 10
3.7206640934
 20
7.4546441885
 30
0.0
 10
3.7226672518
 20
7.4555937977
 30
0.0
 10
3.7247577419
 20
7.4563578069
 30
0.0
 10
3.7263523101
 20
7.4568242648
 30
0.0
  0
SPLINE
  5
4C9
100
AcDbEntity
  8
0
100
AcDbSpline
 62
9
  6
CONTINUOUS
 70
0
 71
3
 72
12
 73
8
 74
0
 42
0.0000001
 43
0.0000001
 44
0.0000000001
 40
0.0
 40
0.0
 40
0.0
 40
0.0
 40
0.2532245227
 40
0.3795224006
 40
0.5051682062
 40
0.7537677802
 40
1.0
 40
1.0
 40
1.0
 40
1.0
 10
3.7080981561
 20
7.4283918037
 30
0.0
 10
3.7080987697
 20
7.4300513927
 30
0.0
 10
3.7084810684
 20
7.4325567138
 30
0.0
 10
3.7096677901
 20
7.4356554297
 30
0.0
 10
3.7112587765
 20
7.4385353016
 30
0.0
 10
3.7138905924
 20
7.4416902112
 30
0.0
 10
3.7164984304
 20
7.4436635359
 30
0.0
 10
3.7178745954
 20
7.4445063882
 30
0.0
  0
SPLINE
  5
4CA
100
AcDbEntity
  8
0
100
AcDbSpline
 62
9
  6
CONTINUOUS
 70
0
 71
3
 72
12
 73
8
 74
0
 42
0.0000001
 43
0.0000001
 44
0.0000000001
 40
0.0
 40
0.0
 40
0.0
 40
0.0
 40
0.2462425366
 40
0.4948195766
 40
0.6204670952
 40
0.7467666906
 40
1.0
 40
1.0
 40
1.0
 40
1.0
 10
3.7179646568
 20
7.3742221131
 30
0.0
 10
3.7165774666
 20
7.3750635748
 30
0.0
 10
3.7139476386
 20
7.3770368798
 30
0.0
 10
3.7112912032
 20
7.3802001225
 30
0.0
 10
3.7096843745
 20
7.3830912592
 30
0.0
 10
3.7084850863
 20
7.386204302
 30
0.0
 10
3.7080986612
 20
7.3887232901
 30
0.0
 10
3.7080980743
 20
7.3903918043
 30
0.0
  0
SPLINE
  5
4CB
100
AcDbEntity
  8
0
100
AcDbSpline
 62
7
  6
CONTINUOUS
 70
0
 71
3
 72
9
 73
5
 74
0
 42
0.0000001
 43
0.0000001
 44
0.0000000001
 40
0.0
 40
0.0
 40
0.0
 40
0.0
 40
0.7498793447
 40
1.0
 40
1.0
 40
1.0
 40
1.0
 10
4.3469893881
 20
7.3618730244
 30
0.0
 10
4.34895078
 20
7.3623211623
 30
0.0
 10
4.3515379113
 20
7.3630620213
 30
0.0
 10
4.3540498862
 20
7.3640058585
 30
0.0
 10
4.3546729794
 20
7.3642550553
 30
0.0
  0
SPLINE
  5
4CC
100
AcDbEntity
  8
0
100
AcDbSpline
 62
9
  6
CONTINUOUS
 70
0
 71
3
 72
17
 73
13
 74
0
 42
0.0000001
 43
0.0000001
 44
0.0000000001
 40
0.0
 40
0.0
 40
0.0
 40
0.0
 40
0.1751953352
 40
0.3439094633
 40
0.5001124381
 40
0.6398290184
 40
0.760525705
 40
0.8608972744
 40
0.903355318
 40
0.9406597858
 40
0.9728525753
 40
1.0
 40
1.0
 40
1.0
 40
1.0
 10
4.3493603016
 20
7.390391804
 30
0.0
 10
4.3493632944
 20
7.3887159323
 30
0.0
 10
4.3493320084
 20
7.3854260546
 30
0.0
 10
4.3491982123
 20
7.3806437389
 30
0.0
 10
4.3489889157
 20
7.3762037696
 30
0.0
 10
4.3487064218
 20
7.3722280652
 30
0.0
 10
4.3483636468
 20
7.3687934764
 30
0.0
 10
4.3480208149
 20
7.3662950332
 30
0.0
 10
4.3477141711
 20
7.3645991691
 30
0.0
 10
4.3474878987
 20
7.3635521263
 30
0.0
 10
4.3472541091
 20
7.3626573976
 30
0.0
 10
4.347079739
 20
7.3621166377
 30
0.0
 10
4.3469893504
 20
7.3618731908
 30
0.0
  0
LINE
  5
4CD
100
AcDbEntity
  8
0
100
AcDbLine
 62
7
  6
CONTINUOUS
 10
4.3099515478
 20
7.3642550553
 11
4.3116865822
 21
7.3618730234
  0
SPLINE
  5
4CE
100
AcDbEntity
  8
0
100
AcDbSpline
 62
7
  6
CONTINUOUS
 70
0
 71
3
 72
9
 73
5
 74
0
 42
0.0000001
 43
0.0000001
 44
0.0000000001
 40
0.0
 40
0.0
 40
0.0
 40
0.0
 40
0.2498926612
 40
1.0
 40
1.0
 40
1.0
 40
1.0
 10
4.3024362886
 20
7.3618730244
 30
0.0
 10
4.3030761354
 20
7.3620224908
 30
0.0
 10
4.3056251567
 20
7.3626681175
 30
0.0
 10
4.3081259219
 20
7.3635085698
 30
0.0
 10
4.3099515478
 20
7.3642550553
 30
0.0
  0
SPLINE
  5
4CF
100
AcDbEntity
  8
0
100
AcDbSpline
 62
9
  6
CONTINUOUS
 70
0
 71
3
 72
17
 73
13
 74
0
 42
0.0000001
 43
0.0000001
 44
0.0000000001
 40
0.0
 40
0.0
 40
0.0
 40
0.0
 40
0.1255871316
 40
0.1884989397
 40
0.2513080869
 40
0.314039345
 40
0.3766742771
 40
0.501632136
 40
0.6264002586
 40
0.7509366792
 40
0.8754682724
 40
1.0
 40
1.0
 40
1.0
 40
1.0
 10
3.7220490584
 20
7.428391804
 30
0.0
 10
3.7220480735
 20
7.4303941306
 30
0.0
 10
3.7224066681
 20
7.4334140911
 30
0.0
 10
3.7235530791
 20
7.4372592599
 30
0.0
 10
3.724732065
 20
7.4400301299
 30
0.0
 10
3.7261993047
 20
7.4426535845
 30
0.0
 10
3.7285039981
 20
7.4459194129
 30
0.0
 10
3.7319727884
 20
7.4495396125
 30
0.0
 10
3.7368406344
 20
7.4530411981
 30
0.0
 10
3.7422134694
 20
7.4556814318
 30
0.0
 10
3.7479226199
 20
7.4574541657
 30
0.0
 10
3.7518615661
 20
7.4580704202
 30
0.0
 10
3.753839907
 20
7.4582388737
 30
0.0
  0
SPLINE
  5
4D0
100
AcDbEntity
  8
0
100
AcDbSpline
 62
9
  6
CONTINUOUS
 70
0
 71
3
 72
14
 73
10
 74
0
 42
0.0000001
 43
0.0000001
 44
0.0000000001
 40
0.0
 40
0.0
 40
0.0
 40
0.0
 40
0.1244076531
 40
0.2489776332
 40
0.3736190302
 40
0.4985351421
 40
0.6235106973
 40
0.7485688167
 40
1.0
 40
1.0
 40
1.0
 40
1.0
 10
3.7278852317
 20
7.4283918035
 30
0.0
 10
3.7278857321
 20
7.4293481439
 30
0.0
 10
3.7280658034
 20
7.4312659368
 30
0.0
 10
3.7288332457
 20
7.434047888
 30
0.0
 10
3.7300687967
 20
7.4366600936
 30
0.0
 10
3.731702311
 20
7.4390438708
 30
0.0
 10
3.7336600173
 20
7.4411721832
 30
0.0
 10
3.7366274477
 20
7.4436454961
 30
0.0
 10
3.7391740803
 20
7.4450849893
 30
0.0
 10
3.7409431443
 20
7.4458635061
 30
0.0
  0
SPLINE
  5
4D1
100
AcDbEntity
  8
0
100
AcDbSpline
 62
9
  6
CONTINUOUS
 70
0
 71
3
 72
14
 73
10
 74
0
 42
0.0000001
 43
0.0000001
 44
0.0000000001
 40
0.0
 40
0.0
 40
0.0
 40
0.0
 40
0.2514528908
 40
0.376521674
 40
0.5015009513
 40
0.6264155365
 40
0.7510486902
 40
0.8756038077
 40
1.0
 40
1.0
 40
1.0
 40
1.0
 10
3.7409529446
 20
7.372915809
 30
0.0
 10
3.7391826348
 20
7.373694164
 30
0.0
 10
3.7366340695
 20
7.3751335333
 30
0.0
 10
3.733664173
 20
7.3776071702
 30
0.0
 10
3.7317049179
 20
7.3797360581
 30
0.0
 10
3.7300702511
 20
7.3821206426
 30
0.0
 10
3.7288337506
 20
7.3847336884
 30
0.0
 10
3.7280655959
 20
7.3875165856
 30
0.0
 10
3.7278854587
 20
7.3894351027
 30
0.0
 10
3.7278850505
 20
7.3903918044
 30
0.0
  0
SPLINE
  5
4D2
100
AcDbEntity
  8
0
100
AcDbSpline
 62
9
  6
CONTINUOUS
 70
0
 71
3
 72
15
 73
11
 74
0
 42
0.0000001
 43
0.0000001
 44
0.0000000001
 40
0.0
 40
0.0
 40
0.0
 40
0.0
 40
0.1760903065
 40
0.3456197237
 40
0.5024902825
 40
0.6426451669
 40
0.7634697818
 40
0.8635533084
 40
0.9424310702
 40
1.0
 40
1.0
 40
1.0
 40
1.0
 10
4.3013781664
 20
7.390391804
 30
0.0
 10
4.3013814473
 20
7.3887159774
 30
0.0
 10
4.3013953852
 20
7.3854267558
 30
0.0
 10
4.3014605087
 20
7.3806449656
 30
0.0
 10
4.301570461
 20
7.3762061008
 30
0.0
 10
4.3017089208
 20
7.3722318033
 30
0.0
 10
4.3018691808
 20
7.3687992732
 30
0.0
 10
4.3020430805
 20
7.3659513753
 30
0.0
 10
4.3022220177
 20
7.3637074393
 30
0.0
 10
4.3023601445
 20
7.3624157553
 30
0.0
 10
4.3024362517
 20
7.3618731908
 30
0.0
  0
SPLINE
  5
4D3
100
AcDbEntity
  8
0
100
AcDbSpline
 62
7
  6
CONTINUOUS
 70
0
 71
3
 72
9
 73
5
 74
0
 42
0.0000001
 43
0.0000001
 44
0.0000000001
 40
0.0
 40
0.0
 40
0.0
 40
0.0
 40
0.268303464
 40
1.0
 40
1.0
 40
1.0
 40
1.0
 10
4.2611433266
 20
7.3642550553
 30
0.0
 10
4.2613619349
 20
7.3640120191
 30
0.0
 10
4.2622029427
 20
7.3631306998
 30
0.0
 10
4.2631548823
 20
7.3623509685
 30
0.0
 10
4.2639073977
 20
7.3618730237
 30
0.0
  0
SPLINE
  5
4D4
100
AcDbEntity
  8
0
100
AcDbSpline
 62
7
  6
CONTINUOUS
 70
0
 71
3
 72
9
 73
5
 74
0
 42
0.0000001
 43
0.0000001
 44
0.0000000001
 40
0.0
 40
0.0
 40
0.0
 40
0.0
 40
0.2495397354
 40
1.0
 40
1.0
 40
1.0
 40
1.0
 10
4.2539426755
 20
7.3618730244
 30
0.0
 10
4.2545559715
 20
7.362022548
 30
0.0
 10
4.2570017591
 20
7.3626691187
 30
0.0
 10
4.2593972427
 20
7.3635098998
 30
0.0
 10
4.2611433266
 20
7.3642550553
 30
0.0
  0
SPLINE
  5
4D5
100
AcDbEntity
  8
0
100
AcDbSpline
 62
9
  6
CONTINUOUS
 70
0
 71
3
 72
17
 73
13
 74
0
 42
0.0000001
 43
0.0000001
 44
0.0000000001
 40
0.0
 40
0.0
 40
0.0
 40
0.0
 40
0.1727602535
 40
0.3393005157
 40
0.4938582284
 40
0.6326413749
 40
0.7532842769
 40
0.8546555505
 40
0.8980772177
 40
0.9367009324
 40
0.9706262401
 40
1.0
 40
1.0
 40
1.0
 40
1.0
 10
4.2494761127
 20
7.390391804
 30
0.0
 10
4.2494796185
 20
7.3887156994
 30
0.0
 10
4.2495385785
 20
7.3854236004
 30
0.0
 10
4.2498017155
 20
7.3806382261
 30
0.0
 10
4.2502293777
 20
7.3761957351
 30
0.0
 10
4.2507871796
 20
7.3722166911
 30
0.0
 10
4.251449161
 20
7.3687778004
 30
0.0
 10
4.2520949427
 20
7.3662819982
 30
0.0
 10
4.2526552273
 20
7.3645923572
 30
0.0
 10
4.2530647737
 20
7.3635436962
 30
0.0
 10
4.2534829824
 20
7.3626468449
 30
0.0
 10
4.253787479
 20
7.3621122303
 30
0.0
 10
4.2539426401
 20
7.3618731908
 30
0.0
  0
SPLINE
  5
4D6
100
AcDbEntity
  8
0
100
AcDbSpline
 62
9
  6
CONTINUOUS
 70
0
 71
3
 72
16
 73
12
 74
0
 42
0.0000001
 43
0.0000001
 44
0.0000000001
 40
0.0
 40
0.0
 40
0.0
 40
0.0
 40
0.124938443
 40
0.1875902986
 40
0.2501838158
 40
0.3751763382
 40
0.5001146305
 40
0.62508808
 40
0.7500910871
 40
0.8750269985
 40
1.0
 40
1.0
 40
1.0
 40
1.0
 10
3.7483818982
 20
7.428391804
 30
0.0
 10
3.7483810402
 20
7.430062589
 30
0.0
 10
3.7486339402
 20
7.4325797712
 30
0.0
 10
3.7494449329
 20
7.4358293338
 30
0.0
 10
3.7505658152
 20
7.4389874413
 30
0.0
 10
3.752508149
 20
7.4427160423
 30
0.0
 10
3.755578269
 20
7.4467088679
 30
0.0
 10
3.7592488118
 20
7.4501539152
 30
0.0
 10
3.7633897551
 20
7.4530112051
 30
0.0
 10
3.7678824361
 20
7.4552688473
 30
0.0
 10
3.7710481605
 20
7.4563721284
 30
0.0
 10
3.7726570857
 20
7.4568242648
 30
0.0
  0
SPLINE
  5
4D7
100
AcDbEntity
  8
0
100
AcDbSpline
 62
9
  6
CONTINUOUS
 70
0
 71
3
 72
15
 73
11
 74
0
 42
0.0000001
 43
0.0000001
 44
0.0000000001
 40
0.0
 40
0.0
 40
0.0
 40
0.0
 40
0.1222655267
 40
0.245036218
 40
0.3685199954
 40
0.4930225164
 40
0.6182030438
 40
0.7443751838
 40
0.8717577931
 40
1.0
 40
1.0
 40
1.0
 40
1.0
 10
3.7549144691
 20
7.4283918037
 30
0.0
 10
3.7549148927
 20
7.4294317889
 30
0.0
 10
3.7551363376
 20
7.4315213603
 30
0.0
 10
3.7560770791
 20
7.4345313289
 30
0.0
 10
3.7575825722
 20
7.4373226469
 30
0.0
 10
3.759548206
 20
7.4398319757
 30
0.0
 10
3.7618858962
 20
7.442029109
 30
0.0
 10
3.7645207164
 20
7.4438984467
 30
0.0
 10
3.7673848972
 20
7.4454438655
 30
0.0
 10
3.7694047869
 20
7.4462613602
 30
0.0
 10
3.7704353216
 20
7.4466189805
 30
0.0
  0
SPLINE
  5
4D8
100
AcDbEntity
  8
0
100
AcDbSpline
 62
9
  6
CONTINUOUS
 70
0
 71
3
 72
15
 73
11
 74
0
 42
0.0000001
 43
0.0000001
 44
0.0000000001
 40
0.0
 40
0.0
 40
0.0
 40
0.0
 40
0.1282487074
 40
0.2556240515
 40
0.3817880454
 40
0.5069690294
 40
0.6314716257
 40
0.7549563333
 40
0.877730423
 40
1.0
 40
1.0
 40
1.0
 40
1.0
 10
3.7703707738
 20
7.3721869902
 30
0.0
 10
3.7693436762
 20
7.3725458041
 30
0.0
 10
3.7673308506
 20
7.3733652241
 30
0.0
 10
3.7644774546
 20
7.3749121665
 30
0.0
 10
3.7618533378
 20
7.3767814482
 30
0.0
 10
3.7595257964
 20
7.3789767343
 30
0.0
 10
3.7575691037
 20
7.3814822256
 30
0.0
 10
3.7560709923
 20
7.3842678802
 30
0.0
 10
3.7551350554
 20
7.3872705164
 30
0.0
 10
3.754914781
 20
7.3893545579
 30
0.0
 10
3.754914379
 20
7.3903918043
 30
0.0
  0
SPLINE
  5
4D9
100
AcDbEntity
  8
0
100
AcDbSpline
 62
7
  6
CONTINUOUS
 70
0
 71
3
 72
9
 73
5
 74
0
 42
0.0000001
 43
0.0000001
 44
0.0000000001
 40
0.0
 40
0.0
 40
0.0
 40
0.0
 40
0.5138009948
 40
1.0
 40
1.0
 40
1.0
 40
1.0
 10
4.2091983123
 20
7.3642550553
 30
0.0
 10
4.2097860955
 20
7.3637720193
 30
0.0
 10
4.2109860385
 20
7.3628974508
 30
0.0
 10
4.2122859403
 20
7.3621789786
 30
0.0
 10
4.2129376204
 20
7.3618730255
 30
0.0
  0
SPLINE
  5
4DA
100
AcDbEntity
  8
0
100
AcDbSpline
 62
7
  6
CONTINUOUS
 70
0
 71
3
 72
9
 73
5
 74
0
 42
0.0000001
 43
0.0000001
 44
0.0000000001
 40
0.0
 40
0.0
 40
0.0
 40
0.0
 40
0.2489519972
 40
1.0
 40
1.0
 40
1.0
 40
1.0
 10
4.2024524225
 20
7.3618730263
 30
0.0
 10
4.2030273546
 20
7.362022646
 30
0.0
 10
4.2053241201
 20
7.3626707943
 30
0.0
 10
4.2075673132
 20
7.3635120909
 30
0.0
 10
4.2091983123
 20
7.3642550553
 30
0.0
  0
SPLINE
  5
4DB
100
AcDbEntity
  8
0
100
AcDbSpline
 62
9
  6
CONTINUOUS
 70
0
 71
3
 72
16
 73
12
 74
0
 42
0.0000001
 43
0.0000001
 44
0.0000000001
 40
0.0
 40
0.0
 40
0.0
 40
0.0
 40
0.1665079168
 40
0.2480885908
 40
0.3274887481
 40
0.4777771789
 40
0.6141266699
 40
0.7346397656
 40
0.8386678119
 40
0.9266874407
 40
1.0
 40
1.0
 40
1.0
 40
1.0
 10
4.194664355
 20
7.390391804
 30
0.0
 10
4.1946680187
 20
7.3887151199
 30
0.0
 10
4.1947467077
 20
7.3862161223
 30
0.0
 10
4.1950077195
 20
7.3829282531
 30
0.0
 10
4.1953636278
 20
7.3798136133
 30
0.0
 10
4.1959676528
 20
7.3761741831
 30
0.0
 10
4.196938152
 20
7.3721864813
 30
0.0
 10
4.1980951423
 20
7.3687361928
 30
0.0
 10
4.1993992905
 20
7.3658637563
 30
0.0
 10
4.2008101613
 20
7.3635852247
 30
0.0
 10
4.2018962944
 20
7.3623587339
 30
0.0
 10
4.2024523897
 20
7.361873191
 30
0.0
  0
SPLINE
  5
4DC
100
AcDbEntity
  8
0
100
AcDbSpline
 62
9
  6
CONTINUOUS
 70
0
 71
3
 72
18
 73
14
 74
0
 42
0.0000001
 43
0.0000001
 44
0.0000000001
 40
0.0
 40
0.0
 40
0.0
 40
0.0
 40
0.1255000963
 40
0.1883799334
 40
0.2511740206
 40
0.3138984295
 40
0.3765446136
 40
0.4391517314
 40
0.5016975073
 40
0.62652358
 40
0.751099292
 40
0.8756378183
 40
1.0
 40
1.0
 40
1.0
 40
1.0
 10
3.781558263
 20
7.428391804
 30
0.0
 10
3.7815569375
 20
7.4304855587
 30
0.0
 10
3.7819510081
 20
7.4336451543
 30
0.0
 10
3.7832073169
 20
7.4376495054
 30
0.0
 10
3.7844952205
 20
7.4405249354
 30
0.0
 10
3.786094101
 20
7.4432336727
 30
0.0
 10
3.7879751009
 20
7.4457503509
 30
0.0
 10
3.7901021815
 20
7.4480581693
 30
0.0
 10
3.7932208557
 20
7.4508354295
 30
0.0
 10
3.797578913
 20
7.4537359257
 30
0.0
 10
3.8033112606
 20
7.456266633
 30
0.0
 10
3.8093609326
 20
7.4578546535
 30
0.0
 10
3.8135074699
 20
7.4582983007
 30
0.0
 10
3.8155810783
 20
7.458367747
 30
0.0
  0
SPLINE
  5
4DD
100
AcDbEntity
  8
0
100
AcDbSpline
 62
9
  6
CONTINUOUS
 70
0
 71
3
 72
15
 73
11
 74
0
 42
0.0000001
 43
0.0000001
 44
0.0000000001
 40
0.0
 40
0.0
 40
0.0
 40
0.0
 40
0.1211773889
 40
0.2430647922
 40
0.366031996
 40
0.4903836068
 40
0.6157684774
 40
0.7425819004
 40
0.8708516047
 40
1.0
 40
1.0
 40
1.0
 40
1.0
 10
3.7886602452
 20
7.4283918037
 30
0.0
 10
3.7886607014
 20
7.4294762106
 30
0.0
 10
3.7889059302
 20
7.4316575726
 30
0.0
 10
3.789945865
 20
7.4347869278
 30
0.0
 10
3.7916030305
 20
7.4376685236
 30
0.0
 10
3.793753218
 20
7.4402376033
 30
0.0
 10
3.7963003131
 20
7.4424624315
 30
0.0
 10
3.7991583661
 20
7.4443306789
 30
0.0
 10
3.8022519204
 20
7.4458485513
 30
0.0
 10
3.8044239185
 20
7.4466309886
 30
0.0
 10
3.8055297359
 20
7.4469669953
 30
0.0
  0
SPLINE
  5
4DE
100
AcDbEntity
  8
0
100
AcDbSpline
 62
9
  6
CONTINUOUS
 70
0
 71
3
 72
15
 73
11
 74
0
 42
0.0000001
 43
0.0000001
 44
0.0000000001
 40
0.0
 40
0.0
 40
0.0
 40
0.0
 40
0.1291572497
 40
0.2574304419
 40
0.384244669
 40
0.509629276
 40
0.6339797551
 40
0.7569444449
 40
0.8788277885
 40
1.0
 40
1.0
 40
1.0
 40
1.0
 10
3.8055297205
 20
7.3718165622
 30
0.0
 10
3.8044238023
 20
7.3721525258
 30
0.0
 10
3.8022516609
 20
7.3729349358
 30
0.0
 10
3.7991580056
 20
7.3744529126
 30
0.0
 10
3.7962999848
 20
7.3763213059
 30
0.0
 10
3.79375298
 20
7.3785462464
 30
0.0
 10
3.7916028488
 20
7.3811153393
 30
0.0
 10
3.7899457086
 20
7.3839968829
 30
0.0
 10
3.7889057842
 20
7.3871261449
 30
0.0
 10
3.7886605812
 20
7.3893074392
 30
0.0
 10
3.7886601499
 20
7.3903918043
 30
0.0
  0
SPLINE
  5
4DF
100
AcDbEntity
  8
0
100
AcDbSpline
 62
7
  6
CONTINUOUS
 70
0
 71
3
 72
15
 73
11
 74
0
 42
0.0000001
 43
0.0000001
 44
0.0000000001
 40
0.0
 40
0.0
 40
0.0
 40
0.0
 40
0.1404185347
 40
0.279471235
 40
0.4149110375
 40
0.5450985625
 40
0.6689133475
 40
0.7858238439
 40
0.8959571286
 40
1.0
 40
1.0
 40
1.0
 40
1.0
 10
4.0999834823
 20
7.3718168077
 30
0.0
 10
4.099983472
 20
7.3712529267
 30
0.0
 10
4.1000470544
 20
7.3701296641
 30
0.0
 10
4.1003284901
 20
7.368483787
 30
0.0
 10
4.1007948175
 20
7.3669226074
 30
0.0
 10
4.101435073
 20
7.3654903145
 30
0.0
 10
4.1022389733
 20
7.3642293839
 30
0.0
 10
4.1031856714
 20
7.3631757468
 30
0.0
 10
4.1042517496
 20
7.3623673326
 30
0.0
 10
4.1050396337
 20
7.3620008416
 30
0.0
 10
4.1054373446
 20
7.3618728242
 30
0.0
  0
SPLINE
  5
4E0
100
AcDbEntity
  8
0
100
AcDbSpline
 62
7
  6
CONTINUOUS
 70
0
 71
3
 72
15
 73
11
 74
0
 42
0.0000001
 43
0.0000001
 44
0.0000000001
 40
0.0
 40
0.0
 40
0.0
 40
0.0
 40
0.1040502503
 40
0.2141961179
 40
0.3311041975
 40
0.4549063582
 40
0.5850804033
 40
0.7205159858
 40
0.8595761653
 40
1.0
 40
1.0
 40
1.0
 40
1.0
 10
4.0945296201
 20
7.3618728256
 30
0.0
 10
4.0949273583
 20
7.3620008517
 30
0.0
 10
4.095715273
 20
7.3623674697
 30
0.0
 10
4.096781401
 20
7.3631759118
 30
0.0
 10
4.097728114
 20
7.3642295245
 30
0.0
 10
4.0985319097
 20
7.3654903801
 30
0.0
 10
4.0991721391
 20
7.3669225456
 30
0.0
 10
4.0996384146
 20
7.3684836955
 30
0.0
 10
4.0999198691
 20
7.3701295965
 30
0.0
 10
4.0999834925
 20
7.3712529068
 30
0.0
 10
4.0999834823
 20
7.3718168077
 30
0.0
  0
SPLINE
  5
4E1
100
AcDbEntity
  8
0
100
AcDbSpline
 62
9
  6
CONTINUOUS
 70
0
 71
3
 72
14
 73
10
 74
0
 42
0.0000001
 43
0.0000001
 44
0.0000000001
 40
0.0
 40
0.0
 40
0.0
 40
0.0
 40
0.3130436685
 40
0.4583843603
 40
0.5921056208
 40
0.712838305
 40
0.8203905148
 40
0.9156114922
 40
1.0
 40
1.0
 40
1.0
 40
1.0
 10
4.0619572228
 20
7.390391804
 30
0.0
 10
4.0619465827
 20
7.3870894603
 30
0.0
 10
4.0615447148
 20
7.3822354011
 30
0.0
 10
4.0601230851
 20
7.376144922
 30
0.0
 10
4.0587544034
 20
7.3721470488
 30
0.0
 10
4.0571178062
 20
7.3686867276
 30
0.0
 10
4.0552671183
 20
7.3658058509
 30
0.0
 10
4.0532564104
 20
7.3635234033
 30
0.0
 10
4.0517565819
 20
7.3623411524
 30
0.0
 10
4.0509992684
 20
7.3618731907
 30
0.0
  0
SPLINE
  5
4E2
100
AcDbEntity
  8
0
100
AcDbSpline
 62
9
  6
CONTINUOUS
 70
0
 71
3
 72
18
 73
14
 74
0
 42
0.0000001
 43
0.0000001
 44
0.0000000001
 40
0.0
 40
0.0
 40
0.0
 40
0.0
 40
0.1274443191
 40
0.1911699242
 40
0.2546734591
 40
0.3179458462
 40
0.380963008
 40
0.4437594274
 40
0.5063149106
 40
0.6306652558
 40
0.7542141849
 40
0.877303393
 40
1.0
 40
1.0
 40
1.0
 40
1.0
 10
3.8209324124
 20
7.428391804
 30
0.0
 10
3.8209308921
 20
7.4304847113
 30
0.0
 10
3.821313198
 20
7.433640194
 30
0.0
 10
3.8225350882
 20
7.4376463823
 30
0.0
 10
3.823786883
 20
7.4405213697
 30
0.0
 10
3.8253409789
 20
7.4432300102
 30
0.0
 10
3.8271693938
 20
7.4457468626
 30
0.0
 10
3.8292369595
 20
7.4480550117
 30
0.0
 10
3.8322641259
 20
7.4508292379
 30
0.0
 10
3.8364944867
 20
7.4537293197
 30
0.0
 10
3.8420657762
 20
7.4562631836
 30
0.0
 10
3.8479439821
 20
7.4578538477
 30
0.0
 10
3.8519741607
 20
7.4582982922
 30
0.0
 10
3.8539879035
 20
7.458367747
 30
0.0
  0
SPLINE
  5
4E3
100
AcDbEntity
  8
0
100
AcDbSpline
 62
9
  6
CONTINUOUS
 70
0
 71
3
 72
15
 73
11
 74
0
 42
0.0000001
 43
0.0000001
 44
0.0000000001
 40
0.0
 40
0.0
 40
0.0
 40
0.0
 40
0.1213131402
 40
0.2433109757
 40
0.366345964
 40
0.4907168227
 40
0.6160741641
 40
0.7428183531
 40
0.8709837675
 40
1.0
 40
1.0
 40
1.0
 40
1.0
 10
3.8284655588
 20
7.4283918037
 30
0.0
 10
3.828466007
 20
7.42947618
 30
0.0
 10
3.828710572
 20
7.4316572211
 30
0.0
 10
3.8297478013
 20
7.4347863734
 30
0.0
 10
3.8314007779
 20
7.4376679664
 30
0.0
 10
3.8335456652
 20
7.4402371508
 30
0.0
 10
3.8360865766
 20
7.4424621132
 30
0.0
 10
3.838937735
 20
7.4443304872
 30
0.0
 10
3.8420238147
 20
7.4458484496
 30
0.0
 10
3.8441907301
 20
7.4466309871
 30
0.0
 10
3.8452939212
 20
7.4469670123
 30
0.0
  0
SPLINE
  5
4E4
100
AcDbEntity
  8
0
100
AcDbSpline
 62
9
  6
CONTINUOUS
 70
0
 71
3
 72
15
 73
11
 74
0
 42
0.0000001
 43
0.0000001
 44
0.0000000001
 40
0.0
 40
0.0
 40
0.0
 40
0.0
 40
0.1290263698
 40
0.2571951619
 40
0.3839394125
 40
0.5092958342
 40
0.6336654256
 40
0.7566980377
 40
0.8786920065
 40
1.0
 40
1.0
 40
1.0
 40
1.0
 10
3.8452939091
 20
7.3718165557
 30
0.0
 10
3.8441906059
 20
7.3721525394
 30
0.0
 10
3.8420235359
 20
7.372935048
 30
0.0
 10
3.8389373509
 20
7.3744531137
 30
0.0
 10
3.836086239
 20
7.3763216297
 30
0.0
 10
3.8335454343
 20
7.3785467009
 30
0.0
 10
3.8314006068
 20
7.3811158921
 30
0.0
 10
3.8297476505
 20
7.383997432
 30
0.0
 10
3.8287104347
 20
7.3871264954
 30
0.0
 10
3.8284658938
 20
7.3893074697
 30
0.0
 10
3.8284654674
 20
7.3903918043
 30
0.0
  0
SPLINE
  5
4E5
100
AcDbEntity
  8
0
100
AcDbSpline
 62
9
  6
CONTINUOUS
 70
0
 71
3
 72
15
 73
11
 74
0
 42
0.0000001
 43
0.0000001
 44
0.0000000001
 40
0.0
 40
0.0
 40
0.0
 40
0.0
 40
0.0650145366
 40
0.1478945142
 40
0.2489908472
 40
0.3685948111
 40
0.5064664247
 40
0.6603348084
 40
0.826803916
 40
1.0
 40
1.0
 40
1.0
 40
1.0
 10
3.8452939908
 20
7.4469670113
 30
0.0
 10
3.8454057004
 20
7.4465780923
 30
0.0
 10
3.8456135958
 20
7.4456802811
 30
0.0
 10
3.8458768306
 20
7.4441527171
 30
0.0
 10
3.8461202615
 20
7.4422785282
 30
0.0
 10
3.8463369092
 20
7.4400570741
 30
0.0
 10
3.8465192692
 20
7.4375031624
 30
0.0
 10
3.8466589835
 20
7.4346545182
 30
0.0
 10
3.8467459163
 20
7.4315838528
 30
0.0
 10
3.8467662429
 20
7.4294697597
 30
0.0
 10
3.8467662817
 20
7.4283918037
 30
0.0
  0
SPLINE
  5
4E6
100
AcDbEntity
  8
0
100
AcDbSpline
 62
9
  6
CONTINUOUS
 70
0
 71
3
 72
15
 73
11
 74
0
 42
0.0000001
 43
0.0000001
 44
0.0000000001
 40
0.0
 40
0.0
 40
0.0
 40
0.0
 40
0.1731898135
 40
0.3396551573
 40
0.4935207682
 40
0.631392275
 40
0.7510002664
 40
0.8521023083
 40
0.9349863118
 40
1.0
 40
1.0
 40
1.0
 40
1.0
 10
3.8467662898
 20
7.3903918043
 30
0.0
 10
3.8467662526
 20
7.3893138847
 30
0.0
 10
3.8467459274
 20
7.3871998489
 30
0.0
 10
3.8466589959
 20
7.3841292558
 30
0.0
 10
3.8465192822
 20
7.3812806459
 30
0.0
 10
3.8463369238
 20
7.3787267208
 30
0.0
 10
3.8461202862
 20
7.3765052002
 30
0.0
 10
3.845876866
 20
7.3746309188
 30
0.0
 10
3.845613634
 20
7.3731032946
 30
0.0
 10
3.8454057233
 20
7.3722054627
 30
0.0
 10
3.8452939919
 20
7.3718165545
 30
0.0
  0
SPLINE
  5
4E7
100
AcDbEntity
  8
0
100
AcDbSpline
 62
7
  6
CONTINUOUS
 70
0
 71
3
 72
15
 73
11
 74
0
 42
0.0000001
 43
0.0000001
 44
0.0000000001
 40
0.0
 40
0.0
 40
0.0
 40
0.0
 40
0.153545977
 40
0.3009265777
 40
0.4387660755
 40
0.5666925952
 40
0.6851499064
 40
0.7954855158
 40
0.899710054
 40
1.0
 40
1.0
 40
1.0
 40
1.0
 10
3.8452939852
 20
7.4469668003
 30
0.0
 10
3.8452939696
 20
7.4477675157
 30
0.0
 10
3.845453735
 20
7.4493397321
 30
0.0
 10
3.8460744226
 20
7.4515522869
 30
0.0
 10
3.8469947608
 20
7.453511176
 30
0.0
 10
3.848135881
 20
7.4551693758
 30
0.0
 10
3.8494456518
 20
7.4565044648
 30
0.0
 10
3.8508824913
 20
7.4575001438
 30
0.0
 10
3.8524058269
 20
7.4581438306
 30
0.0
 10
3.8534659134
 20
7.458335525
 30
0.0
 10
3.8539878958
 20
7.4583680443
 30
0.0
  0
SPLINE
  5
4E8
100
AcDbEntity
  8
0
100
AcDbSpline
 62
9
  6
CONTINUOUS
 70
0
 71
3
 72
19
 73
15
 74
0
 42
0.0000001
 43
0.0000001
 44
0.0000000001
 40
0.0
 40
0.0
 40
0.0
 40
0.0
 40
0.0654791322
 40
0.1309677767
 40
0.1961348944
 40
0.2608475748
 40
0.3250526398
 40
0.3886979487
 40
0.4518091174
 40
0.5143691375
 40
0.6378701473
 40
0.7596147974
 40
0.8801900839
 40
1.0
 40
1.0
 40
1.0
 40
1.0
 10
3.8657379736
 20
7.428391804
 30
0.0
 10
3.8657371217
 20
7.4294391694
 30
0.0
 10
3.865857979
 20
7.431535976
 30
0.0
 10
3.8663897735
 20
7.4346341773
 30
0.0
 10
3.8672625594
 20
7.4376417286
 30
0.0
 10
3.8684533872
 20
7.4405152862
 30
0.0
 10
3.8699321114
 20
7.443223851
 30
0.0
 10
3.8716720302
 20
7.445740899
 30
0.0
 10
3.8736396108
 20
7.4480495886
 30
0.0
 10
3.8765136792
 20
7.4508184787
 30
0.0
 10
3.8805307111
 20
7.4537176393
 30
0.0
 10
3.8858342602
 20
7.4562572497
 30
0.0
 10
3.8914290753
 20
7.4578523618
 30
0.0
 10
3.8952676039
 20
7.4582982655
 30
0.0
 10
3.8971827529
 20
7.458367747
 30
0.0
  0
SPLINE
  5
4E9
100
AcDbEntity
  8
0
100
AcDbSpline
 62
9
  6
CONTINUOUS
 70
0
 71
3
 72
15
 73
11
 74
0
 42
0.0000001
 43
0.0000001
 44
0.0000000001
 40
0.0
 40
0.0
 40
0.0
 40
0.0
 40
0.122538711
 40
0.2455386917
 40
0.369190837
 40
0.4937365199
 40
0.6188382747
 40
0.7449473127
 40
0.8721666923
 40
1.0
 40
1.0
 40
1.0
 40
1.0
 10
3.8735556678
 20
7.4283918037
 30
0.0
 10
3.8735561062
 20
7.4294759004
 30
0.0
 10
3.8737947808
 20
7.4316540935
 30
0.0
 10
3.8748077212
 20
7.4347814712
 30
0.0
 10
3.8764231788
 20
7.4376630032
 30
0.0
 10
3.8785204738
 20
7.4402330096
 30
0.0
 10
3.8810057409
 20
7.4424590755
 30
0.0
 10
3.883794927
 20
7.4443284946
 30
0.0
 10
3.886814065
 20
7.4458472545
 30
0.0
 10
3.8889355642
 20
7.4466307474
 30
0.0
 10
3.8900153544
 20
7.4469670117
 30
0.0
  0
SPLINE
  5
4EA
100
AcDbEntity
  8
0
100
AcDbSpline
 62
9
  6
CONTINUOUS
 70
0
 71
3
 72
15
 73
11
 74
0
 42
0.0000001
 43
0.0000001
 44
0.0000000001
 40
0.0
 40
0.0
 40
0.0
 40
0.0
 40
0.127842921
 40
0.2550656643
 40
0.3811750194
 40
0.5062761177
 40
0.6308206155
 40
0.7544703641
 40
0.8774664539
 40
1.0
 40
1.0
 40
1.0
 40
1.0
 10
3.8900153423
 20
7.3718165557
 30
0.0
 10
3.8889354452
 20
7.3721527775
 30
0.0
 10
3.8868137973
 20
7.3729362414
 30
0.0
 10
3.8837945587
 20
7.3744551041
 30
0.0
 10
3.8810054161
 20
7.3763246653
 30
0.0
 10
3.8785202503
 20
7.3785508393
 30
0.0
 10
3.8764230116
 20
7.3811208534
 30
0.0
 10
3.874807574
 20
7.3840023334
 30
0.0
 10
3.8737946463
 20
7.3871296225
 30
0.0
 10
3.8735559951
 20
7.3893077491
 30
0.0
 10
3.8735555782
 20
7.3903918043
 30
0.0
  0
SPLINE
  5
4EB
100
AcDbEntity
  8
0
100
AcDbSpline
 62
9
  6
CONTINUOUS
 70
0
 71
3
 72
15
 73
11
 74
0
 42
0.0000001
 43
0.0000001
 44
0.0000000001
 40
0.0
 40
0.0
 40
0.0
 40
0.0
 40
0.0724223407
 40
0.1597029149
 40
0.2627586158
 40
0.3822903801
 40
0.5183938138
 40
0.6691258907
 40
0.831459084
 40
1.0
 40
1.0
 40
1.0
 40
1.0
 10
3.8900154312
 20
7.4469670113
 30
0.0
 10
3.8902913588
 20
7.4465948153
 30
0.0
 10
3.8908226408
 20
7.4457167673
 30
0.0
 10
3.8915095551
 20
7.4441796045
 30
0.0
 10
3.8921425349
 20
7.4422982761
 30
0.0
 10
3.8927041948
 20
7.4400714762
 30
0.0
 10
3.8931763876
 20
7.4375134073
 30
0.0
 10
3.8935378873
 20
7.4346612329
 30
0.0
 10
3.8937627682
 20
7.431587129
 30
0.0
 10
3.8938153491
 20
7.4294700408
 30
0.0
 10
3.8938154493
 20
7.4283918037
 30
0.0
  0
SPLINE
  5
4EC
100
AcDbEntity
  8
0
100
AcDbSpline
 62
9
  6
CONTINUOUS
 70
0
 71
3
 72
15
 73
11
 74
0
 42
0.0000001
 43
0.0000001
 44
0.0000000001
 40
0.0
 40
0.0
 40
0.0
 40
0.0
 40
0.1685347024
 40
0.3308641268
 40
0.4815933959
 40
0.6176965294
 40
0.737231781
 40
0.8402925017
 40
0.9275769018
 40
1.0
 40
1.0
 40
1.0
 40
1.0
 10
3.8938154701
 20
7.3903918043
 30
0.0
 10
3.893815374
 20
7.3893136037
 30
0.0
 10
3.8937627967
 20
7.3871965727
 30
0.0
 10
3.8935379193
 20
7.3841225412
 30
0.0
 10
3.8931764213
 20
7.381270402
 30
0.0
 10
3.8927042333
 20
7.3787123222
 30
0.0
 10
3.8921426002
 20
7.3764854551
 30
0.0
 10
3.8915096458
 20
7.3746040282
 30
0.0
 10
3.8908227332
 20
7.3730667912
 30
0.0
 10
3.8902914051
 20
7.372188726
 30
0.0
 10
3.8900154341
 20
7.3718165545
 30
0.0
  0
SPLINE
  5
4ED
100
AcDbEntity
  8
0
100
AcDbSpline
 62
7
  6
CONTINUOUS
 70
0
 71
3
 72
15
 73
11
 74
0
 42
0.0000001
 43
0.0000001
 44
0.0000000001
 40
0.0
 40
0.0
 40
0.0
 40
0.0
 40
0.1644680937
 40
0.3207063118
 40
0.4641974957
 40
0.5940924961
 40
0.710647361
 40
0.8153191786
 40
0.9106648288
 40
1.0
 40
1.0
 40
1.0
 40
1.0
 10
3.8900154168
 20
7.4469668003
 30
0.0
 10
3.890015404
 20
7.4477663148
 30
0.0
 10
3.8901454807
 20
7.4493273913
 30
0.0
 10
3.8906531566
 20
7.4515332163
 30
0.0
 10
3.8914071904
 20
7.4534885878
 30
0.0
 10
3.8923426311
 20
7.4551456994
 30
0.0
 10
3.8934173543
 20
7.4564829114
 30
0.0
 10
3.8945999859
 20
7.4574850361
 30
0.0
 10
3.8958605183
 20
7.4581379913
 30
0.0
 10
3.896749704
 20
7.4583353196
 30
0.0
 10
3.8971827465
 20
7.4583680443
 30
0.0
  0
SPLINE
  5
4EE
100
AcDbEntity
  8
0
100
AcDbSpline
 62
9
  6
CONTINUOUS
 70
0
 71
3
 72
18
 73
14
 74
0
 42
0.0000001
 43
0.0000001
 44
0.0000000001
 40
0.0
 40
0.0
 40
0.0
 40
0.0
 40
0.067958543
 40
0.135811447
 40
0.2031082579
 40
0.2696224156
 40
0.3352353616
 40
0.3998509737
 40
0.5259505724
 40
0.648304604
 40
0.7674693378
 40
0.8844023731
 40
1.0
 40
1.0
 40
1.0
 40
1.0
 10
3.9151028571
 20
7.428391804
 30
0.0
 10
3.9151019324
 20
7.4294389395
 30
0.0
 10
3.9152140928
 20
7.4315332691
 30
0.0
 10
3.915708255
 20
7.4346290935
 30
0.0
 10
3.9165192391
 20
7.4376347666
 30
0.0
 10
3.9176257398
 20
7.4405071687
 30
0.0
 10
3.91900016
 20
7.4432153331
 30
0.0
 10
3.9211376333
 20
7.4465430965
 30
0.0
 10
3.9243338771
 20
7.4502005625
 30
0.0
 10
3.9288301497
 20
7.4536988205
 30
0.0
 10
3.9337644452
 20
7.4562481224
 30
0.0
 10
3.9389692562
 20
7.4578498645
 30
0.0
 10
3.9425450651
 20
7.4582982141
 30
0.0
 10
3.9443248877
 20
7.458367747
 30
0.0
  0
SPLINE
  5
4EF
100
AcDbEntity
  8
0
100
AcDbSpline
 62
9
  6
CONTINUOUS
 70
0
 71
3
 72
15
 73
11
 74
0
 42
0.0000001
 43
0.0000001
 44
0.0000000001
 40
0.0
 40
0.0
 40
0.0
 40
0.0
 40
0.1248736264
 40
0.2497907572
 40
0.3746349356
 40
0.4995315111
 40
0.6241573785
 40
0.7490543665
 40
0.8744536199
 40
1.0
 40
1.0
 40
1.0
 40
1.0
 10
3.9230529362
 20
7.4283918037
 30
0.0
 10
3.923053356
 20
7.4294753946
 30
0.0
 10
3.923281118
 20
7.4316484161
 30
0.0
 10
3.9242488797
 20
7.4347724239
 30
0.0
 10
3.9257942743
 20
7.4376536459
 30
0.0
 10
3.9278025283
 20
7.440225035
 30
0.0
 10
3.9301836578
 20
7.442453113
 30
0.0
 10
3.932856902
 20
7.4443245232
 30
0.0
 10
3.9357508546
 20
7.4458448444
 30
0.0
 10
3.937787501
 20
7.4466302638
 30
0.0
 10
3.938823578
 20
7.4469670123
 30
0.0
  0
SPLINE
  5
4F0
100
AcDbEntity
  8
0
100
AcDbSpline
 62
9
  6
CONTINUOUS
 70
0
 71
3
 72
15
 73
11
 74
0
 42
0.0000001
 43
0.0000001
 44
0.0000000001
 40
0.0
 40
0.0
 40
0.0
 40
0.0
 40
0.1255560484
 40
0.2509586792
 40
0.3758560189
 40
0.5004812909
 40
0.6253767273
 40
0.750218495
 40
0.8751316567
 40
1.0
 40
1.0
 40
1.0
 40
1.0
 10
3.9388235667
 20
7.3718165557
 30
0.0
 10
3.9377873835
 20
7.3721532628
 30
0.0
 10
3.9357505895
 20
7.3729386548
 30
0.0
 10
3.9328565395
 20
7.3744590797
 30
0.0
 10
3.9301833416
 20
7.3763306309
 30
0.0
 10
3.9278023143
 20
7.378558815
 30
0.0
 10
3.925794115
 20
7.3811302109
 30
0.0
 10
3.9242487384
 20
7.3840113811
 30
0.0
 10
3.9232809893
 20
7.3871353006
 30
0.0
 10
3.9230532499
 20
7.389308255
 30
0.0
 10
3.9230528506
 20
7.3903918043
 30
0.0
  0
SPLINE
  5
4F1
100
AcDbEntity
  8
0
100
AcDbSpline
 62
9
  6
CONTINUOUS
 70
0
 71
3
 72
15
 73
11
 74
0
 42
0.0000001
 43
0.0000001
 44
0.0000000001
 40
0.0
 40
0.0
 40
0.0
 40
0.0
 40
0.0828773804
 40
0.1768494536
 40
0.2831550775
 40
0.4028699584
 40
0.5364958544
 40
0.6825567843
 40
0.8385979712
 40
1.0
 40
1.0
 40
1.0
 40
1.0
 10
3.938823661
 20
7.4469670113
 30
0.0
 10
3.9392463987
 20
7.4466090744
 30
0.0
 10
3.9400762113
 20
7.4457582381
 30
0.0
 10
3.9411820898
 20
7.4442157308
 30
0.0
 10
3.9421987373
 20
7.442328237
 30
0.0
 10
3.9430992075
 20
7.4400950048
 30
0.0
 10
3.9438551686
 20
7.4375310095
 30
0.0
 10
3.944433499
 20
7.4346731361
 30
0.0
 10
3.9447931758
 20
7.4315930417
 30
0.0
 10
3.9448772834
 20
7.4294705493
 30
0.0
 10
3.9448774432
 20
7.4283918037
 30
0.0
  0
SPLINE
  5
4F2
100
AcDbEntity
  8
0
100
AcDbSpline
 62
9
  6
CONTINUOUS
 70
0
 71
3
 72
15
 73
11
 74
0
 42
0.0000001
 43
0.0000001
 44
0.0000000001
 40
0.0
 40
0.0
 40
0.0
 40
0.0
 40
0.1613959797
 40
0.3174334639
 40
0.4634915987
 40
0.5971169471
 40
0.7168345293
 40
0.8231441969
 40
0.9171198664
 40
1.0
 40
1.0
 40
1.0
 40
1.0
 10
3.9448774763
 20
7.3903918043
 30
0.0
 10
3.9448773231
 20
7.3893130953
 30
0.0
 10
3.9447932211
 20
7.3871906599
 30
0.0
 10
3.94443355
 20
7.384110638
 30
0.0
 10
3.9438552225
 20
7.3812528015
 30
0.0
 10
3.9430992711
 20
7.3786887991
 30
0.0
 10
3.9421988441
 20
7.3764554974
 30
0.0
 10
3.941182233
 20
7.3745678962
 30
0.0
 10
3.9400763436
 20
7.3730252999
 30
0.0
 10
3.9392464581
 20
7.3721744581
 30
0.0
 10
3.9388236656
 20
7.3718165545
 30
0.0
  0
SPLINE
  5
4F3
100
AcDbEntity
  8
0
100
AcDbSpline
 62
7
  6
CONTINUOUS
 70
0
 71
3
 72
16
 73
12
 74
0
 42
0.0000001
 43
0.0000001
 44
0.0000000001
 40
0.0
 40
0.0
 40
0.0
 40
0.0
 40
0.1771348439
 40
0.3438555389
 40
0.494366726
 40
0.6271679107
 40
0.7420663208
 40
0.8402854254
 40
0.9246402739
 40
0.9630999037
 40
1.0
 40
1.0
 40
1.0
 40
1.0
 10
3.938823638
 20
7.4469668003
 30
0.0
 10
3.9388236282
 20
7.4477652668
 30
0.0
 10
3.9389223498
 20
7.4493164961
 30
0.0
 10
3.9393090961
 20
7.4515153797
 30
0.0
 10
3.9398839519
 20
7.4534655947
 30
0.0
 10
3.9405962454
 20
7.4551185533
 30
0.0
 10
3.9414141815
 20
7.4564539455
 30
0.0
 10
3.9423138868
 20
7.457459959
 30
0.0
 10
3.9431475518
 20
7.4580314601
 30
0.0
 10
3.943823693
 20
7.4582871366
 30
0.0
 10
3.9441593496
 20
7.4583517467
 30
0.0
 10
3.9443248829
 20
7.4583680443
 30
0.0
  0
SPLINE
  5
4F4
100
AcDbEntity
  8
0
100
AcDbSpline
 62
9
  6
CONTINUOUS
 70
0
 71
3
 72
16
 73
12
 74
0
 42
0.0000001
 43
0.0000001
 44
0.0000000001
 40
0.0
 40
0.0
 40
0.0
 40
0.0
 40
0.0712818633
 40
0.1423120416
 40
0.2812969217
 40
0.4146861766
 40
0.5417040935
 40
0.6626070467
 40
0.778298321
 40
0.8902358296
 40
1.0
 40
1.0
 40
1.0
 40
1.0
 10
3.9680662316
 20
7.428391804
 30
0.0
 10
3.9680652523
 20
7.4294386744
 30
0.0
 10
3.9681666147
 20
7.4315303112
 30
0.0
 10
3.9687578001
 20
7.4356238247
 30
0.0
 10
3.9701913283
 20
7.4404943814
 30
0.0
 10
3.9728990875
 20
7.4457367905
 30
0.0
 10
3.9763874233
 20
7.450161507
 30
0.0
 10
3.9804542951
 20
7.4536723256
 30
0.0
 10
3.984922503
 20
7.4562337411
 30
0.0
 10
3.9896383764
 20
7.4578459097
 30
0.0
 10
3.9928862086
 20
7.4582981233
 30
0.0
 10
3.9944967401
 20
7.458367747
 30
0.0
  0
SPLINE
  5
4F5
100
AcDbEntity
  8
0
100
AcDbSpline
 62
9
  6
CONTINUOUS
 70
0
 71
3
 72
14
 73
10
 74
0
 42
0.0000001
 43
0.0000001
 44
0.0000000001
 40
0.0
 40
0.0
 40
0.0
 40
0.0
 40
0.1284063981
 40
0.2562529595
 40
0.3829671297
 40
0.5084859493
 40
0.6324869715
 40
0.7556312865
 40
1.0
 40
1.0
 40
1.0
 40
1.0
 10
3.9759939582
 20
7.4283918037
 30
0.0
 10
3.9759943525
 20
7.429474702
 30
0.0
 10
3.9762065569
 20
7.4316406034
 30
0.0
 10
3.9771095027
 20
7.4347596479
 30
0.0
 10
3.9785538481
 20
7.4376399993
 30
0.0
 10
3.9804330571
 20
7.4402129178
 30
0.0
 10
3.9826638852
 20
7.4424440123
 30
0.0
 10
3.9859906058
 20
7.4449336036
 30
0.0
 10
3.9888215915
 20
7.4462915261
 30
0.0
 10
3.9907685968
 20
7.4469670096
 30
0.0
  0
SPLINE
  5
4F6
100
AcDbEntity
  8
0
100
AcDbSpline
 62
9
  6
CONTINUOUS
 70
0
 71
3
 72
14
 73
10
 74
0
 42
0.0000001
 43
0.0000001
 44
0.0000000001
 40
0.0
 40
0.0
 40
0.0
 40
0.0
 40
0.2443800533
 40
0.3675252378
 40
0.4915262583
 40
0.6170442327
 40
0.7437561231
 40
0.871598846
 40
1.0
 40
1.0
 40
1.0
 40
1.0
 10
3.9907685861
 20
7.3718165583
 30
0.0
 10
3.9888214375
 20
7.3724919423
 30
0.0
 10
3.9859903128
 20
7.3738499163
 30
0.0
 10
3.9826636058
 20
7.3763397224
 30
0.0
 10
3.9804328667
 20
7.3785709185
 30
0.0
 10
3.9785537039
 20
7.3811438459
 30
0.0
 10
3.9771093738
 20
7.3840241503
 30
0.0
 10
3.9762064393
 20
7.3871431102
 30
0.0
 10
3.9759942546
 20
7.3893089465
 30
0.0
 10
3.9759938787
 20
7.3903918043
 30
0.0
  0
SPLINE
  5
4F7
100
AcDbEntity
  8
0
100
AcDbSpline
 62
9
  6
CONTINUOUS
 70
0
 71
3
 72
14
 73
10
 74
0
 42
0.0000001
 43
0.0000001
 44
0.0000000001
 40
0.0
 40
0.0
 40
0.0
 40
0.0
 40
0.1943587219
 40
0.304601244
 40
0.4249507454
 40
0.5561984739
 40
0.6973171555
 40
0.8464870857
 40
1.0
 40
1.0
 40
1.0
 40
1.0
 10
3.9907686832
 20
7.4469670105
 30
0.0
 10
3.9919271426
 20
7.4462419491
 30
0.0
 10
3.9935472488
 20
7.4447757146
 30
0.0
 10
3.9953138909
 20
7.4423608719
 30
0.0
 10
3.9965402421
 20
7.4401226104
 30
0.0
 10
3.9975681278
 20
7.4375533751
 30
0.0
 10
3.9983546521
 20
7.4346889274
 30
0.0
 10
3.9988437574
 20
7.4316011139
 30
0.0
 10
3.9989581828
 20
7.4294712458
 30
0.0
 10
3.9989583994
 20
7.4283918037
 30
0.0
  0
SPLINE
  5
4F8
100
AcDbEntity
  8
0
100
AcDbSpline
 62
9
  6
CONTINUOUS
 70
0
 71
3
 72
14
 73
10
 74
0
 42
0.0000001
 43
0.0000001
 44
0.0000000001
 40
0.0
 40
0.0
 40
0.0
 40
0.0
 40
0.153507293
 40
0.3026738841
 40
0.4437899917
 40
0.5750370494
 40
0.6953885577
 40
0.8056342413
 40
1.0
 40
1.0
 40
1.0
 40
1.0
 10
3.9989584438
 20
7.3903918043
 30
0.0
 10
3.9989582359
 20
7.3893123982
 30
0.0
 10
3.9988438174
 20
7.3871825852
 30
0.0
 10
3.9983547197
 20
7.3840948422
 30
0.0
 10
3.9975681996
 20
7.3812304311
 30
0.0
 10
3.9965403289
 20
7.3786611921
 30
0.0
 10
3.9953140315
 20
7.3764228564
 30
0.0
 10
3.9935474409
 20
7.3740078648
 30
0.0
 10
3.9919272664
 20
7.3725415309
 30
0.0
 10
3.9907686894
 20
7.3718165555
 30
0.0
  0
SPLINE
  5
4F9
100
AcDbEntity
  8
0
100
AcDbSpline
 62
7
  6
CONTINUOUS
 70
0
 71
3
 72
18
 73
14
 74
0
 42
0.0000001
 43
0.0000001
 44
0.0000000001
 40
0.0
 40
0.0
 40
0.0
 40
0.0
 40
0.1907909178
 40
0.3690528812
 40
0.5277023337
 40
0.6644908143
 40
0.7785324029
 40
0.8271567952
 40
0.8704241793
 40
0.9086736132
 40
0.9424318401
 40
0.9724916493
 40
1.0
 40
1.0
 40
1.0
 40
1.0
 10
3.9907686523
 20
7.4469668003
 30
0.0
 10
3.9907686456
 20
7.4477644536
 30
0.0
 10
3.9908349035
 20
7.4493079715
 30
0.0
 10
3.9910953994
 20
7.4515006785
 30
0.0
 10
3.9914824841
 20
7.453445299
 30
0.0
 10
3.9919610757
 20
7.4550912097
 30
0.0
 10
3.992438701
 20
7.4562528774
 30
0.0
 10
3.9928588553
 20
7.4570054956
 30
0.0
 10
3.9931681797
 20
7.4574543108
 30
0.0
 10
3.9934870242
 20
7.4578175033
 30
0.0
 10
3.9938142773
 20
7.4580944572
 30
0.0
 10
3.9941488052
 20
7.4582838542
 30
0.0
 10
3.9943829255
 20
7.4583515097
 30
0.0
 10
3.9944967368
 20
7.4583680445
 30
0.0
  0
SPLINE
  5
4FA
100
AcDbEntity
  8
0
100
AcDbSpline
 62
9
  6
CONTINUOUS
 70
0
 71
3
 72
16
 73
12
 74
0
 42
0.0000001
 43
0.0000001
 44
0.0000000001
 40
0.0
 40
0.0
 40
0.0
 40
0.0
 40
0.0754841659
 40
0.1505431848
 40
0.2963856464
 40
0.434155775
 40
0.5625216137
 40
0.6816706292
 40
0.7928464096
 40
0.8981219899
 40
1.0
 40
1.0
 40
1.0
 40
1.0
 10
4.0235972254
 20
7.428391804
 30
0.0
 10
4.0235962089
 20
7.4294383943
 30
0.0
 10
4.0236847268
 20
7.4315269411
 30
0.0
 10
4.024201121
 20
7.4356073754
 30
0.0
 10
4.0254450929
 20
7.4404494405
 30
0.0
 10
4.027803103
 20
7.4456834896
 30
0.0
 10
4.0308456153
 20
7.4501108992
 30
0.0
 10
4.0343994374
 20
7.4536338099
 30
0.0
 10
4.0383122738
 20
7.4562114249
 30
0.0
 10
4.0424486475
 20
7.4578392675
 30
0.0
 10
4.0453109543
 20
7.4582979631
 30
0.0
 10
4.0467217719
 20
7.458367747
 30
0.0
  0
SPLINE
  5
4FB
100
AcDbEntity
  8
0
100
AcDbSpline
 62
9
  6
CONTINUOUS
 70
0
 71
3
 72
13
 73
9
 74
0
 42
0.0000001
 43
0.0000001
 44
0.0000000001
 40
0.0
 40
0.0
 40
0.0
 40
0.0
 40
0.2640704741
 40
0.3934086418
 40
0.5198928202
 40
0.6431618617
 40
0.764004818
 40
1.0
 40
1.0
 40
1.0
 40
1.0
 10
4.0313482923
 20
7.4283918037
 30
0.0
 10
4.0313490032
 20
7.4305372645
 30
0.0
 10
4.0319146366
 20
7.4337679782
 30
0.0
 10
4.033675696
 20
7.4376211946
 30
0.0
 10
4.0353888903
 20
7.4401967467
 30
0.0
 10
4.0374246643
 20
7.4424306391
 30
0.0
 10
4.0404466259
 20
7.4449121986
 30
0.0
 10
4.0430470051
 20
7.4462860232
 30
0.0
 10
4.0448393576
 20
7.4469670123
 30
0.0
  0
SPLINE
  5
4FC
100
AcDbEntity
  8
0
100
AcDbSpline
 62
9
  6
CONTINUOUS
 70
0
 71
3
 72
13
 73
9
 74
0
 42
0.0000001
 43
0.0000001
 44
0.0000000001
 40
0.0
 40
0.0
 40
0.0
 40
0.0
 40
0.236006787
 40
0.35685087
 40
0.4801201489
 40
0.6066035436
 40
0.7359392799
 40
1.0
 40
1.0
 40
1.0
 40
1.0
 10
4.0448393479
 20
7.3718165557
 30
0.0
 10
4.0430468501
 20
7.3724974465
 30
0.0
 10
4.0404463335
 20
7.3738713313
 30
0.0
 10
4.0374243953
 20
7.3763531067
 30
0.0
 10
4.0353887119
 20
7.3785870988
 30
0.0
 10
4.0336755616
 20
7.3811626588
 30
0.0
 10
4.0319145306
 20
7.3850157849
 30
0.0
 10
4.0313488954
 20
7.3882464152
 30
0.0
 10
4.031348219
 20
7.3903918043
 30
0.0
  0
SPLINE
  5
4FD
100
AcDbEntity
  8
0
100
AcDbSpline
 62
9
  6
CONTINUOUS
 70
0
 71
3
 72
15
 73
11
 74
0
 42
0.0000001
 43
0.0000001
 44
0.0000000001
 40
0.0
 40
0.0
 40
0.0
 40
0.0
 40
0.1030381817
 40
0.2111761324
 40
0.3252616201
 40
0.4463998882
 40
0.5754989641
 40
0.7118737684
 40
0.8543000695
 40
1.0
 40
1.0
 40
1.0
 40
1.0
 10
4.0448394475
 20
7.4469670113
 30
0.0
 10
4.0455216063
 20
7.4466230678
 30
0.0
 10
4.0468683082
 20
7.4458114714
 30
0.0
 10
4.0487378887
 20
7.444275614
 30
0.0
 10
4.0504601219
 20
7.4423889531
 30
0.0
 10
4.0519876426
 20
7.4401505994
 30
0.0
 10
4.0532701554
 20
7.4375774699
 30
0.0
 10
4.054251633
 20
7.4347070644
 30
0.0
 10
4.0548624475
 20
7.4316106734
 30
0.0
 10
4.0550054257
 20
7.429472075
 30
0.0
 10
4.0550056944
 20
7.4283918037
 30
0.0
  0
SPLINE
  5
4FE
100
AcDbEntity
  8
0
100
AcDbSpline
 62
9
  6
CONTINUOUS
 70
0
 71
3
 72
15
 73
11
 74
0
 42
0.0000001
 43
0.0000001
 44
0.0000000001
 40
0.0
 40
0.0
 40
0.0
 40
0.0
 40
0.1456943862
 40
0.2881172681
 40
0.4244894245
 40
0.553587491
 40
0.6747268471
 40
0.7888145236
 40
0.8969557812
 40
1.0
 40
1.0
 40
1.0
 40
1.0
 10
4.05500575
 20
7.3903918043
 30
0.0
 10
4.0550054925
 20
7.3893115699
 30
0.0
 10
4.0548625236
 20
7.387173028
 30
0.0
 10
4.0542517188
 20
7.3840767101
 30
0.0
 10
4.0532702472
 20
7.3812063455
 30
0.0
 10
4.0519877577
 20
7.3786332165
 30
0.0
 10
4.0504603087
 20
7.3763947842
 30
0.0
 10
4.0487381216
 20
7.3745079995
 30
0.0
 10
4.046868495
 20
7.3729720407
 30
0.0
 10
4.0455216875
 20
7.3721604584
 30
0.0
 10
4.0448394552
 20
7.3718165545
 30
0.0
  0
SPLINE
  5
4FF
100
AcDbEntity
  8
0
100
AcDbSpline
 62
7
  6
CONTINUOUS
 70
0
 71
3
 72
19
 73
15
 74
0
 42
0.0000001
 43
0.0000001
 44
0.0000000001
 40
0.0
 40
0.0
 40
0.0
 40
0.0
 40
0.203402606
 40
0.3925544498
 40
0.5593019292
 40
0.7007384334
 40
0.7614385177
 40
0.8152788381
 40
0.8622482834
 40
0.9023786691
 40
0.9357745893
 40
0.9626913534
 40
0.9836844065
 40
1.0
 40
1.0
 40
1.0
 40
1.0
 10
4.044839409
 20
7.4469668003
 30
0.0
 10
4.0448394057
 20
7.4477639394
 30
0.0
 10
4.0448725646
 20
7.4493025133
 30
0.0
 10
4.0450035505
 20
7.4514910491
 30
0.0
 10
4.0451983797
 20
7.4534308709
 30
0.0
 10
4.0454073584
 20
7.4548621179
 30
0.0
 10
4.0455987825
 20
7.4558470422
 30
0.0
 10
4.0457422208
 20
7.4564637135
 30
0.0
 10
4.0458917424
 20
7.4569956856
 30
0.0
 10
4.0460463349
 20
7.4574422794
 30
0.0
 10
4.0462047732
 20
7.4578032336
 30
0.0
 10
4.0463667967
 20
7.4580789377
 30
0.0
 10
4.04653152
 20
7.4582714361
 30
0.0
 10
4.0466603223
 20
7.4583503633
 30
0.0
 10
4.0467217702
 20
7.4583680443
 30
0.0
  0
SPLINE
  5
500
100
AcDbEntity
  8
0
100
AcDbSpline
 62
9
  6
CONTINUOUS
 70
0
 71
3
 72
17
 73
13
 74
0
 42
0.0000001
 43
0.0000001
 44
0.0000000001
 40
0.0
 40
0.0
 40
0.0
 40
0.0
 40
0.0806225226
 40
0.1606245314
 40
0.314984859
 40
0.4584011223
 40
0.5887779646
 40
0.7060405114
 40
0.8116527219
 40
0.9083431266
 40
0.9545567616
 40
1.0
 40
1.0
 40
1.0
 40
1.0
 10
4.0806149908
 20
7.428391804
 30
0.0
 10
4.0806139576
 20
7.4294381213
 30
0.0
 10
4.0806879809
 20
7.4315236227
 30
0.0
 10
4.0811201856
 20
7.4355910677
 30
0.0
 10
4.082153847
 20
7.4404028647
 30
0.0
 10
4.0841183047
 20
7.4456235829
 30
0.0
 10
4.0866539706
 20
7.4500475948
 30
0.0
 10
4.0896203559
 20
7.4535792115
 30
0.0
 10
4.0928934589
 20
7.4561756503
 30
0.0
 10
4.0958381899
 20
7.4575729101
 30
0.0
 10
4.098210404
 20
7.4581850825
 30
0.0
 10
4.0993947495
 20
7.4583329281
 30
0.0
 10
4.0999834823
 20
7.458367747
 30
0.0
  0
SPLINE
  5
501
100
AcDbEntity
  8
0
100
AcDbSpline
 62
9
  6
CONTINUOUS
 70
0
 71
3
 72
15
 73
11
 74
0
 42
0.0000001
 43
0.0000001
 44
0.0000000001
 40
0.0
 40
0.0
 40
0.0
 40
0.0
 40
0.1109556978
 40
0.2250155863
 40
0.3426615746
 40
0.4647848889
 40
0.5922722746
 40
0.724653404
 40
0.8612021767
 40
1.0
 40
1.0
 40
1.0
 40
1.0
 10
4.0999834283
 20
7.3718165557
 30
0.0
 10
4.0991891768
 20
7.3721573093
 30
0.0
 10
4.097623059
 20
7.3729579736
 30
0.0
 10
4.0954266693
 20
7.3744886822
 30
0.0
 10
4.093400928
 20
7.3763713346
 30
0.0
 10
4.0916015555
 20
7.3786082155
 30
0.0
 10
4.0900889727
 20
7.3811827991
 30
0.0
 10
4.0889300524
 20
7.3840579356
 30
0.0
 10
4.0882079614
 20
7.3871627311
 30
0.0
 10
4.0880387706
 20
7.3893106733
 30
0.0
 10
4.0880384688
 20
7.3903918043
 30
0.0
  0
SPLINE
  5
502
100
AcDbEntity
  8
0
100
AcDbSpline
 62
9
  6
CONTINUOUS
 70
0
 71
3
 72
15
 73
11
 74
0
 42
0.0000001
 43
0.0000001
 44
0.0000000001
 40
0.0
 40
0.0
 40
0.0
 40
0.0
 40
0.1388036451
 40
0.2753567912
 40
0.4077404739
 40
0.5352284956
 40
0.6573510577
 40
0.7749954237
 40
0.8890518994
 40
1.0
 40
1.0
 40
1.0
 40
1.0
 10
4.0880385337
 20
7.4283918037
 30
0.0
 10
4.0880388509
 20
7.4294729757
 30
0.0
 10
4.0882080589
 20
7.4316209861
 30
0.0
 10
4.0889301594
 20
7.4347258681
 30
0.0
 10
4.0900890905
 20
7.4376010515
 30
0.0
 10
4.0916017099
 20
7.4401756265
 30
0.0
 10
4.0934011657
 20
7.4424124122
 30
0.0
 10
4.0954269524
 20
7.4442949301
 30
0.0
 10
4.0976232754
 20
7.4458255344
 30
0.0
 10
4.0991892708
 20
7.4466262185
 30
0.0
 10
4.0999834368
 20
7.4469670123
 30
0.0
  0
SPLINE
  5
503
100
AcDbEntity
  8
0
100
AcDbSpline
 62
7
  6
CONTINUOUS
 70
0
 71
3
 72
14
 73
10
 74
0
 42
0.0000001
 43
0.0000001
 44
0.0000000001
 40
0.0
 40
0.0
 40
0.0
 40
0.0
 40
0.1354647424
 40
0.2700868453
 40
0.5299422706
 40
0.6540640938
 40
0.7736265841
 40
0.8888210597
 40
1.0
 40
1.0
 40
1.0
 40
1.0
 10
4.044839409
 20
7.3718168077
 30
0.0
 10
4.0448393974
 20
7.3712526799
 30
0.0
 10
4.0449116032
 20
7.3701262362
 30
0.0
 10
4.0453313511
 20
7.3679562389
 30
0.0
 10
4.0461642143
 20
7.3659241894
 30
0.0
 10
4.0473965454
 20
7.3642178351
 30
0.0
 10
4.0484689828
 20
7.3631650387
 30
0.0
 10
4.0496739689
 20
7.3623602121
 30
0.0
 10
4.0505539758
 20
7.3619999229
 30
0.0
 10
4.0509992381
 20
7.3618730237
 30
0.0
  0
SPLINE
  5
504
100
AcDbEntity
  8
0
100
AcDbSpline
 62
7
  6
CONTINUOUS
 70
0
 71
3
 72
16
 73
12
 74
0
 42
0.0000001
 43
0.0000001
 44
0.0000000001
 40
0.0
 40
0.0
 40
0.0
 40
0.0
 40
0.0952957675
 40
0.1994766986
 40
0.3134836519
 40
0.4372170106
 40
0.502490717
 40
0.569765666
 40
0.7093141317
 40
0.8536884251
 40
1.0
 40
1.0
 40
1.0
 40
1.0
 10
4.040197645
 20
7.3618730244
 30
0.0
 10
4.0405410242
 20
7.3620028925
 30
0.0
 10
4.0412224157
 20
7.3623786768
 30
0.0
 10
4.0421272257
 20
7.3631903872
 30
0.0
 10
4.0429288599
 20
7.3642438181
 30
0.0
 10
4.0434860276
 20
7.3652742978
 30
0.0
 10
4.0438681955
 20
7.3661851841
 30
0.0
 10
4.0442135528
 20
7.367175507
 30
0.0
 10
4.0445468486
 20
7.3684898845
 30
0.0
 10
4.0447854865
 20
7.3701325769
 30
0.0
 10
4.0448394176
 20
7.3712531574
 30
0.0
 10
4.044839409
 20
7.3718168077
 30
0.0
  0
SPLINE
  5
505
100
AcDbEntity
  8
0
100
AcDbSpline
 62
9
  6
CONTINUOUS
 70
0
 71
3
 72
14
 73
10
 74
0
 42
0.0000001
 43
0.0000001
 44
0.0000000001
 40
0.0
 40
0.0
 40
0.0
 40
0.0
 40
0.3273693457
 40
0.477685711
 40
0.6140584229
 40
0.7345912283
 40
0.8386377916
 40
0.9266779957
 40
1.0
 40
1.0
 40
1.0
 40
1.0
 10
4.0053026096
 20
7.390391804
 30
0.0
 10
4.0052922182
 20
7.3870959371
 30
0.0
 10
4.0050141159
 20
7.3822768593
 30
0.0
 10
4.0039989483
 20
7.3761741923
 30
0.0
 10
4.0030286978
 20
7.3721863274
 30
0.0
 10
4.0018719109
 20
7.3687360974
 30
0.0
 10
4.0005677943
 20
7.3658636342
 30
0.0
 10
3.9991565204
 20
7.3635853623
 30
0.0
 10
3.9980704545
 20
7.3623589096
 30
0.0
 10
3.9975145751
 20
7.361873191
 30
0.0
  0
SPLINE
  5
506
100
AcDbEntity
  8
0
100
AcDbSpline
 62
7
  6
CONTINUOUS
 70
0
 71
3
 72
14
 73
10
 74
0
 42
0.0000001
 43
0.0000001
 44
0.0000000001
 40
0.0
 40
0.0
 40
0.0
 40
0.0
 40
0.2617043435
 40
0.3910703866
 40
0.5181153202
 40
0.6425158901
 40
0.7642061668
 40
0.8833567309
 40
1.0
 40
1.0
 40
1.0
 40
1.0
 10
3.9907686523
 20
7.3718168077
 30
0.0
 10
3.9907686271
 20
7.3706925685
 30
0.0
 10
3.9910029715
 20
7.368999039
 30
0.0
 10
3.9917792394
 20
7.3669068151
 30
0.0
 10
3.9925770916
 20
7.3654703717
 30
0.0
 10
3.9935776145
 20
7.3642086832
 30
0.0
 10
3.9947537191
 20
7.363157487
 30
0.0
 10
3.9960732158
 20
7.3623554655
 30
0.0
 10
3.9970296134
 20
7.361999223
 30
0.0
 10
3.9975145421
 20
7.3618730256
 30
0.0
  0
SPLINE
  5
507
100
AcDbEntity
  8
0
100
AcDbSpline
 62
7
  6
CONTINUOUS
 70
0
 71
3
 72
15
 73
11
 74
0
 42
0.0000001
 43
0.0000001
 44
0.0000000001
 40
0.0
 40
0.0
 40
0.0
 40
0.0
 40
0.0849324885
 40
0.1824287957
 40
0.2934452779
 40
0.4173871366
 40
0.5526562761
 40
0.6968848479
 40
0.8471807566
 40
1.0
 40
1.0
 40
1.0
 40
1.0
 10
3.9870293441
 20
7.3618730261
 30
0.0
 10
3.9873127929
 20
7.3620061007
 30
0.0
 10
3.9878737719
 20
7.362395752
 30
0.0
 10
3.9885970429
 20
7.3632091057
 30
0.0
 10
3.9892377545
 20
7.3642601901
 30
0.0
 10
3.9897823194
 20
7.3655155158
 30
0.0
 10
3.9902167924
 20
7.3669408486
 30
0.0
 10
3.9905338232
 20
7.3684955318
 30
0.0
 10
3.9907253724
 20
7.3701353855
 30
0.0
 10
3.9907686592
 20
7.3712533873
 30
0.0
 10
3.9907686523
 20
7.3718168077
 30
0.0
  0
SPLINE
  5
508
100
AcDbEntity
  8
0
100
AcDbSpline
 62
9
  6
CONTINUOUS
 70
0
 71
3
 72
18
 73
14
 74
0
 42
0.0000001
 43
0.0000001
 44
0.0000000001
 40
0.0
 40
0.0
 40
0.0
 40
0.0
 40
0.172763926
 40
0.2572602764
 40
0.339316222
 40
0.4938709111
 40
0.6326499562
 40
0.7532893063
 40
0.8546581514
 40
0.8980799743
 40
0.9367045488
 40
0.970629866
 40
1.0
 40
1.0
 40
1.0
 40
1.0
 10
3.9504908519
 20
7.390391804
 30
0.0
 10
3.9504857988
 20
7.3887156567
 30
0.0
 10
3.9504410158
 20
7.3862195148
 30
0.0
 10
3.9502921209
 20
7.3829306548
 30
0.0
 10
3.950086728
 20
7.3798218667
 30
0.0
 10
3.9497374927
 20
7.3761955104
 30
0.0
 10
3.949179628
 20
7.3722165721
 30
0.0
 10
3.9485179225
 20
7.3687777049
 30
0.0
 10
3.9478721645
 20
7.3662819268
 30
0.0
 10
3.9473116442
 20
7.3645923632
 30
0.0
 10
3.9469019106
 20
7.3635437579
 30
0.0
 10
3.9464836648
 20
7.3626469501
 30
0.0
 10
3.946179331
 20
7.3621122911
 30
0.0
 10
3.9460243249
 20
7.3618731907
 30
0.0
  0
SPLINE
  5
509
100
AcDbEntity
  8
0
100
AcDbSpline
 62
7
  6
CONTINUOUS
 70
0
 71
3
 72
11
 73
7
 74
0
 42
0.0000001
 43
0.0000001
 44
0.0000000001
 40
0.0
 40
0.0
 40
0.0
 40
0.0
 40
0.2565243065
 40
0.5098287861
 40
0.7576000163
 40
1.0
 40
1.0
 40
1.0
 40
1.0
 10
3.938823638
 20
7.3718168077
 30
0.0
 10
3.938823611
 20
7.3706910408
 30
0.0
 10
3.939157005
 20
7.3684390898
 30
0.0
 10
3.940634706
 20
7.3653995782
 30
0.0
 10
3.9429823205
 20
7.3630443599
 30
0.0
 10
3.9449907802
 20
7.3621249968
 30
0.0
 10
3.9460242894
 20
7.3618730237
 30
0.0
  0
SPLINE
  5
50A
100
AcDbEntity
  8
0
100
AcDbSpline
 62
7
  6
CONTINUOUS
 70
0
 71
3
 72
15
 73
11
 74
0
 42
0.0000001
 43
0.0000001
 44
0.0000000001
 40
0.0
 40
0.0
 40
0.0
 40
0.0
 40
0.0734107285
 40
0.1640271662
 40
0.2722799555
 40
0.396755432
 40
0.5350941284
 40
0.6842112993
 40
0.8405697513
 40
1.0
 40
1.0
 40
1.0
 40
1.0
 10
3.936059567
 20
7.3618730244
 30
0.0
 10
3.9362784863
 20
7.3620120665
 30
0.0
 10
3.9367036539
 20
7.3624211824
 30
0.0
 10
3.9372296691
 20
7.3632311375
 30
0.0
 10
3.9376981517
 20
7.3642769772
 30
0.0
 10
3.938097647
 20
7.3655275224
 30
0.0
 10
3.9384171295
 20
7.3669488714
 30
0.0
 10
3.9386505892
 20
7.3685004509
 30
0.0
 10
3.9387917451
 20
7.3701377225
 30
0.0
 10
3.9388236432
 20
7.3712535797
 30
0.0
 10
3.938823638
 20
7.3718168077
 30
0.0
  0
SPLINE
  5
50B
100
AcDbEntity
  8
0
100
AcDbSpline
 62
9
  6
CONTINUOUS
 70
0
 71
3
 72
15
 73
11
 74
0
 42
0.0000001
 43
0.0000001
 44
0.0000000001
 40
0.0
 40
0.0
 40
0.0
 40
0.0
 40
0.1760948821
 40
0.3456306037
 40
0.5024982486
 40
0.642649879
 40
0.7634726484
 40
0.8635541284
 40
0.9424304126
 40
1.0
 40
1.0
 40
1.0
 40
1.0
 10
3.8985887983
 20
7.390391804
 30
0.0
 10
3.8985840693
 20
7.3887159379
 30
0.0
 10
3.8985707307
 20
7.385426621
 30
0.0
 10
3.8985071055
 20
7.3806447286
 30
0.0
 10
3.8983963034
 20
7.3762058824
 30
0.0
 10
3.8982579385
 20
7.372231663
 30
0.0
 10
3.898097901
 20
7.3687991908
 30
0.0
 10
3.8979240543
 20
7.3659513426
 30
0.0
 10
3.8977446695
 20
7.3637074594
 30
0.0
 10
3.8976064184
 20
7.3624158176
 30
0.0
 10
3.8975307133
 20
7.3618731907
 30
0.0
  0
SPLINE
  5
50C
100
AcDbEntity
  8
0
100
AcDbSpline
 62
7
  6
CONTINUOUS
 70
0
 71
3
 72
11
 73
7
 74
0
 42
0.0000001
 43
0.0000001
 44
0.0000000001
 40
0.0
 40
0.0
 40
0.0
 40
0.0
 40
0.2525374603
 40
0.5038207255
 40
0.7529279301
 40
1.0
 40
1.0
 40
1.0
 40
1.0
 10
3.8900154168
 20
7.3718168077
 30
0.0
 10
3.8900153886
 20
7.3706899268
 30
0.0
 10
3.8903665446
 20
7.3684259962
 30
0.0
 10
3.8919190749
 20
7.3653804606
 30
0.0
 10
3.8943763503
 20
7.3630312416
 30
0.0
 10
3.8964570858
 20
7.3621238114
 30
0.0
 10
3.8975306763
 20
7.3618730237
 30
0.0
  0
SPLINE
  5
50D
100
AcDbEntity
  8
0
100
AcDbSpline
 62
7
  6
CONTINUOUS
 70
0
 71
3
 72
16
 73
12
 74
0
 42
0.0000001
 43
0.0000001
 44
0.0000000001
 40
0.0
 40
0.0
 40
0.0
 40
0.0
 40
0.0283856324
 40
0.062264505
 40
0.1017745616
 40
0.1468677983
 40
0.2529858279
 40
0.3782344542
 40
0.5194930906
 40
0.6730384918
 40
1.0
 40
1.0
 40
1.0
 40
1.0
 10
3.8882803826
 20
7.3618730247
 30
0.0
 10
3.8883483664
 20
7.361941812
 30
0.0
 10
3.8884807785
 20
7.3621091605
 30
0.0
 10
3.8886574452
 20
7.3624081988
 30
0.0
 10
3.8888282835
 20
7.362774532
 30
0.0
 10
3.8890585413
 20
7.3633826398
 30
0.0
 10
3.8893120242
 20
7.3642915609
 30
0.0
 10
3.8895613091
 20
7.3655371179
 30
0.0
 10
3.8897609523
 20
7.3669550164
 30
0.0
 10
3.8899596361
 20
7.3690645684
 30
0.0
 10
3.8900154233
 20
7.3707028084
 30
0.0
 10
3.8900154168
 20
7.3718168077
 30
0.0
  0
SPLINE
  5
50E
100
AcDbEntity
  8
0
100
AcDbSpline
 62
9
  6
CONTINUOUS
 70
0
 71
3
 72
17
 73
13
 74
0
 42
0.0000001
 43
0.0000001
 44
0.0000000001
 40
0.0
 40
0.0
 40
0.0
 40
0.0
 40
0.1751992796
 40
0.3439207821
 40
0.5001198462
 40
0.6398329317
 40
0.7605284376
 40
0.8608974993
 40
0.9033530979
 40
0.9406552678
 40
0.9728478673
 40
1.0
 40
1.0
 40
1.0
 40
1.0
 10
3.850606663
 20
7.390391804
 30
0.0
 10
3.8506023493
 20
7.3887158954
 30
0.0
 10
3.8506342011
 20
7.385425881
 30
0.0
 10
3.8507693451
 20
7.3806435446
 30
0.0
 10
3.8509778881
 20
7.3762035371
 30
0.0
 10
3.8512604635
 20
7.3722279099
 30
0.0
 10
3.851603443
 20
7.368793406
 30
0.0
 10
3.8519462994
 20
7.366295028
 30
0.0
 10
3.8522527045
 20
7.364599191
 30
0.0
 10
3.8524787889
 20
7.3635521538
 30
0.0
 10
3.8527125349
 20
7.3626573888
 30
0.0
 10
3.8528870635
 20
7.3621166256
 30
0.0
 10
3.8529776147
 20
7.3618731907
 30
0.0
  0
SPLINE
  5
50F
100
AcDbEntity
  8
0
100
AcDbSpline
 62
7
  6
CONTINUOUS
 70
0
 71
3
 72
19
 73
15
 74
0
 42
0.0000001
 43
0.0000001
 44
0.0000000001
 40
0.0
 40
0.0
 40
0.0
 40
0.0
 40
0.2034047268
 40
0.3925570753
 40
0.5593012704
 40
0.7007389164
 40
0.761441972
 40
0.8152864802
 40
0.8622603636
 40
0.9023937524
 40
0.935789012
 40
0.9627013917
 40
0.9836881485
 40
1.0
 40
1.0
 40
1.0
 40
1.0
 10
4.1551275557
 20
7.4469668003
 30
0.0
 10
4.1551275591
 20
7.4477639419
 30
0.0
 10
4.1550938871
 20
7.4493025064
 30
0.0
 10
4.1549631085
 20
7.4514910184
 30
0.0
 10
4.1547690233
 20
7.4534308976
 30
0.0
 10
4.1545600115
 20
7.454862143
 30
0.0
 10
4.1543683716
 20
7.455847052
 30
0.0
 10
4.1542247307
 20
7.4564637186
 30
0.0
 10
4.1540750252
 20
7.4569956821
 30
0.0
 10
4.1539203234
 20
7.4574422601
 30
0.0
 10
4.1537619135
 20
7.457803211
 30
0.0
 10
4.1535999981
 20
7.4580789199
 30
0.0
 10
4.1534353894
 20
7.4582714411
 30
0.0
 10
4.1533066278
 20
7.4583503677
 30
0.0
 10
4.1532451944
 20
7.4583680443
 30
0.0
  0
SPLINE
  5
510
100
AcDbEntity
  8
0
100
AcDbSpline
 62
7
  6
CONTINUOUS
 70
0
 71
3
 72
11
 73
7
 74
0
 42
0.0000001
 43
0.0000001
 44
0.0000000001
 40
0.0
 40
0.0
 40
0.0
 40
0.0
 40
0.2504363294
 40
0.5006695074
 40
0.7504926516
 40
1.0
 40
1.0
 40
1.0
 40
1.0
 10
3.8452939852
 20
7.3718168077
 30
0.0
 10
3.8452939563
 20
7.3706893121
 30
0.0
 10
3.8456547989
 20
7.3684188132
 30
0.0
 10
3.8472476236
 20
7.3653703806
 30
0.0
 10
3.8497632198
 20
7.363024677
 30
0.0
 10
3.8518824835
 20
7.3621232301
 30
0.0
 10
3.8529775768
 20
7.3618730237
 30
0.0
  0
SPLINE
  5
511
100
AcDbEntity
  8
0
100
AcDbSpline
 62
7
  6
CONTINUOUS
 70
0
 71
3
 72
15
 73
11
 74
0
 42
0.0000001
 43
0.0000001
 44
0.0000000001
 40
0.0
 40
0.0
 40
0.0
 40
0.0
 40
0.0235908447
 40
0.0540712289
 40
0.1347759791
 40
0.2397529304
 40
0.3657231726
 40
0.5090402503
 40
0.6655715805
 40
1.0
 40
1.0
 40
1.0
 40
1.0
 10
3.8446217581
 20
7.3618730244
 30
0.0
 10
3.8446498432
 20
7.3619463696
 30
0.0
 10
3.8447018487
 20
7.3621191058
 30
0.0
 10
3.8448012607
 20
7.3625567553
 30
0.0
 10
3.844910649
 20
7.3632687888
 30
0.0
 10
3.8450223923
 20
7.3643003565
 30
0.0
 10
3.8451183472
 20
7.3655428549
 30
0.0
 10
3.8451955584
 20
7.3669584602
 30
0.0
 10
3.845272473
 20
7.3690687709
 30
0.0
 10
3.8452939877
 20
7.3707034309
 30
0.0
 10
3.8452939852
 20
7.3718168077
 30
0.0
  0
SPLINE
  5
512
100
AcDbEntity
  8
0
100
AcDbSpline
 62
9
  6
CONTINUOUS
 70
0
 71
3
 72
17
 73
13
 74
0
 42
0.0000001
 43
0.0000001
 44
0.0000000001
 40
0.0
 40
0.0
 40
0.0
 40
0.0
 40
0.1704693679
 40
0.3349374159
 40
0.4878047914
 40
0.6255114126
 40
0.7459040093
 40
0.8481043215
 40
0.8924644405
 40
0.9324460378
 40
0.9682152406
 40
1.0
 40
1.0
 40
1.0
 40
1.0
 10
3.8074783639
 20
7.390391804
 30
0.0
 10
3.8074745488
 20
7.3887155326
 30
0.0
 10
3.8075511355
 20
7.3854213512
 30
0.0
 10
3.807883058
 20
7.380634521
 30
0.0
 10
3.8084081648
 20
7.3761888458
 30
0.0
 10
3.8091086594
 20
7.3722062193
 30
0.0
 10
3.8099520585
 20
7.3687623185
 30
0.0
 10
3.8107860434
 20
7.3662682283
 30
0.0
 10
3.8115179116
 20
7.3645850469
 30
0.0
 10
3.81206085
 20
7.3635349195
 30
0.0
 10
3.8126205979
 20
7.3626363678
 30
0.0
 10
3.8130262267
 20
7.3621082654
 30
0.0
 10
3.8132322042
 20
7.3618731907
 30
0.0
  0
SPLINE
  5
513
100
AcDbEntity
  8
0
100
AcDbSpline
 62
9
  6
CONTINUOUS
 70
0
 71
3
 72
11
 73
7
 74
0
 42
0.0000001
 43
0.0000001
 44
0.0000000001
 40
0.0
 40
0.0
 40
0.0
 40
0.0
 40
0.2752712216
 40
0.5393328459
 40
0.7826926173
 40
1.0
 40
1.0
 40
1.0
 40
1.0
 10
3.7700433442
 20
7.390391804
 30
0.0
 10
3.7700397133
 20
7.3885141134
 30
0.0
 10
3.7701900938
 20
7.384833291
 30
0.0
 10
3.7708391849
 20
7.379527904
 30
0.0
 10
3.7718675494
 20
7.374685751
 30
0.0
 10
3.7728268804
 20
7.3716854597
 30
0.0
 10
3.7733666858
 20
7.3703049352
 30
0.0
  0
LINE
  5
514
100
AcDbEntity
  8
0
100
AcDbLine
 62
9
  6
CONTINUOUS
 10
3.7733666858
 20
7.3703049352
 11
3.7753935109
 21
7.3661207072
  0
SPLINE
  5
515
100
AcDbEntity
  8
0
100
AcDbSpline
 62
9
  6
CONTINUOUS
 70
0
 71
3
 72
9
 73
5
 74
0
 42
0.0000001
 43
0.0000001
 44
0.0000000001
 40
0.0
 40
0.0
 40
0.0
 40
0.0
 40
0.5350585146
 40
1.0
 40
1.0
 40
1.0
 40
1.0
 10
3.7758172384
 20
7.365447155
 30
0.0
 10
3.7762921694
 20
7.3647241466
 30
0.0
 10
3.7772695933
 20
7.3634279251
 30
0.0
 10
3.7784619542
 20
7.3623177558
 30
0.0
 10
3.7790680813
 20
7.3618731907
 30
0.0
  0
SPLINE
  5
516
100
AcDbEntity
  8
0
100
AcDbSpline
 62
9
  6
CONTINUOUS
 70
0
 71
3
 72
11
 73
7
 74
0
 42
0.0000001
 43
0.0000001
 44
0.0000000001
 40
0.0
 40
0.0
 40
0.0
 40
0.0
 40
0.2715257625
 40
0.5334257461
 40
0.77763893
 40
1.0
 40
1.0
 40
1.0
 40
1.0
 10
3.739030234
 20
7.390391804
 30
0.0
 10
3.7390273145
 20
7.3885128537
 30
0.0
 10
3.7392296827
 20
7.3848182282
 30
0.0
 10
3.7401085815
 20
7.3794982263
 30
0.0
 10
3.7415034537
 20
7.3746418981
 30
0.0
 10
3.7427887627
 20
7.3716669805
 30
0.0
 10
3.7435046781
 20
7.3703049352
 30
0.0
  0
SPLINE
  5
517
100
AcDbEntity
  8
0
100
AcDbSpline
 62
9
  6
CONTINUOUS
 70
0
 71
3
 72
9
 73
5
 74
0
 42
0.0000001
 43
0.0000001
 44
0.0000000001
 40
0.0
 40
0.0
 40
0.0
 40
0.0
 40
0.2626094386
 40
1.0
 40
1.0
 40
1.0
 40
1.0
 10
3.7438251454
 20
7.3697118109
 30
0.0
 10
3.7440204228
 20
7.3693601927
 30
0.0
 10
3.7447919682
 20
7.3680371784
 30
0.0
 10
3.7456779374
 20
7.3667792405
 30
0.0
 10
3.7463993458
 20
7.3659103124
 30
0.0
  0
SPLINE
  5
518
100
AcDbEntity
  8
0
100
AcDbSpline
 62
9
  6
CONTINUOUS
 70
0
 71
3
 72
9
 73
5
 74
0
 42
0.0000001
 43
0.0000001
 44
0.0000000001
 40
0.0
 40
0.0
 40
0.0
 40
0.0
 40
0.5225131045
 40
1.0
 40
1.0
 40
1.0
 40
1.0
 10
3.7467954269
 20
7.365447155
 30
0.0
 10
3.7474465572
 20
7.3647082006
 30
0.0
 10
3.7487980737
 20
7.3633814914
 30
0.0
 10
3.7503610024
 20
7.362305854
 30
0.0
 10
3.7511502115
 20
7.3618731907
 30
0.0
  0
SPLINE
  5
519
100
AcDbEntity
  8
0
100
AcDbSpline
 62
7
  6
CONTINUOUS
 70
0
 71
3
 72
15
 73
11
 74
0
 42
0.0000001
 43
0.0000001
 44
0.0000000001
 40
0.0
 40
0.0
 40
0.0
 40
0.0
 40
0.1442933496
 40
0.2825261359
 40
0.4144854719
 40
0.5404016948
 40
0.6607848006
 40
0.7767618256
 40
0.8894889191
 40
1.0
 40
1.0
 40
1.0
 40
1.0
 10
3.8057196668
 20
7.4489710405
 30
0.0
 10
3.8058484886
 20
7.449662978
 30
0.0
 10
3.8062225896
 20
7.450998119
 30
0.0
 10
3.8070912128
 20
7.4528330387
 30
0.0
 10
3.8081869355
 20
7.4544341251
 30
0.0
 10
3.8094595976
 20
7.4557805533
 30
0.0
 10
3.8108684133
 20
7.4568600477
 30
0.0
 10
3.8123794426
 20
7.4576625303
 30
0.0
 10
3.8139585043
 20
7.4581821968
 30
0.0
 10
3.8150428049
 20
7.4583390369
 30
0.0
 10
3.8155810694
 20
7.4583680443
 30
0.0
  0
SPLINE
  5
51A
100
AcDbEntity
  8
0
100
AcDbSpline
 62
9
  6
CONTINUOUS
 70
0
 71
3
 72
16
 73
12
 74
0
 42
0.0000001
 43
0.0000001
 44
0.0000000001
 40
0.0
 40
0.0
 40
0.0
 40
0.0
 40
0.1291795994
 40
0.2579147532
 40
0.3853441872
 40
0.5112645657
 40
0.5736740098
 40
0.6356829888
 40
0.7583819431
 40
0.8797303203
 40
1.0
 40
1.0
 40
1.0
 40
1.0
 10
3.691820931
 20
7.390391804
 30
0.0
 10
3.6918213459
 20
7.3889346855
 30
0.0
 10
3.6920519814
 20
7.3860207377
 30
0.0
 10
3.6930587366
 20
7.3817753573
 30
0.0
 10
3.6946903897
 20
7.3777685696
 30
0.0
 10
3.6965125964
 20
7.3746925704
 30
0.0
 10
3.6982056551
 20
7.3724301648
 30
0.0
 10
3.7000280144
 20
7.3703183813
 30
0.0
 10
3.7025482047
 20
7.3679421646
 30
0.0
 10
3.7058912292
 20
7.365534119
 30
0.0
 10
3.7082927289
 20
7.3642282179
 30
0.0
 10
3.7095216093
 20
7.3636535341
 30
0.0
  0
SPLINE
  5
51B
100
AcDbEntity
  8
0
100
AcDbSpline
 62
9
  6
CONTINUOUS
 70
0
 71
3
 72
17
 73
13
 74
0
 42
0.0000001
 43
0.0000001
 44
0.0000000001
 40
0.0
 40
0.0
 40
0.0
 40
0.0
 40
0.1269098089
 40
0.1904341087
 40
0.2537921676
 40
0.3798729849
 40
0.5052212054
 40
0.5676713426
 40
0.6299306727
 40
0.7537808129
 40
0.8771053312
 40
1.0
 40
1.0
 40
1.0
 40
1.0
 10
3.7030722822
 20
7.390391804
 30
0.0
 10
3.7030731735
 20
7.3888874149
 30
0.0
 10
3.7032689
 20
7.3866244034
 30
0.0
 10
3.703899269
 20
7.3836802393
 30
0.0
 10
3.7047722698
 20
7.3808080864
 30
0.0
 10
3.7062951216
 20
7.3773825649
 30
0.0
 10
3.7083291693
 20
7.3742488001
 30
0.0
 10
3.7102114506
 20
7.3719560615
 30
0.0
 10
3.7122414174
 20
7.36981743
 30
0.0
 10
3.715042718
 20
7.3674298953
 30
0.0
 10
3.718738105
 20
7.3650450586
 30
0.0
 10
3.7213770105
 20
7.3637781208
 30
0.0
 10
3.7227254766
 20
7.3632268606
 30
0.0
  0
LINE
  5
51C
100
AcDbEntity
  8
0
100
AcDbLine
 62
7
  6
CONTINUOUS
 10
3.7231496694
 20
7.3642550553
 11
3.7282372081
 21
7.3623685515
  0
SPLINE
  5
51D
100
AcDbEntity
  8
0
100
AcDbSpline
 62
9
  6
CONTINUOUS
 70
0
 71
3
 72
17
 73
13
 74
0
 42
0.0000001
 43
0.0000001
 44
0.0000000001
 40
0.0
 40
0.0
 40
0.0
 40
0.0
 40
0.1254527417
 40
0.1883181057
 40
0.2510953538
 40
0.3763441489
 40
0.50138136
 40
0.5638860086
 40
0.6263250166
 40
0.7509418102
 40
0.87551256
 40
1.0
 40
1.0
 40
1.0
 40
1.0
 10
3.7220490584
 20
7.390391804
 30
0.0
 10
3.7220504437
 20
7.3888433765
 30
0.0
 10
3.7222645733
 20
7.3865126111
 30
0.0
 10
3.7229526431
 20
7.3834878612
 30
0.0
 10
3.723906694
 20
7.3805378319
 30
0.0
 10
3.7255694529
 20
7.3770280705
 30
0.0
 10
3.7277792492
 20
7.3738417565
 30
0.0
 10
3.7298173684
 20
7.3715220731
 30
0.0
 10
3.7320171469
 20
7.3693624361
 30
0.0
 10
3.7350459935
 20
7.3669696799
 30
0.0
 10
3.7390239121
 20
7.3646120795
 30
0.0
 10
3.7418517404
 20
7.3633838793
 30
0.0
 10
3.7432947711
 20
7.3628561136
 30
0.0
  0
SPLINE
  5
51E
100
AcDbEntity
  8
0
100
AcDbSpline
 62
9
  6
CONTINUOUS
 70
0
 71
3
 72
17
 73
13
 74
0
 42
0.0000001
 43
0.0000001
 44
0.0000000001
 40
0.0
 40
0.0
 40
0.0
 40
0.0
 40
0.1249112044
 40
0.1875327538
 40
0.2500971499
 40
0.3750532363
 40
0.4999985618
 40
0.5625343633
 40
0.6250432305
 40
0.749959867
 40
0.8749855923
 40
1.0
 40
1.0
 40
1.0
 40
1.0
 10
3.7483818982
 20
7.390391804
 30
0.0
 10
3.7483837531
 20
7.3888015967
 30
0.0
 10
3.748612218
 20
7.3864071424
 30
0.0
 10
3.7493454626
 20
7.3833055893
 30
0.0
 10
3.7503623949
 20
7.3802834371
 30
0.0
 10
3.7521323018
 20
7.3766969713
 30
0.0
 10
3.7544764323
 20
7.3734610341
 30
0.0
 10
3.7566325285
 20
7.3711166263
 30
0.0
 10
3.7589584649
 20
7.368941064
 30
0.0
 10
3.762153795
 20
7.3665478754
 30
0.0
 10
3.7663357878
 20
7.3642204913
 30
0.0
 10
3.7692986269
 20
7.3630312166
 30
0.0
 10
3.7708082882
 20
7.3625273653
 30
0.0
  0
SPLINE
  5
51F
100
AcDbEntity
  8
0
100
AcDbSpline
 62
9
  6
CONTINUOUS
 70
0
 71
3
 72
20
 73
16
 74
0
 42
0.0000001
 43
0.0000001
 44
0.0000000001
 40
0.0
 40
0.0
 40
0.0
 40
0.0
 40
0.1856212622
 40
0.3616460494
 40
0.5204018929
 40
0.5919314007
 40
0.6577989273
 40
0.7179331605
 40
0.772389739
 40
0.8213054972
 40
0.8650050978
 40
0.9039394222
 40
0.9387438306
 40
0.9703578132
 40
1.0
 40
1.0
 40
1.0
 40
1.0
 10
4.194664355
 20
7.428391804
 30
0.0
 10
4.1946623563
 20
7.4304715342
 30
0.0
 10
4.1948230525
 20
7.4345256004
 30
0.0
 10
4.1955196379
 20
7.4403204515
 30
0.0
 10
4.19645576
 20
7.4447834917
 30
0.0
 10
4.1973918822
 20
7.4479683796
 30
0.0
 10
4.1981360936
 20
7.4500541158
 30
0.0
 10
4.198936709
 20
7.4519124351
 30
0.0
 10
4.1997840167
 20
7.4535388351
 30
0.0
 10
4.2006700023
 20
7.4549310584
 30
0.0
 10
4.2015864323
 20
7.4560893448
 30
0.0
 10
4.2025261832
 20
7.4570159572
 30
0.0
 10
4.2034857808
 20
7.4577128143
 30
0.0
 10
4.2044641842
 20
7.4581775607
 30
0.0
 10
4.2051399821
 20
7.4583325201
 30
0.0
 10
4.2054702245
 20
7.458367747
 30
0.0
  0
SPLINE
  5
520
100
AcDbEntity
  8
0
100
AcDbSpline
 62
9
  6
CONTINUOUS
 70
0
 71
3
 72
16
 73
12
 74
0
 42
0.0000001
 43
0.0000001
 44
0.0000000001
 40
0.0
 40
0.0
 40
0.0
 40
0.0
 40
0.1253898768
 40
0.1882251905
 40
0.2509763849
 40
0.3762114526
 40
0.5012799063
 40
0.6261721134
 40
0.7508789722
 40
0.875535866
 40
1.0
 40
1.0
 40
1.0
 40
1.0
 10
3.781558263
 20
7.390391804
 30
0.0
 10
3.7815605863
 20
7.3887611828
 30
0.0
 10
3.7817985885
 20
7.3863060013
 30
0.0
 10
3.7825627912
 20
7.3831294666
 30
0.0
 10
3.7836219433
 20
7.3800398006
 30
0.0
 10
3.7854623996
 20
7.3763826107
 30
0.0
 10
3.788378526
 20
7.3724439889
 30
0.0
 10
3.7918716731
 20
7.3690199642
 30
0.0
 10
3.7958253407
 20
7.3661532108
 30
0.0
 10
3.8001266306
 20
7.3638585936
 30
0.0
 10
3.8031661845
 20
7.3627092672
 30
0.0
 10
3.8047122601
 20
7.3622302423
 30
0.0
  0
SPLINE
  5
521
100
AcDbEntity
  8
0
100
AcDbSpline
 62
9
  6
CONTINUOUS
 70
0
 71
3
 72
14
 73
10
 74
0
 42
0.0000001
 43
0.0000001
 44
0.0000000001
 40
0.0
 40
0.0
 40
0.0
 40
0.0
 40
0.1535132459
 40
0.3026838487
 40
0.4438025059
 40
0.5750498605
 40
0.6953991644
 40
0.8056416361
 40
1.0
 40
1.0
 40
1.0
 40
1.0
 10
4.2010085653
 20
7.4283918037
 30
0.0
 10
4.2010087828
 20
7.4294712481
 30
0.0
 10
4.2011232107
 20
7.431601123
 30
0.0
 10
4.2016123152
 20
7.4346889434
 30
0.0
 10
4.2023988399
 20
7.437553393
 30
0.0
 10
4.2034267282
 20
7.4401226228
 30
0.0
 10
4.2046530813
 20
7.4423608781
 30
0.0
 10
4.2064197231
 20
7.4447757153
 30
0.0
 10
4.2080398249
 20
7.4462419496
 30
0.0
 10
4.2091982814
 20
7.4469670109
 30
0.0
  0
SPLINE
  5
522
100
AcDbEntity
  8
0
100
AcDbSpline
 62
7
  6
CONTINUOUS
 70
0
 71
3
 72
9
 73
5
 74
0
 42
0.0000001
 43
0.0000001
 44
0.0000000001
 40
0.0
 40
0.0
 40
0.0
 40
0.0
 40
0.2500993246
 40
1.0
 40
1.0
 40
1.0
 40
1.0
 10
3.8055297949
 20
7.3642550553
 30
0.0
 10
3.8061544329
 20
7.3640058499
 30
0.0
 10
3.8086727632
 20
7.3630619364
 30
0.0
 10
3.8112661113
 20
7.3623211318
 30
0.0
 10
3.8132321663
 20
7.3618730237
 30
0.0
  0
SPLINE
  5
523
100
AcDbEntity
  8
0
100
AcDbSpline
 62
9
  6
CONTINUOUS
 70
0
 71
3
 72
16
 73
12
 74
0
 42
0.0000001
 43
0.0000001
 44
0.0000000001
 40
0.0
 40
0.0
 40
0.0
 40
0.0
 40
0.1269785688
 40
0.1905207256
 40
0.2538841203
 40
0.3799867543
 40
0.5053663055
 40
0.6299680493
 40
0.7538762367
 40
0.8772558923
 40
1.0
 40
1.0
 40
1.0
 40
1.0
 10
3.8209324124
 20
7.390391804
 30
0.0
 10
3.8209351903
 20
7.3887082037
 30
0.0
 10
3.8211812787
 20
7.3861743494
 30
0.0
 10
3.8219731339
 20
7.3828989152
 30
0.0
 10
3.8230684078
 20
7.3797233184
 30
0.0
 10
3.8249663136
 20
7.3759781161
 30
0.0
 10
3.827966875
 20
7.3719671006
 30
0.0
 10
3.8315496876
 20
7.3685115387
 30
0.0
 10
3.8355903111
 20
7.3656543932
 30
0.0
 10
3.8399693676
 20
7.3634093844
 30
0.0
 10
3.8430559202
 20
7.362316792
 30
0.0
 10
3.8446217548
 20
7.3618731908
 30
0.0
  0
LINE
  5
524
100
AcDbEntity
  8
0
100
AcDbLine
 62
7
  6
CONTINUOUS
 10
3.8446217581
 20
7.3618730244
 11
3.8452939852
 21
7.3642550553
  0
SPLINE
  5
525
100
AcDbEntity
  8
0
100
AcDbSpline
 62
7
  6
CONTINUOUS
 70
0
 71
3
 72
9
 73
5
 74
0
 42
0.0000001
 43
0.0000001
 44
0.0000000001
 40
0.0
 40
0.0
 40
0.0
 40
0.0
 40
0.250120818
 40
1.0
 40
1.0
 40
1.0
 40
1.0
 10
3.8452939852
 20
7.3642550553
 30
0.0
 10
3.8459170789
 20
7.3640058584
 30
0.0
 10
3.8484290539
 20
7.3630620211
 30
0.0
 10
3.8510161852
 20
7.3623211615
 30
0.0
 10
3.8529775768
 20
7.3618730237
 30
0.0
  0
SPLINE
  5
526
100
AcDbEntity
  8
0
100
AcDbSpline
 62
9
  6
CONTINUOUS
 70
0
 71
3
 72
16
 73
12
 74
0
 42
0.0000001
 43
0.0000001
 44
0.0000000001
 40
0.0
 40
0.0
 40
0.0
 40
0.0
 40
0.1296392235
 40
0.1943718136
 40
0.2587694596
 40
0.3863427614
 40
0.5122436477
 40
0.6363769979
 40
0.7588886897
 40
0.8800731922
 40
1.0
 40
1.0
 40
1.0
 40
1.0
 10
3.8657379736
 20
7.390391804
 30
0.0
 10
3.8657410797
 20
7.3887089222
 30
0.0
 10
3.8659745473
 20
7.3861786855
 30
0.0
 10
3.8667281927
 20
7.3829017791
 30
0.0
 10
3.8677689134
 20
7.3797317615
 30
0.0
 10
3.8695698586
 20
7.3759942567
 30
0.0
 10
3.8724232968
 20
7.3719819827
 30
0.0
 10
3.8758320036
 20
7.3685235217
 30
0.0
 10
3.8796773398
 20
7.3656627892
 30
0.0
 10
3.8838448282
 20
7.363414421
 30
0.0
 10
3.8867883821
 20
7.3623177149
 30
0.0
 10
3.8882803741
 20
7.3618731909
 30
0.0
  0
LINE
  5
527
100
AcDbEntity
  8
0
100
AcDbLine
 62
7
  6
CONTINUOUS
 10
3.8882803826
 20
7.3618730247
 11
3.8900154168
 21
7.3642550553
  0
SPLINE
  5
528
100
AcDbEntity
  8
0
100
AcDbSpline
 62
7
  6
CONTINUOUS
 70
0
 71
3
 72
9
 73
5
 74
0
 42
0.0000001
 43
0.0000001
 44
0.0000000001
 40
0.0
 40
0.0
 40
0.0
 40
0.0
 40
0.2503197822
 40
1.0
 40
1.0
 40
1.0
 40
1.0
 10
3.8900154168
 20
7.3642550553
 30
0.0
 10
3.8906246678
 20
7.3640059369
 30
0.0
 10
3.8930796626
 20
7.3630628043
 30
0.0
 10
3.8956110738
 20
7.3623214374
 30
0.0
 10
3.8975306763
 20
7.3618730237
 30
0.0
  0
SPLINE
  5
529
100
AcDbEntity
  8
0
100
AcDbSpline
 62
9
  6
CONTINUOUS
 70
0
 71
3
 72
16
 73
12
 74
0
 42
0.0000001
 43
0.0000001
 44
0.0000000001
 40
0.0
 40
0.0
 40
0.0
 40
0.0
 40
0.1334230727
 40
0.19985522
 40
0.2657352118
 40
0.3954365046
 40
0.5221234743
 40
0.6456221664
 40
0.7661465093
 40
0.8841657442
 40
1.0
 40
1.0
 40
1.0
 40
1.0
 10
3.915102857
 20
7.390391804
 30
0.0
 10
3.9151062305
 20
7.3887098648
 30
0.0
 10
3.9153224132
 20
7.3861843578
 30
0.0
 10
3.9160231504
 20
7.3829055966
 30
0.0
 10
3.9169886111
 20
7.3797431295
 30
0.0
 10
3.9186559544
 20
7.3760165999
 30
0.0
 10
3.921305417
 20
7.3720033582
 30
0.0
 10
3.9244726149
 20
7.3685413585
 30
0.0
 10
3.92804742
 20
7.3656756732
 30
0.0
 10
3.9319225303
 20
7.3634223539
 30
0.0
 10
3.9346691146
 20
7.3623191861
 30
0.0
 10
3.9360595535
 20
7.3618731908
 30
0.0
  0
SPLINE
  5
52A
100
AcDbEntity
  8
0
100
AcDbSpline
 62
7
  6
CONTINUOUS
 70
0
 71
3
 72
9
 73
5
 74
0
 42
0.0000001
 43
0.0000001
 44
0.0000000001
 40
0.0
 40
0.0
 40
0.0
 40
0.0
 40
0.233493403
 40
1.0
 40
1.0
 40
1.0
 40
1.0
 10
3.936059567
 20
7.3618730244
 30
0.0
 10
3.9362997215
 20
7.3620255536
 30
0.0
 10
3.937302871
 20
7.3627186257
 30
0.0
 10
3.9381990583
 20
7.3635606831
 30
0.0
 10
3.938823638
 20
7.3642550553
 30
0.0
  0
SPLINE
  5
52B
100
AcDbEntity
  8
0
100
AcDbSpline
 62
7
  6
CONTINUOUS
 70
0
 71
3
 72
9
 73
5
 74
0
 42
0.0000001
 43
0.0000001
 44
0.0000000001
 40
0.0
 40
0.0
 40
0.0
 40
0.0
 40
0.2507244397
 40
1.0
 40
1.0
 40
1.0
 40
1.0
 10
3.938823638
 20
7.3642550553
 30
0.0
 10
3.9394070121
 20
7.3640060957
 30
0.0
 10
3.9417554434
 20
7.3630643953
 30
0.0
 10
3.9441827328
 20
7.3623220015
 30
0.0
 10
3.9460242894
 20
7.3618730237
 30
0.0
  0
SPLINE
  5
52C
100
AcDbEntity
  8
0
100
AcDbSpline
 62
9
  6
CONTINUOUS
 70
0
 71
3
 72
16
 73
12
 74
0
 42
0.0000001
 43
0.0000001
 44
0.0000000001
 40
0.0
 40
0.0
 40
0.0
 40
0.0
 40
0.1383417857
 40
0.2069944651
 40
0.2748223766
 40
0.4073603041
 40
0.5351592236
 40
0.6579023908
 40
0.7758497001
 40
0.8896694866
 40
1.0
 40
1.0
 40
1.0
 40
1.0
 10
3.9680662316
 20
7.390391804
 30
0.0
 10
3.9680698071
 20
7.3887109587
 30
0.0
 10
3.9682645186
 20
7.3861909467
 30
0.0
 10
3.9688986849
 20
7.3829101156
 30
0.0
 10
3.9697700649
 20
7.3797567765
 30
0.0
 10
3.9712708236
 20
7.3760444636
 30
0.0
 10
3.9736635519
 20
7.3720314031
 30
0.0
 10
3.9765260907
 20
7.3685660255
 30
0.0
 10
3.9797596079
 20
7.3656944013
 30
0.0
 10
3.9832664941
 20
7.3634344063
 30
0.0
 10
3.9857659901
 20
7.3623214736
 30
0.0
 10
3.9870293259
 20
7.3618731909
 30
0.0
  0
SPLINE
  5
52D
100
AcDbEntity
  8
0
100
AcDbSpline
 62
7
  6
CONTINUOUS
 70
0
 71
3
 72
9
 73
5
 74
0
 42
0.0000001
 43
0.0000001
 44
0.0000000001
 40
0.0
 40
0.0
 40
0.0
 40
0.0
 40
0.486199341
 40
1.0
 40
1.0
 40
1.0
 40
1.0
 10
3.9870293441
 20
7.3618730261
 30
0.0
 10
3.9876810246
 20
7.3621789794
 30
0.0
 10
3.9889809269
 20
7.3628974507
 30
0.0
 10
3.9901808695
 20
7.3637720196
 30
0.0
 10
3.9907686523
 20
7.3642550553
 30
0.0
  0
SPLINE
  5
52E
100
AcDbEntity
  8
0
100
AcDbSpline
 62
7
  6
CONTINUOUS
 70
0
 71
3
 72
9
 73
5
 74
0
 42
0.0000001
 43
0.0000001
 44
0.0000000001
 40
0.0
 40
0.0
 40
0.0
 40
0.0
 40
0.251396517
 40
1.0
 40
1.0
 40
1.0
 40
1.0
 10
3.9907686523
 20
7.3642550553
 30
0.0
 10
3.9913146096
 20
7.3640063569
 30
0.0
 10
3.9935088382
 20
7.363067032
 30
0.0
 10
3.9957856567
 20
7.3623229489
 30
0.0
 10
3.9975145421
 20
7.3618730256
 30
0.0
  0
SPLINE
  5
52F
100
AcDbEntity
  8
0
100
AcDbSpline
 62
9
  6
CONTINUOUS
 70
0
 71
3
 72
17
 73
13
 74
0
 42
0.0000001
 43
0.0000001
 44
0.0000000001
 40
0.0
 40
0.0
 40
0.0
 40
0.0
 40
0.1443505411
 40
0.2157316614
 40
0.2859695002
 40
0.4220774377
 40
0.4876621701
 40
0.551456385
 40
0.6733893152
 40
0.7881992874
 40
0.896736425
 40
1.0
 40
1.0
 40
1.0
 40
1.0
 10
4.0235972254
 20
7.390391804
 30
0.0
 10
4.0236009308
 20
7.3887121199
 30
0.0
 10
4.0237705536
 20
7.386197975
 30
0.0
 10
4.0243258189
 20
7.3829149932
 30
0.0
 10
4.0250864994
 20
7.3797719829
 30
0.0
 10
4.0261447387
 20
7.3767770688
 30
0.0
 10
4.0274798867
 20
7.3739888018
 30
0.0
 10
4.0289281133
 20
7.3714459155
 30
0.0
 10
4.030981747
 20
7.3685983616
 30
0.0
 10
4.0338087374
 20
7.3657209767
 30
0.0
 10
4.0368774906
 20
7.3634526654
 30
0.0
 10
4.0390842384
 20
7.3623250785
 30
0.0
 10
4.0401976222
 20
7.3618731908
 30
0.0
  0
SPLINE
  5
530
100
AcDbEntity
  8
0
100
AcDbSpline
 62
7
  6
CONTINUOUS
 70
0
 71
3
 72
9
 73
5
 74
0
 42
0.0000001
 43
0.0000001
 44
0.0000000001
 40
0.0
 40
0.0
 40
0.0
 40
0.0
 40
0.2442310928
 40
1.0
 40
1.0
 40
1.0
 40
1.0
 10
4.040197645
 20
7.3618730244
 30
0.0
 10
4.0405953828
 20
7.3620234512
 30
0.0
 10
4.0422064631
 20
7.3626846627
 30
0.0
 10
4.0437421843
 20
7.3635286716
 30
0.0
 10
4.044839409
 20
7.3642550553
 30
0.0
  0
SPLINE
  5
531
100
AcDbEntity
  8
0
100
AcDbSpline
 62
7
  6
CONTINUOUS
 70
0
 71
3
 72
9
 73
5
 74
0
 42
0.0000001
 43
0.0000001
 44
0.0000000001
 40
0.0
 40
0.0
 40
0.0
 40
0.0
 40
0.2524507446
 40
1.0
 40
1.0
 40
1.0
 40
1.0
 10
4.044839409
 20
7.3642550553
 30
0.0
 10
4.0453371267
 20
7.3640067602
 30
0.0
 10
4.0473323274
 20
7.3630711529
 30
0.0
 10
4.0494152688
 20
7.3623244529
 30
0.0
 10
4.0509992381
 20
7.3618730237
 30
0.0
  0
SPLINE
  5
532
100
AcDbEntity
  8
0
100
AcDbSpline
 62
9
  6
CONTINUOUS
 70
0
 71
3
 72
14
 73
10
 74
0
 42
0.0000001
 43
0.0000001
 44
0.0000000001
 40
0.0
 40
0.0
 40
0.0
 40
0.0
 40
0.2986350851
 40
0.4391345341
 40
0.5704755021
 40
0.6917531056
 40
0.8030714422
 40
0.9053740875
 40
1.0
 40
1.0
 40
1.0
 40
1.0
 10
4.0806149908
 20
7.390391804
 30
0.0
 10
4.0806224139
 20
7.387081568
 30
0.0
 10
4.0811505439
 20
7.3821859487
 30
0.0
 10
4.0829496407
 20
7.3761116441
 30
0.0
 10
4.0846943016
 20
7.3721051858
 30
0.0
 10
4.0867829605
 20
7.3686392621
 30
0.0
 10
4.0891459396
 20
7.3657575282
 30
0.0
 10
4.0917131841
 20
7.3634805523
 30
0.0
 10
4.093585922
 20
7.3623309203
 30
0.0
 10
4.0945296492
 20
7.3618731584
 30
0.0
  0
SPLINE
  5
533
100
AcDbEntity
  8
0
100
AcDbSpline
 62
9
  6
CONTINUOUS
 70
0
 71
3
 72
14
 73
10
 74
0
 42
0.0000001
 43
0.0000001
 44
0.0000000001
 40
0.0
 40
0.0
 40
0.0
 40
0.0
 40
0.194365791
 40
0.3046115905
 40
0.4249633339
 40
0.5562107193
 40
0.6973268568
 40
0.8464929294
 40
1.0
 40
1.0
 40
1.0
 40
1.0
 10
4.2091982755
 20
7.3718165573
 30
0.0
 10
4.2080396985
 20
7.3725415329
 30
0.0
 10
4.2064195224
 20
7.3740078663
 30
0.0
 10
4.20465293
 20
7.3764228599
 30
0.0
 10
4.2034266317
 20
7.3786612004
 30
0.0
 10
4.2023987625
 20
7.3812304444
 30
0.0
 10
4.2016122434
 20
7.3840948543
 30
0.0
 10
4.2011231453
 20
7.387182592
 30
0.0
 10
4.2010087285
 20
7.3893123998
 30
0.0
 10
4.2010085212
 20
7.3903918043
 30
0.0
  0
SPLINE
  5
534
100
AcDbEntity
  8
0
100
AcDbSpline
 62
9
  6
CONTINUOUS
 70
0
 71
3
 72
12
 73
8
 74
0
 42
0.0000001
 43
0.0000001
 44
0.0000000001
 40
0.0
 40
0.0
 40
0.0
 40
0.0
 40
0.134599387
 40
0.2684242146
 40
0.4646930078
 40
0.6531480939
 40
1.0
 40
1.0
 40
1.0
 40
1.0
 10
3.7150426682
 20
7.390391804
 30
0.0
 10
3.7150415593
 20
7.3894221753
 30
0.0
 10
3.7151090523
 20
7.3874876825
 30
0.0
 10
3.7154576825
 20
7.3841562213
 30
0.0
 10
3.7161704289
 20
7.3804806312
 30
0.0
 10
3.7177238914
 20
7.3754391856
 30
0.0
 10
3.7194658278
 20
7.371945742
 30
0.0
 10
3.7208655494
 20
7.3698759425
 30
0.0
  0
LINE
  5
535
100
AcDbEntity
  8
0
100
AcDbLine
 62
9
  6
CONTINUOUS
 10
3.7208655494
 20
7.3698759425
 11
3.7230691586
 21
7.3670463896
  0
SPLINE
  5
536
100
AcDbEntity
  8
0
100
AcDbSpline
 62
9
  6
CONTINUOUS
 70
0
 71
3
 72
9
 73
5
 74
0
 42
0.0000001
 43
0.0000001
 44
0.0000000001
 40
0.0
 40
0.0
 40
0.0
 40
0.0
 40
0.5142557106
 40
1.0
 40
1.0
 40
1.0
 40
1.0
 10
3.7246480192
 20
7.365447155
 30
0.0
 10
3.7254653357
 20
7.3646961309
 30
0.0
 10
3.7271661658
 20
7.3633512008
 30
0.0
 10
3.7290639668
 20
7.362299123
 30
0.0
 10
3.7300219846
 20
7.3618731907
 30
0.0
  0
SPLINE
  5
537
100
AcDbEntity
  8
0
100
AcDbSpline
 62
7
  6
CONTINUOUS
 70
0
 71
3
 72
11
 73
7
 74
0
 42
0.0000001
 43
0.0000001
 44
0.0000000001
 40
0.0
 40
0.0
 40
0.0
 40
0.0
 40
0.2569478786
 40
0.5083345103
 40
0.7556766328
 40
1.0
 40
1.0
 40
1.0
 40
1.0
 10
3.7759186388
 20
7.4557463199
 30
0.0
 10
3.7764110393
 20
7.4561446298
 30
0.0
 10
3.7774484868
 20
7.4568580631
 30
0.0
 10
3.7791368406
 20
7.4576622206
 30
0.0
 10
3.780900492
 20
7.4581825258
 30
0.0
 10
3.7821082993
 20
7.4583389891
 30
0.0
 10
3.7827098125
 20
7.4583680443
 30
0.0
  0
SPLINE
  5
538
100
AcDbEntity
  8
0
100
AcDbSpline
 62
9
  6
CONTINUOUS
 70
0
 71
3
 72
10
 73
6
 74
0
 42
0.0000001
 43
0.0000001
 44
0.0000000001
 40
0.0
 40
0.0
 40
0.0
 40
0.0
 40
0.255935283
 40
0.5098649238
 40
1.0
 40
1.0
 40
1.0
 40
1.0
 10
3.6985475375
 20
7.390391804
 30
0.0
 10
3.6985466704
 20
7.3891726743
 30
0.0
 10
3.6986727238
 20
7.3867416368
 30
0.0
 10
3.6993996973
 20
7.3820292096
 30
0.0
 10
3.7004783242
 20
7.3786171771
 30
0.0
 10
3.7014189525
 20
7.3764803202
 30
0.0
  0
SPLINE
  5
539
100
AcDbEntity
  8
0
100
AcDbSpline
 62
9
  6
CONTINUOUS
 70
0
 71
3
 72
9
 73
5
 74
0
 42
0.0000001
 43
0.0000001
 44
0.0000000001
 40
0.0
 40
0.0
 40
0.0
 40
0.0
 40
0.2568413752
 40
1.0
 40
1.0
 40
1.0
 40
1.0
 10
3.7016271498
 20
7.3760173912
 30
0.0
 10
3.7018591492
 20
7.3755123581
 30
0.0
 10
3.7028138218
 20
7.3735701622
 30
0.0
 10
3.7039717926
 20
7.3717270436
 30
0.0
 10
3.7049384938
 20
7.3704419471
 30
0.0
  0
LINE
  5
53A
100
AcDbEntity
  8
0
100
AcDbLine
 62
9
  6
CONTINUOUS
 10
3.7065080572
 20
7.3685355592
 11
3.7098060893
 21
7.365447155
  0
SPLINE
  5
53B
100
AcDbEntity
  8
0
100
AcDbSpline
 62
9
  6
CONTINUOUS
 70
0
 71
3
 72
9
 73
5
 74
0
 42
0.0000001
 43
0.0000001
 44
0.0000000001
 40
0.0
 40
0.0
 40
0.0
 40
0.0
 40
0.5072638969
 40
1.0
 40
1.0
 40
1.0
 40
1.0
 10
3.7102665571
 20
7.3650942684
 30
0.0
 10
3.7110667018
 20
7.3644955995
 30
0.0
 10
3.7127163941
 20
7.3634087647
 30
0.0
 10
3.7144871475
 20
7.3625325507
 30
0.0
 10
3.7153825028
 20
7.3621575931
 30
0.0
  0
SPLINE
  5
53C
100
AcDbEntity
  8
0
100
AcDbSpline
 62
9
  6
CONTINUOUS
 70
0
 71
3
 72
14
 73
10
 74
0
 42
0.0000001
 43
0.0000001
 44
0.0000000001
 40
0.0
 40
0.0
 40
0.0
 40
0.0
 40
0.2443692586
 40
0.367513565
 40
0.4915146664
 40
0.617033739
 40
0.7437479112
 40
0.8715938941
 40
1.0
 40
1.0
 40
1.0
 40
1.0
 10
4.2091983678
 20
7.4469670093
 30
0.0
 10
4.211145378
 20
7.4462915259
 30
0.0
 10
4.2139763702
 20
7.4449336046
 30
0.0
 10
4.217303093
 20
7.4424440067
 30
0.0
 10
4.2195339185
 20
7.4402129054
 30
0.0
 10
4.2214131231
 20
7.4376399801
 30
0.0
 10
4.2228574669
 20
7.4347596313
 30
0.0
 10
4.2237604142
 20
7.4316405945
 30
0.0
 10
4.223972614
 20
7.4294746996
 30
0.0
 10
4.2239730066
 20
7.4283918037
 30
0.0
  0
SPLINE
  5
53D
100
AcDbEntity
  8
0
100
AcDbSpline
 62
9
  6
CONTINUOUS
 70
0
 71
3
 72
14
 73
10
 74
0
 42
0.0000001
 43
0.0000001
 44
0.0000000001
 40
0.0
 40
0.0
 40
0.0
 40
0.0
 40
0.1284013474
 40
0.2562445074
 40
0.3829563926
 40
0.5084741264
 40
0.6324749474
 40
0.7556199972
 40
1.0
 40
1.0
 40
1.0
 40
1.0
 10
4.2239730866
 20
7.3903918043
 30
0.0
 10
4.2239727098
 20
7.3893089448
 30
0.0
 10
4.223760522
 20
7.3871431036
 30
0.0
 10
4.2228575882
 20
7.3840241379
 30
0.0
 10
4.2214132559
 20
7.3811438324
 30
0.0
 10
4.219534091
 20
7.378570911
 30
0.0
 10
4.2173033542
 20
7.3763397196
 30
0.0
 10
4.2139766503
 20
7.3738499147
 30
0.0
 10
4.2111455274
 20
7.37249194
 30
0.0
 10
4.209198379
 20
7.3718165564
 30
0.0
  0
SPLINE
  5
53E
100
AcDbEntity
  8
0
100
AcDbSpline
 62
9
  6
CONTINUOUS
 70
0
 71
3
 72
15
 73
11
 74
0
 42
0.0000001
 43
0.0000001
 44
0.0000000001
 40
0.0
 40
0.0
 40
0.0
 40
0.0
 40
0.1492577728
 40
0.2953513792
 40
0.435409336
 40
0.5673724545
 40
0.689640949
 40
0.8020435295
 40
0.9049617282
 40
1.0
 40
1.0
 40
1.0
 40
1.0
 10
12.0999834862
 20
9.0824788254
 30
0.0
 10
12.091746415
 20
9.0824792067
 30
0.0
 10
12.07544271
 20
9.0830077145
 30
0.0
 10
12.0515051071
 20
9.0852654762
 30
0.0
 10
12.0287000227
 20
9.0888754729
 30
0.0
 10
12.0074311575
 20
9.0935258112
 30
0.0
 10
11.987926582
 20
9.0989436753
 30
0.0
 10
11.9702408103
 20
9.1048217254
 30
0.0
 10
11.9542244636
 20
9.1109030748
 30
0.0
 10
11.9441573459
 20
9.1151511287
 30
0.0
 10
11.9393537852
 20
9.1172569358
 30
0.0
  0
SPLINE
  5
53F
100
AcDbEntity
  8
0
100
AcDbSpline
 62
9
  6
CONTINUOUS
 70
0
 71
3
 72
15
 73
11
 74
0
 42
0.0000001
 43
0.0000001
 44
0.0000000001
 40
0.0
 40
0.0
 40
0.0
 40
0.0
 40
0.1294997829
 40
0.2585471873
 40
0.3866130339
 40
0.5131432393
 40
0.6377015749
 40
0.7601367284
 40
0.8806984876
 40
1.0
 40
1.0
 40
1.0
 40
1.0
 10
12.3108003898
 20
9.2892568207
 30
0.0
 10
12.3107640022
 20
9.2813725647
 30
0.0
 10
12.3103252348
 20
9.265630013
 30
0.0
 10
12.3084102212
 20
9.2421571694
 30
0.0
 10
12.305051848
 20
9.2190242762
 30
0.0
 10
12.3000592457
 20
9.1964617192
 30
0.0
 10
12.2932576946
 20
9.1747283364
 30
0.0
 10
12.2845148685
 20
9.1540855094
 30
0.0
 10
12.273757479
 20
9.1347784693
 30
0.0
 10
12.2652020354
 20
9.1228940328
 30
0.0
 10
12.2606145061
 20
9.1172626822
 30
0.0
  0
SPLINE
  5
540
100
AcDbEntity
  8
0
100
AcDbSpline
 62
9
  6
CONTINUOUS
 70
0
 71
3
 72
15
 73
11
 74
0
 42
0.0000001
 43
0.0000001
 44
0.0000000001
 40
0.0
 40
0.0
 40
0.0
 40
0.0
 40
0.095033939
 40
0.1979505104
 40
0.3103565333
 40
0.4326271581
 40
0.5645861237
 40
0.7046431137
 40
0.8507453102
 40
1.0
 40
1.0
 40
1.0
 40
1.0
 10
12.2606116944
 20
9.1172591721
 30
0.0
 10
12.2558083614
 20
9.1151535682
 30
0.0
 10
12.2457416028
 20
9.1109057863
 30
0.0
 10
12.2297255117
 20
9.1048246257
 30
0.0
 10
12.2120397021
 20
9.098946581
 30
0.0
 10
12.1925353022
 20
9.0935285405
 30
0.0
 10
12.1712668629
 20
9.0888780031
 30
0.0
 10
12.1484617932
 20
9.085268074
 30
0.0
 10
12.1245241536
 20
9.0830105508
 30
0.0
 10
12.1082203069
 20
9.0824819774
 30
0.0
 10
12.0999834859
 20
9.0824816284
 30
0.0
  0
SPLINE
  5
541
100
AcDbEntity
  8
0
100
AcDbSpline
 62
9
  6
CONTINUOUS
 70
0
 71
3
 72
24
 73
20
 74
0
 42
0.0000001
 43
0.0000001
 44
0.0000000001
 40
0.0
 40
0.0
 40
0.0
 40
0.0
 40
0.066877456
 40
0.1333211686
 40
0.1988632518
 40
0.2631592133
 40
0.3260005912
 40
0.3872911028
 40
0.4471509874
 40
0.5058639137
 40
0.5639156444
 40
0.6219948461
 40
0.6808705021
 40
0.7411415768
 40
0.7719727629
 40
0.8033116501
 40
0.8674131161
 40
0.9331266488
 40
1.0
 40
1.0
 40
1.0
 40
1.0
 10
12.0999834823
 20
9.1111216051
 30
0.0
 10
12.0936781422
 20
9.1111217448
 30
0.0
 10
12.081104461
 20
9.1115307705
 30
0.0
 10
12.0624324453
 20
9.113370805
 30
0.0
 10
12.0441670619
 20
9.1164383335
 30
0.0
 10
12.0265005533
 20
9.1207428532
 30
0.0
 10
12.0096046141
 20
9.1262965662
 30
0.0
 10
11.9936310046
 20
9.1331227166
 30
0.0
 10
11.9787245867
 20
9.1412685945
 30
0.0
 10
11.9650181307
 20
9.1507871425
 30
0.0
 10
11.9526423947
 20
9.1617387314
 30
0.0
 10
11.9417363124
 20
9.1741830925
 30
0.0
 10
11.9324398454
 20
9.1881223138
 30
0.0
 10
11.9261063007
 20
9.2008067706
 30
0.0
 10
11.9218811007
 20
9.2115554379
 30
0.0
 10
11.9181585007
 20
9.2228694904
 30
0.0
 10
11.9145374966
 20
9.2376517324
 30
0.0
 10
11.9116964426
 20
9.2559952935
 30
0.0
 10
11.9106971268
 20
9.2684670101
 30
0.0
 10
11.9103846363
 20
9.2747642145
 30
0.0
  0
SPLINE
  5
542
100
AcDbEntity
  8
0
100
AcDbSpline
 62
9
  6
CONTINUOUS
 70
0
 71
3
 72
17
 73
13
 74
0
 42
0.0000001
 43
0.0000001
 44
0.0000000001
 40
0.0
 40
0.0
 40
0.0
 40
0.0
 40
0.1423001706
 40
0.2880611755
 40
0.432651721
 40
0.5029336772
 40
0.5710071685
 40
0.6985243818
 40
0.7574654473
 40
0.8128461737
 40
0.9127178951
 40
1.0
 40
1.0
 40
1.0
 40
1.0
 10
11.9393555904
 20
9.1172626821
 30
0.0
 10
11.9393555159
 20
9.1129757618
 30
0.0
 10
11.9397525223
 20
9.1042928123
 30
0.0
 10
11.9415494265
 20
9.0913635482
 30
0.0
 10
11.9441680169
 20
9.080794418
 30
0.0
 10
11.9469230707
 20
9.0727227352
 30
0.0
 10
11.9499804738
 20
9.0653157189
 30
0.0
 10
11.9536274
 20
9.0585323104
 30
0.0
 10
11.9578288721
 20
9.0525707122
 30
0.0
 10
11.9619953275
 20
9.047634061
 30
0.0
 10
11.9674913421
 20
9.042740082
 30
0.0
 10
11.9724903316
 20
9.0399943733
 30
0.0
 10
11.9749465355
 20
9.0390557152
 30
0.0
  0
LINE
  5
543
100
AcDbEntity
  8
0
100
AcDbLine
 62
9
  6
CONTINUOUS
 10
11.9749522428
 20
9.0390556269
 11
12.0980124157
 21
9.0393885348
  0
LINE
  5
544
100
AcDbEntity
  8
0
100
AcDbLine
 62
9
  6
CONTINUOUS
 10
12.0999834823
 20
9.0393885696
 11
12.2250148327
 21
9.0390556269
  0
SPLINE
  5
545
100
AcDbEntity
  8
0
100
AcDbSpline
 62
9
  6
CONTINUOUS
 70
0
 71
3
 72
24
 73
20
 74
0
 42
0.0000001
 43
0.0000001
 44
0.0000000001
 40
0.0
 40
0.0
 40
0.0
 40
0.0
 40
0.0668734241
 40
0.1325870162
 40
0.1966885697
 40
0.2280275172
 40
0.2588587729
 40
0.3191299733
 40
0.3780057065
 40
0.4360849179
 40
0.4941366014
 40
0.5528494429
 40
0.6127092335
 40
0.6739996968
 40
0.7368411023
 40
0.8011370207
 40
0.8666787891
 40
0.9331221621
 40
1.0
 40
1.0
 40
1.0
 40
1.0
 10
12.2895824436
 20
9.2747665705
 30
0.0
 10
12.289270002
 20
9.2684693042
 30
0.0
 10
12.2882707844
 20
9.255997463
 30
0.0
 10
12.2854298633
 20
9.2376537041
 30
0.0
 10
12.281808959
 20
9.2228712876
 30
0.0
 10
12.2780864375
 20
9.2115570837
 30
0.0
 10
12.273861315
 20
9.200808257
 30
0.0
 10
12.2675278553
 20
9.1881235973
 30
0.0
 10
12.2582314619
 20
9.1741841345
 30
0.0
 10
12.2473254087
 20
9.1617395577
 30
0.0
 10
12.2349496629
 20
9.1507877882
 30
0.0
 10
12.2212431735
 20
9.1412690813
 30
0.0
 10
12.2063366961
 20
9.133123061
 30
0.0
 10
12.1903629898
 20
9.1262967941
 30
0.0
 10
12.173466927
 20
9.1207430006
 30
0.0
 10
12.1558003092
 20
9.1164384222
 30
0.0
 10
12.137534845
 20
9.1133708419
 30
0.0
 10
12.1188627009
 20
9.1115307741
 30
0.0
 10
12.1062889109
 20
9.111121749
 30
0.0
 10
12.0999834823
 20
9.1111216068
 30
0.0
  0
SPLINE
  5
546
100
AcDbEntity
  8
0
100
AcDbSpline
 62
9
  6
CONTINUOUS
 70
0
 71
3
 72
17
 73
13
 74
0
 42
0.0000001
 43
0.0000001
 44
0.0000000001
 40
0.0
 40
0.0
 40
0.0
 40
0.0
 40
0.1422999533
 40
0.2880608838
 40
0.432651461
 40
0.5029334757
 40
0.571007046
 40
0.6985244012
 40
0.7574655184
 40
0.8128462861
 40
0.9127179976
 40
1.0
 40
1.0
 40
1.0
 40
1.0
 10
12.2606099295
 20
9.1172626821
 30
0.0
 10
12.2606100114
 20
9.1129757704
 30
0.0
 10
12.2602130224
 20
9.1042928336
 30
0.0
 10
12.2584161601
 20
9.0913635786
 30
0.0
 10
12.2557976123
 20
9.0807944433
 30
0.0
 10
12.253042593
 20
9.0727227478
 30
0.0
 10
12.249985225
 20
9.0653157123
 30
0.0
 10
12.2463383327
 20
9.0585322807
 30
0.0
 10
12.2421368887
 20
9.0525706584
 30
0.0
 10
12.2379704594
 20
9.0476339862
 30
0.0
 10
12.2324744715
 20
9.0427399849
 30
0.0
 10
12.2274754925
 20
9.0399942669
 30
0.0
 10
12.2250192935
 20
9.0390556084
 30
0.0
  0
SPLINE
  5
547
100
AcDbEntity
  8
0
100
AcDbSpline
 62
9
  6
CONTINUOUS
 70
0
 71
3
 72
15
 73
11
 74
0
 42
0.0000001
 43
0.0000001
 44
0.0000000001
 40
0.0
 40
0.0
 40
0.0
 40
0.0
 40
0.1193016343
 40
0.2398633858
 40
0.3622986662
 40
0.4868570856
 40
0.6133871759
 40
0.7414528841
 40
0.8705002643
 40
1.0
 40
1.0
 40
1.0
 40
1.0
 10
11.9393522408
 20
9.1172626822
 30
0.0
 10
11.9347647429
 20
9.1228940871
 30
0.0
 10
11.926209404
 20
9.1347786405
 30
0.0
 10
11.9154519827
 20
9.1540857254
 30
0.0
 10
11.9067091435
 20
9.1747286129
 30
0.0
 10
11.8999076124
 20
9.1964620579
 30
0.0
 10
11.8949150809
 20
9.2190246691
 30
0.0
 10
11.8915567499
 20
9.242157598
 30
0.0
 10
11.8896416968
 20
9.2656304734
 30
0.0
 10
11.8892029244
 20
9.2813730538
 30
0.0
 10
11.8891665411
 20
9.2892573231
 30
0.0
  0
ENDSEC
  0
SECTION
  2
OBJECTS
  0
DICTIONARY
  5
C
100
AcDbDictionary
280
0
281
1
  3
ACAD_GROUP
350
D
  3
ACAD_MLINESTYLE
350
17
  3
ACAD_LAYOUT
350
1A
  3
ACAD_PLOTSETTINGS
350
19
  3
ACAD_PLOTSTYLENAME
350
E
  0
DICTIONARY
  5
D
102
{ACAD_REACTORS
330
C
102
}
100
AcDbDictionary
280
0
281
1
  0
ACDBDICTIONARYWDFLT
  5
E
102
{ACAD_REACTORS
330
C
102
}
100
AcDbDictionary
281
1
  3
Normal
350
F
100
AcDbDictionaryWithDefault
340
F
  0
DICTIONARY
  5
17
102
{ACAD_REACTORS
330
C
102
}
100
AcDbDictionary
280
0
281
1
  3
Standard
350
18
  0
DICTIONARY
  5
19
102
{ACAD_REACTORS
330
C
102
}
100
AcDbDictionary
281
1
  0
DICTIONARY
  5
1A
102
{ACAD_REACTORS
330
C
102
}
100
AcDbDictionary
281
1
  3
Model
350
548
  3
Layout1
350
549
  0
ACDBPLACEHOLDER
  5
F
102
{ACAD_REACTORS
330
E
102
}
  0
MLINESTYLE
  5
18
102
{ACAD_REACTORS
330
17
102
}
100
AcDbMlineStyle
  2
STANDARD
 70
0
  3

 62
256
 51
90.0
 52
90.0
 71
2
 49
0.5
 62
256
  6
BYLAYER
 49
-0.5
 62
256
  6
BYLAYER
  0
LAYOUT
  5
548
102
{ACAD_REACTORS
330
1A
102
}
100
AcDbPlotSettings
  1

  2
none_device
  4
ANSI_C_(22.00_x_17.00_Inches)
  6

 40
0.0
 41
0.0
 42
0.0
 43
0.0
 44
558.8
 45
431.8
 46
0.0
 47
0.0
 48
0.0
 49
0.0
140
0.0
141
0.0
142
1.0
143
1.0
 70
1024
 72
0
 73
0
 74
0
  7

 75
0
147
1.0
148
0.0
149
0.0
100
AcDbLayout
  1
Model
 70
0
 71
0
 10
0.0
 20
0.0
 11
22.0
 21
17.0
 12
0.0
 22
0.0
 32
0.0
 14
0.0
 24
0.0
 34
0.0
 15
0.0
 25
0.0
 35
0.0
146
0.0
 13
0.0
 23
0.0
 33
0.0
 16
1.0
 26
0.0
 36
0.0
 17
0.0
 27
1.0
 37
0.0
 76
0
330
202
345
0
346
0
  0
LAYOUT
  5
549
102
{ACAD_REACTORS
330
1A
102
}
100
AcDbPlotSettings
  1

  2
none_device
  4
ANSI_C_(22.00_x_17.00_Inches)
  6

 40
0.0
 41
0.0
 42
0.0
 43
0.0
 44
558.8
 45
431.8
 46
0.0
 47
0.0
 48
0.0
 49
0.0
140
0.0
141
0.0
142
1.0
143
1.0
 70
0
 72
0
 73
0
 74
0
  7

 75
0
147
1.0
148
0.0
149
0.0
100
AcDbLayout
  1
Layout1
 70
0
 71
1
 10
0.0
 20
0.0
 11
22.0
 21
17.0
 12
0.0
 22
0.0
 32
0.0
 14
0.0
 24
0.0
 34
0.0
 15
0.0
 25
0.0
 35
0.0
146
0.0
 13
0.0
 23
0.0
 33
0.0
 16
1.0
 26
0.0
 36
0.0
 17
0.0
 27
1.0
 37
0.0
 76
0
330
203
345
0
346
0
  0
ENDSEC
  0
EOF
