999
DXF file: 255_front.dxf
999
Pro/ENGINEER 2018400 by Parametric Technology Corporation
  0
SECTION
  2
HEADER
  9
$ACADVER
  1
AC1027
  9
$DWGCODEPAGE
  3
ANSI_1252
  9
$EXTMAX
 10
11.0
 20
8.5
 30
0.0
  9
$EXTMIN
 10
0.0
 20
0.0
 30
0.0
  9
$LIMMIN
 10
0.0
 20
0.0
  9
$LIMMAX
 10
11.0
 20
8.5
  9
$VIEWCTR
 10
5.5
 20
4.25
  9
$VIEWSIZE
 40
8.5
  9
$CLAYER
  8
0
  9
$LTSCALE
 40
0.605
  9
$CELTYPE
  6
BYLAYER
  9
$DIMSCALE
 40
1.0
  9
$DIMASZ
 40
0.1
  9
$DIMEXO
 40
0.0625
  9
$DIMDLI
 40
0.418
  9
$DIMEXE
 40
0.125
  9
$DIMCEN
 40
0.099
  9
$DIMLFAC
 40
1.0
  9
$DIMBLK
  1
_FILLED
  9
$DIMALT
 70
1
  9
$DIMALTD
 70
1
  9
$DIMALTTD
 70
2
  9
$DIMALTF
 40
25.4
  9
$DIMTXT
 40
0.08
  9
$DIMTOL
 70
1
  9
$DIMLIM
 70
0
  9
$DIMTFAC
 40
1.0
  9
$DIMTP
 40
0.01
  9
$DIMTM
 40
0.01
  9
$DIMGAP
 40
0.09
  9
$DIMDSEP
 70
46
  9
$AUNITS
 70
0
  9
$PDMODE
 70
3
  9
$PDSIZE
 40
0.3125
  9
$HANDSEED
  5
309
  9
$TILEMODE
 70
1
  9
$MEASUREMENT
 70
0
  9
$INSUNITS
 70
1
  0
ENDSEC
  0
SECTION
  2
CLASSES
  0
CLASS
  1
ACDBDICTIONARYWDFLT
  2
AcDbDictionaryWithDefault
  3
AutoCAD 2000
 90
0
 91
1
280
0
281
0
  0
CLASS
  1
ACDBPLACEHOLDER
  2
AcDbPlaceHolder
  3
AutoCAD 2000
 90
0
 91
1
280
0
281
0
  0
CLASS
  1
LAYOUT
  2
AcDbLayout
  3
AutoCAD 2000
 90
0
 91
0
280
0
281
0
  0
ENDSEC
  0
SECTION
  2
TABLES
  0
TABLE
  2
VPORT
  5
8
100
AcDbSymbolTable
 70
2
  0
VPORT
  5
1F4
100
AcDbSymbolTableRecord
100
AcDbViewportTableRecord
  2
*ACTIVE
 70
0
 10
0.0
 20
0.0
 11
1.0
 21
1.0
 12
5.5
 22
4.25
 13
0.0
 23
0.0
 14
1.0
 24
1.0
 15
0.0
 25
0.0
 16
0.0
 26
0.0
 36
1.0
 17
0.0
 27
0.0
 37
0.0
 40
8.5
 41
1.2941176471
 42
50.0
 43
0.0
 44
0.0
 50
0.0
 51
0.0
 71
0
 72
100
 73
1
 74
1
 75
0
 76
0
 77
0
 78
0
  0
ENDTAB
  0
TABLE
  2
LTYPE
  5
5
100
AcDbSymbolTable
 70
6
  0
LTYPE
  5
14
100
AcDbSymbolTableRecord
100
AcDbLinetypeTableRecord
  2
BYBLOCK
 70
0
  3

 72
65
 73
0
 40
0.0
  0
LTYPE
  5
15
100
AcDbSymbolTableRecord
100
AcDbLinetypeTableRecord
  2
BYLAYER
 70
0
  3

 72
65
 73
0
 40
0.0
  0
LTYPE
  5
16
100
AcDbSymbolTableRecord
100
AcDbLinetypeTableRecord
  2
CONTINUOUS
 70
64
  3
Solid line
 72
65
 73
0
 40
0.0
  0
LTYPE
  5
1F5
100
AcDbSymbolTableRecord
100
AcDbLinetypeTableRecord
  2
CENTER
 70
64
  3
____ _ ____ _ ____ _ ____ _ ____ _ ____ _ ____
 72
65
 73
4
 40
0.6
 49
0.375
 74
0
 49
-0.075
 74
0
 49
0.075
 74
0
 49
-0.075
 74
0
  0
LTYPE
  5
1F6
100
AcDbSymbolTableRecord
100
AcDbLinetypeTableRecord
  2
HIDDEN
 70
64
  3
- - - - - - - - - - - - - - - - - - - -
 72
65
 73
2
 40
0.2
 49
0.1
 74
0
 49
-0.1
 74
0
  0
LTYPE
  5
1F7
100
AcDbSymbolTableRecord
100
AcDbLinetypeTableRecord
  2
PHANTOM
 70
64
  3
_____ _ _ _____ _ _ _____ _ _ _____
 72
65
 73
6
 40
0.8
 49
0.45
 74
0
 49
-0.05
 74
0
 49
0.1
 74
0
 49
-0.05
 74
0
 49
0.1
 74
0
 49
-0.05
 74
0
  0
LTYPE
  5
1F8
100
AcDbSymbolTableRecord
100
AcDbLinetypeTableRecord
  2
DOT
 70
64
  3
. . . . . . . . . . . . . . . . . . . .
 72
65
 73
2
 40
0.2
 49
0.1
 74
0
 49
-0.1
 74
0
  0
LTYPE
  5
1F9
100
AcDbSymbolTableRecord
100
AcDbLinetypeTableRecord
  2
DASHED
 70
64
  3
- - - - - - - - - - - - - - - - - - - -
 72
65
 73
2
 40
0.2
 49
0.1
 74
0
 49
-0.1
 74
0
  0
ENDTAB
  0
TABLE
  2
LAYER
  5
2
100
AcDbSymbolTable
 70
36
  0
LAYER
  5
10
100
AcDbSymbolTableRecord
100
AcDbLayerTableRecord
  2
0
 70
0
 62
7
  6
CONTINUOUS
370
-3
390
F
  0
LAYER
  5
1FA
100
AcDbSymbolTableRecord
100
AcDbLayerTableRecord
  2
DEFAULT_1
 70
0
 62
7
  6
CENTER
370
-3
390
F
  0
LAYER
  5
1FB
100
AcDbSymbolTableRecord
100
AcDbLayerTableRecord
  2
DEFAULT_2
 70
0
 62
8
  6
HIDDEN
370
-3
390
F
  0
LAYER
  5
1FC
100
AcDbSymbolTableRecord
100
AcDbLayerTableRecord
  2
DEFAULT_3
 70
0
 62
7
  6
PHANTOM
370
-3
390
F
  0
LAYER
  5
1FD
100
AcDbSymbolTableRecord
100
AcDbLayerTableRecord
  2
ALL_ASSEMBLY_MEMBERS
 70
0
 62
7
  6
CONTINUOUS
370
-3
390
F
  0
LAYER
  5
1FE
100
AcDbSymbolTableRecord
100
AcDbLayerTableRecord
  2
ALL_FEATURES
 70
0
 62
7
  6
CONTINUOUS
370
-3
390
F
  0
LAYER
  5
1FF
100
AcDbSymbolTableRecord
100
AcDbLayerTableRecord
  2
AXES_FEATURES
 70
0
 62
7
  6
CONTINUOUS
370
-3
390
F
  0
LAYER
  5
200
100
AcDbSymbolTableRecord
100
AcDbLayerTableRecord
  2
CHAMFER_FEATURES
 70
0
 62
7
  6
CONTINUOUS
370
-3
390
F
  0
LAYER
  5
201
100
AcDbSymbolTableRecord
100
AcDbLayerTableRecord
  2
CUT_FEATURES
 70
0
 62
7
  6
CONTINUOUS
370
-3
390
F
  0
LAYER
  5
202
100
AcDbSymbolTableRecord
100
AcDbLayerTableRecord
  2
DATUM_PLANES
 70
0
 62
7
  6
CONTINUOUS
370
-3
390
F
  0
LAYER
  5
203
100
AcDbSymbolTableRecord
100
AcDbLayerTableRecord
  2
DEFAULT_COORDINATE_SYSTEM
 70
0
 62
7
  6
CONTINUOUS
370
-3
390
F
  0
LAYER
  5
204
100
AcDbSymbolTableRecord
100
AcDbLayerTableRecord
  2
DEFAULT_DATUM_AXES
 70
0
 62
7
  6
CONTINUOUS
370
-3
390
F
  0
LAYER
  5
205
100
AcDbSymbolTableRecord
100
AcDbLayerTableRecord
  2
DEFAULT_DATUM_CURVES
 70
0
 62
7
  6
CONTINUOUS
370
-3
390
F
  0
LAYER
  5
206
100
AcDbSymbolTableRecord
100
AcDbLayerTableRecord
  2
DEFAULT_DATUM_PLANES
 70
0
 62
7
  6
CONTINUOUS
370
-3
390
F
  0
LAYER
  5
207
100
AcDbSymbolTableRecord
100
AcDbLayerTableRecord
  2
DIMENSIONS
 70
0
 62
7
  6
CONTINUOUS
370
-3
390
F
  0
LAYER
  5
208
100
AcDbSymbolTableRecord
100
AcDbLayerTableRecord
  2
PART_REFERENCE_DIMENSIONS
 70
0
 62
7
  6
CONTINUOUS
370
-3
390
F
  0
LAYER
  5
209
100
AcDbSymbolTableRecord
100
AcDbLayerTableRecord
  2
PROTRUSION_FEATURES
 70
0
 62
7
  6
CONTINUOUS
370
-3
390
F
  0
LAYER
  5
20A
100
AcDbSymbolTableRecord
100
AcDbLayerTableRecord
  2
QUILT
 70
0
 62
7
  6
CONTINUOUS
370
-3
390
F
  0
LAYER
  5
20B
100
AcDbSymbolTableRecord
100
AcDbLayerTableRecord
  2
QUILTS
 70
0
 62
7
  6
CONTINUOUS
370
-3
390
F
  0
LAYER
  5
20C
100
AcDbSymbolTableRecord
100
AcDbLayerTableRecord
  2
REFERENCE_DIMENSIONS
 70
0
 62
7
  6
CONTINUOUS
370
-3
390
F
  0
LAYER
  5
20D
100
AcDbSymbolTableRecord
100
AcDbLayerTableRecord
  2
ROUND_FEATURES
 70
0
 62
7
  6
CONTINUOUS
370
-3
390
F
  0
LAYER
  5
20E
100
AcDbSymbolTableRecord
100
AcDbLayerTableRecord
  2
SHELL_FEATURES
 70
0
 62
7
  6
CONTINUOUS
370
-3
390
F
  0
ENDTAB
  0
TABLE
  2
STYLE
  5
3
100
AcDbSymbolTable
 70
1
  0
STYLE
  5
11
100
AcDbSymbolTableRecord
100
AcDbTextStyleTableRecord
  2
STANDARD
 70
0
 40
0.0
 41
0.8
 50
0.0
 71
0
 42
0.2
  3
txt
  4

  0
STYLE
  5
20F
100
AcDbSymbolTableRecord
100
AcDbTextStyleTableRecord
  2
TEXTSTYLE_1
 70
0
 40
0.0
 41
0.8
 50
0.0
 71
0
 42
0.2
  3
gdt
  4

  0
ENDTAB
  0
TABLE
  2
VIEW
  5
6
100
AcDbSymbolTable
 70
0
  0
ENDTAB
  0
TABLE
  2
UCS
  5
7
100
AcDbSymbolTable
 70
0
  0
ENDTAB
  0
TABLE
  2
APPID
  5
9
100
AcDbSymbolTable
 70
1
  0
APPID
  5
210
100
AcDbSymbolTableRecord
100
AcDbRegAppTableRecord
  2
ACAD
 70
0
  0
ENDTAB
  0
TABLE
  2
BLOCK_RECORD
  5
1
100
AcDbSymbolTable
 70
0
  0
BLOCK_RECORD
  5
211
100
AcDbSymbolTableRecord
100
AcDbBlockTableRecord
  2
*Model_Space
  0
BLOCK_RECORD
  5
212
100
AcDbSymbolTableRecord
100
AcDbBlockTableRecord
  2
*Paper_Space
  0
BLOCK_RECORD
  5
213
100
AcDbSymbolTableRecord
100
AcDbBlockTableRecord
  2
_FILLED
  0
ENDTAB
  0
TABLE
  2
DIMSTYLE
  5
A
100
AcDbSymbolTable
 70
1
100
AcDbDimStyleTable
 71
0
  0
DIMSTYLE
105
214
100
AcDbSymbolTableRecord
100
AcDbDimStyleTableRecord
  2
STANDARD
 70
0
  3

  4

 40
1.0
 41
0.1
 42
0.0625
 43
0.38
 44
0.125
 45
0.0
 46
0.0
 47
0.01
 48
0.01
140
0.08
141
0.09
142
0.0
143
25.4
144
1.0
145
0.0
146
1.0
147
0.09
 71
1.0
 72
0.0
 73
1
 74
1
 75
0
 76
0
 77
0
 78
4
 79
1
170
1
171
1
172
0
173
0
174
0
175
0
176
0
177
0
178
0
270
2
179
2
271
2
272
2
273
2
274
2
275
0
280
0
281
0
282
0
283
1
284
4
285
0
286
0
287
3
288
0
340
11
278
46
341
213
342
213
343
213
344
213
  0
ENDTAB
  0
ENDSEC
  0
SECTION
  2
BLOCKS
  0
BLOCK
  5
20
100
AcDbEntity
  8
0
100
AcDbBlockBegin
  2
*Model_Space
 70
0
 10
0.0
 20
0.0
 30
0.0
  3
*Model_Space
  1

  0
ENDBLK
  5
21
100
AcDbEntity
  8
0
100
AcDbBlockEnd
  0
BLOCK
  5
1C
100
AcDbEntity
  8
0
100
AcDbBlockBegin
  2
*Paper_Space
 70
0
 10
0.0
 20
0.0
 30
0.0
  3
*Paper_Space
  1

  0
ENDBLK
  5
1D
100
AcDbEntity
  8
0
100
AcDbBlockEnd
  0
BLOCK
  5
215
100
AcDbEntity
  8
0
100
AcDbBlockBegin
  2
_FILLED
 70
64
 10
0.0
 20
0.0
  3
_FILLED
  1

  0
SOLID
  5
216
100
AcDbEntity
  8
0
  6
BYBLOCK
 62
0
100
AcDbTrace
 10
0.0
 20
0.0
 11
-1.0
 21
0.2
 12
-1.0
 22
-0.2
 13
-1.0
 23
-0.2
  0
ENDBLK
  5
217
100
AcDbEntity
  8
0
  6
BYBLOCK
 62
0
100
AcDbBlockEnd
  0
ENDSEC
  0
SECTION
  2
ENTITIES
  0
MTEXT
  5
218
100
AcDbEntity
  8
0
100
AcDbMText
 62
2
  6
CONTINUOUS
  7
STANDARD
 71
3
 72
1
 10
4.928988764
 20
0.2617802536
 30
0.0
 11
1.0
 21
0.0
 31
0.0
 73
2
 44
0.9
  1
SCALE  .250
 40
0.08
 41
0.704
  0
LINE
  5
219
100
AcDbEntity
  8
0
100
AcDbLine
 62
7
  6
CONTINUOUS
 10
0.0
 20
0.0
 11
0.0
 21
8.5
  0
LINE
  5
21A
100
AcDbEntity
  8
0
100
AcDbLine
 62
7
  6
CONTINUOUS
 10
0.0
 20
0.0
 11
11.0
 21
0.0
  0
LINE
  5
21B
100
AcDbEntity
  8
0
100
AcDbLine
 62
7
  6
CONTINUOUS
 10
0.0
 20
8.5
 11
11.0
 21
8.5
  0
LINE
  5
21C
100
AcDbEntity
  8
0
100
AcDbLine
 62
7
  6
CONTINUOUS
 10
11.0
 20
0.0
 11
11.0
 21
8.5
  0
LINE
  5
21D
100
AcDbEntity
  8
0
100
AcDbLine
 62
7
  6
CONTINUOUS
 10
4.3355337079
 20
0.4383532873
 11
4.8105337079
 21
0.4383532873
  0
LINE
  5
21E
100
AcDbEntity
  8
0
100
AcDbLine
 62
7
  6
CONTINUOUS
 10
4.2761587079
 20
1.5258532873
 11
4.8699087079
 21
1.5258532873
  0
LINE
  5
21F
100
AcDbEntity
  8
0
100
AcDbLine
 62
7
  6
CONTINUOUS
 10
4.8699087079
 20
1.7133532873
 11
4.6679553901
 21
1.7133532873
  0
LINE
  5
220
100
AcDbEntity
  8
0
100
AcDbLine
 62
7
  6
CONTINUOUS
 10
4.2761587079
 20
1.7133532873
 11
4.4781120256
 21
1.7133532873
  0
LINE
  5
221
100
AcDbEntity
  8
0
100
AcDbLine
 62
7
  6
CONTINUOUS
 10
4.8346913255
 20
1.7485706697
 11
4.7390228641
 21
1.7485706697
  0
LINE
  5
222
100
AcDbEntity
  8
0
100
AcDbLine
 62
7
  6
CONTINUOUS
 10
4.3113760903
 20
1.7485706697
 11
4.4070445516
 21
1.7485706697
  0
LINE
  5
223
100
AcDbEntity
  8
0
100
AcDbLine
 62
7
  6
CONTINUOUS
 10
4.8430316966
 20
2.0083532873
 11
4.3030357167
 21
2.0083532873
  0
LINE
  5
224
100
AcDbEntity
  8
0
100
AcDbLine
 62
7
  6
CONTINUOUS
 10
4.8480337079
 20
2.0133532873
 11
4.2980337079
 21
2.0133532873
  0
LINE
  5
225
100
AcDbEntity
  8
ALL_ASSEMBLY_MEMBERS
100
AcDbLine
 62
7
  6
CONTINUOUS
 10
4.8700337079
 20
2.3683532873
 11
4.9191218128
 21
2.3761280793
  0
LINE
  5
226
100
AcDbEntity
  8
0
100
AcDbLine
 62
7
  6
CONTINUOUS
 10
4.2065337079
 20
2.2946032873
 11
4.9395337079
 21
2.2946032873
  0
LINE
  5
227
100
AcDbEntity
  8
0
100
AcDbLine
 62
7
  6
CONTINUOUS
 10
4.2065337079
 20
2.3383532873
 11
4.9395337079
 21
2.3383532873
  0
LINE
  5
228
100
AcDbEntity
  8
ALL_FEATURES
100
AcDbLine
 62
7
  6
CONTINUOUS
 10
4.2342837079
 20
2.3683532873
 11
4.9117837079
 21
2.3683532873
  0
LINE
  5
229
100
AcDbEntity
  8
ALL_ASSEMBLY_MEMBERS
100
AcDbLine
 62
7
  6
CONTINUOUS
 10
4.2269456029
 20
2.3761280793
 11
4.9191218128
 21
2.3761280793
  0
LINE
  5
22A
100
AcDbEntity
  8
ALL_ASSEMBLY_MEMBERS
100
AcDbLine
 62
7
  6
CONTINUOUS
 10
4.9290054044
 20
2.3869183523
 11
4.2170620114
 21
2.3869183523
  0
LINE
  5
22B
100
AcDbEntity
  8
ALL_ASSEMBLY_MEMBERS
100
AcDbLine
 62
7
  6
CONTINUOUS
 10
4.2287837079
 20
2.3978532873
 11
4.9172837079
 21
2.3978532873
  0
LINE
  5
22C
100
AcDbEntity
  8
0
100
AcDbLine
 62
7
  6
CONTINUOUS
 10
4.8699087079
 20
2.4008532873
 11
4.7184087079
 21
2.4008532873
  0
LINE
  5
22D
100
AcDbEntity
  8
0
100
AcDbLine
 62
7
  6
CONTINUOUS
 10
4.2761587079
 20
2.4008532873
 11
4.4276587079
 21
2.4008532873
  0
LINE
  5
22E
100
AcDbEntity
  8
ALL_ASSEMBLY_MEMBERS
100
AcDbLine
 62
7
  6
CONTINUOUS
 10
4.3142837079
 20
2.4713532873
 11
4.8317837079
 21
2.4713532873
  0
LINE
  5
22F
100
AcDbEntity
  8
ALL_ASSEMBLY_MEMBERS
100
AcDbLine
 62
7
  6
CONTINUOUS
 10
4.3142837079
 20
2.4876032873
 11
4.8317837079
 21
2.4876032873
  0
LINE
  5
230
100
AcDbEntity
  8
ALL_ASSEMBLY_MEMBERS
100
AcDbLine
 62
7
  6
CONTINUOUS
 10
4.2760337079
 20
2.3683532873
 11
4.2269456029
 21
2.3761280793
  0
LINE
  5
231
100
AcDbEntity
  8
ALL_ASSEMBLY_MEMBERS
100
AcDbLine
 62
7
  6
CONTINUOUS
 10
4.553670226
 20
2.658920904
 11
4.5546675301
 21
2.6589397441
  0
LINE
  5
232
100
AcDbEntity
  8
ALL_ASSEMBLY_MEMBERS
100
AcDbLine
 62
7
  6
CONTINUOUS
 10
4.4242837079
 20
2.5417282873
 11
4.7217837079
 21
2.5417282873
  0
LINE
  5
233
100
AcDbEntity
  8
ALL_ASSEMBLY_MEMBERS
100
AcDbLine
 62
7
  6
CONTINUOUS
 10
4.3210337079
 20
2.5742282873
 11
4.8250337079
 21
2.5742282873
  0
LINE
  5
234
100
AcDbEntity
  8
0
100
AcDbLine
 62
7
  6
CONTINUOUS
 10
4.8699087079
 20
2.5883532873
 11
4.8244956126
 21
2.5883532873
  0
LINE
  5
235
100
AcDbEntity
  8
0
100
AcDbLine
 62
7
  6
CONTINUOUS
 10
4.2761587079
 20
2.5883532873
 11
4.3215718031
 21
2.5883532873
  0
LINE
  5
236
100
AcDbEntity
  8
ALL_ASSEMBLY_MEMBERS
100
AcDbLine
 62
7
  6
CONTINUOUS
 10
4.3230337079
 20
2.6267282873
 11
4.8230337079
 21
2.6267282873
  0
LINE
  5
237
100
AcDbEntity
  8
ALL_ASSEMBLY_MEMBERS
100
AcDbLine
 62
7
  6
CONTINUOUS
 10
4.5787272802
 20
2.6591901506
 11
4.5802325037
 21
2.6591811309
  0
LINE
  5
238
100
AcDbEntity
  8
ALL_ASSEMBLY_MEMBERS
100
AcDbLine
 62
7
  6
CONTINUOUS
 10
4.589570728
 20
2.6590872154
 11
4.5892979235
 21
2.6590918976
  0
LINE
  5
239
100
AcDbEntity
  8
ALL_ASSEMBLY_MEMBERS
100
AcDbLine
 62
7
  6
CONTINUOUS
 10
4.5909069987
 20
2.6588687551
 11
4.5826924329
 21
2.6590133115
  0
LINE
  5
23A
100
AcDbEntity
  8
ALL_ASSEMBLY_MEMBERS
100
AcDbLine
 62
7
  6
CONTINUOUS
 10
4.5909084751
 20
2.6589484644
 11
4.5925136258
 21
2.6589192355
  0
LINE
  5
23B
100
AcDbEntity
  8
0
100
AcDbLine
 62
7
  6
CONTINUOUS
 10
4.8346913255
 20
1.7485706697
 11
4.8699087079
 21
1.7133532873
  0
LINE
  5
23C
100
AcDbEntity
  8
0
100
AcDbLine
 62
7
  6
CONTINUOUS
 10
4.2761587079
 20
2.4008532873
 11
4.2791587079
 21
2.3978532873
  0
LINE
  5
23D
100
AcDbEntity
  8
ALL_ASSEMBLY_MEMBERS
100
AcDbLine
 62
7
  6
CONTINUOUS
 10
4.6116108262
 20
2.6583127657
 11
4.6116383783
 21
2.6582823545
  0
LINE
  5
23E
100
AcDbEntity
  8
ALL_ASSEMBLY_MEMBERS
100
AcDbLine
 62
7
  6
CONTINUOUS
 10
4.6351955947
 20
2.6570984119
 11
4.6352227204
 21
2.6570680185
  0
LINE
  5
23F
100
AcDbEntity
  8
ALL_ASSEMBLY_MEMBERS
100
AcDbLine
 62
7
  6
CONTINUOUS
 10
4.6352227204
 20
2.6570680185
 11
4.6352255889
 21
2.6570646597
  0
LINE
  5
240
100
AcDbEntity
  8
0
100
AcDbLine
 62
7
  6
CONTINUOUS
 10
4.2065337079
 20
2.3383532873
 11
4.2065337079
 21
2.2946032873
  0
LINE
  5
241
100
AcDbEntity
  8
ALL_FEATURES
100
AcDbLine
 62
7
  6
CONTINUOUS
 10
4.2342837079
 20
2.3383532873
 11
4.2342837079
 21
2.3683532873
  0
LINE
  5
242
100
AcDbEntity
  8
0
100
AcDbLine
 62
7
  6
CONTINUOUS
 10
4.2761587079
 20
2.5883532873
 11
4.2761587079
 21
2.4008532873
  0
LINE
  5
243
100
AcDbEntity
  8
0
100
AcDbLine
 62
7
  6
CONTINUOUS
 10
4.2761587079
 20
1.7133532873
 11
4.2761587079
 21
1.5258532873
  0
LINE
  5
244
100
AcDbEntity
  8
0
100
AcDbLine
 62
7
  6
CONTINUOUS
 10
4.2980337079
 20
7.4551309029
 11
4.2980337079
 21
7.2508532873
  0
LINE
  5
245
100
AcDbEntity
  8
0
100
AcDbLine
 62
7
  6
CONTINUOUS
 10
4.2980337079
 20
2.2946032873
 11
4.2980337079
 21
2.0133532873
  0
LINE
  5
246
100
AcDbEntity
  8
0
100
AcDbLine
 62
7
  6
CONTINUOUS
 10
4.3113760903
 20
1.8545947112
 11
4.3113760903
 21
1.7485706697
  0
LINE
  5
247
100
AcDbEntity
  8
ALL_ASSEMBLY_MEMBERS
100
AcDbLine
 62
7
  6
CONTINUOUS
 10
4.3142837079
 20
2.4713532873
 11
4.3142837079
 21
2.4876032873
  0
LINE
  5
248
100
AcDbEntity
  8
ALL_FEATURES
100
AcDbLine
 62
7
  6
CONTINUOUS
 10
4.3355337079
 20
7.2508532873
 11
4.3355337079
 21
2.6299432367
  0
LINE
  5
249
100
AcDbEntity
  8
0
100
AcDbLine
 62
7
  6
CONTINUOUS
 10
4.3355337079
 20
2.0083532873
 11
4.3355337079
 21
1.994671129
  0
LINE
  5
24A
100
AcDbEntity
  8
0
100
AcDbLine
 62
7
  6
CONTINUOUS
 10
4.3355337079
 20
0.4383532873
 11
4.3355337079
 21
1.5258532873
  0
LINE
  5
24B
100
AcDbEntity
  8
ALL_ASSEMBLY_MEMBERS
100
AcDbLine
 62
7
  6
CONTINUOUS
 10
4.4242837079
 20
2.5417282873
 11
4.4242837079
 21
2.5742282873
  0
LINE
  5
24C
100
AcDbEntity
  8
ALL_ASSEMBLY_MEMBERS
100
AcDbLine
 62
7
  6
CONTINUOUS
 10
4.4276587079
 20
2.3978532873
 11
4.4276587079
 21
2.4713532873
  0
LINE
  5
24D
100
AcDbEntity
  8
ALL_ASSEMBLY_MEMBERS
100
AcDbLine
 62
7
  6
CONTINUOUS
 10
4.5457665498
 20
2.6588403055
 11
4.5457665498
 21
2.6586976951
  0
LINE
  5
24E
100
AcDbEntity
  8
ALL_ASSEMBLY_MEMBERS
100
AcDbLine
 62
7
  6
CONTINUOUS
 10
4.5465115918
 20
2.6587129575
 11
4.5465115918
 21
2.6588152447
  0
LINE
  5
24F
100
AcDbEntity
  8
ALL_ASSEMBLY_MEMBERS
100
AcDbLine
 62
7
  6
CONTINUOUS
 10
4.5605337079
 20
7.3661510562
 11
4.5605337079
 21
7.3754158858
  0
LINE
  5
250
100
AcDbEntity
  8
ALL_ASSEMBLY_MEMBERS
100
AcDbLine
 62
7
  6
CONTINUOUS
 10
4.5622360828
 20
2.6589996647
 11
4.5622360828
 21
2.6590880453
  0
LINE
  5
251
100
AcDbEntity
  8
ALL_ASSEMBLY_MEMBERS
100
AcDbLine
 62
7
  6
CONTINUOUS
 10
4.5642837079
 20
7.7070870147
 11
4.5642837079
 21
7.8260302897
  0
LINE
  5
252
100
AcDbEntity
  8
ALL_ASSEMBLY_MEMBERS
100
AcDbLine
 62
7
  6
CONTINUOUS
 10
4.5646499201
 20
2.6590506056
 11
4.5646499201
 21
2.6591879859
  0
LINE
  5
253
100
AcDbEntity
  8
ALL_ASSEMBLY_MEMBERS
100
AcDbLine
 62
7
  6
CONTINUOUS
 10
4.5802325037
 20
2.6590606426
 11
4.5802325037
 21
2.6591811309
  0
LINE
  5
254
100
AcDbEntity
  8
ALL_ASSEMBLY_MEMBERS
100
AcDbLine
 62
7
  6
CONTINUOUS
 10
4.5816312468
 20
2.6590329605
 11
4.5816312468
 21
2.6591282511
  0
LINE
  5
255
100
AcDbEntity
  8
ALL_ASSEMBLY_MEMBERS
100
AcDbLine
 62
7
  6
CONTINUOUS
 10
4.5817837079
 20
7.7070870147
 11
4.5817837079
 21
7.8260302897
  0
LINE
  5
256
100
AcDbEntity
  8
ALL_ASSEMBLY_MEMBERS
100
AcDbLine
 62
7
  6
CONTINUOUS
 10
4.5855337079
 20
7.3754158858
 11
4.5855337079
 21
7.3661510562
  0
LINE
  5
257
100
AcDbEntity
  8
ALL_ASSEMBLY_MEMBERS
100
AcDbLine
 62
7
  6
CONTINUOUS
 10
4.5987635222
 20
2.6587303416
 11
4.5987635222
 21
2.6588171321
  0
LINE
  5
258
100
AcDbEntity
  8
ALL_ASSEMBLY_MEMBERS
100
AcDbLine
 62
7
  6
CONTINUOUS
 10
4.5998565967
 20
2.6587131459
 11
4.5998565967
 21
2.6588219928
  0
LINE
  5
259
100
AcDbEntity
  8
ALL_ASSEMBLY_MEMBERS
100
AcDbLine
 62
7
  6
CONTINUOUS
 10
4.6030578255
 20
2.6586756818
 11
4.6030578255
 21
2.658762991
  0
LINE
  5
25A
100
AcDbEntity
  8
ALL_ASSEMBLY_MEMBERS
100
AcDbLine
 62
7
  6
CONTINUOUS
 10
4.3210337079
 20
2.5742282873
 11
4.3230337079
 21
2.6267282873
  0
LINE
  5
25B
100
AcDbEntity
  8
ALL_ASSEMBLY_MEMBERS
100
AcDbLine
 62
7
  6
CONTINUOUS
 10
4.8250337079
 20
2.5742282873
 11
4.8230337079
 21
2.6267282873
  0
LINE
  5
25C
100
AcDbEntity
  8
ALL_ASSEMBLY_MEMBERS
100
AcDbLine
 62
7
  6
CONTINUOUS
 10
4.6348760932
 20
2.6571065777
 11
4.6348760932
 21
2.6572700454
  0
LINE
  5
25D
100
AcDbEntity
  8
ALL_ASSEMBLY_MEMBERS
100
AcDbLine
 62
7
  6
CONTINUOUS
 10
4.6349541096
 20
2.6571065777
 11
4.6349541096
 21
2.6572598321
  0
LINE
  5
25E
100
AcDbEntity
  8
ALL_ASSEMBLY_MEMBERS
100
AcDbLine
 62
7
  6
CONTINUOUS
 10
4.7184087079
 20
2.3978532873
 11
4.7184087079
 21
2.4713532873
  0
LINE
  5
25F
100
AcDbEntity
  8
ALL_ASSEMBLY_MEMBERS
100
AcDbLine
 62
7
  6
CONTINUOUS
 10
4.7217837079
 20
2.5417282873
 11
4.7217837079
 21
2.5742282873
  0
LINE
  5
260
100
AcDbEntity
  8
ALL_FEATURES
100
AcDbLine
 62
7
  6
CONTINUOUS
 10
4.8105337079
 20
7.2508532873
 11
4.8105337079
 21
2.6299428967
  0
LINE
  5
261
100
AcDbEntity
  8
0
100
AcDbLine
 62
7
  6
CONTINUOUS
 10
4.8105337079
 20
2.0083532873
 11
4.8105337079
 21
1.9946710916
  0
LINE
  5
262
100
AcDbEntity
  8
0
100
AcDbLine
 62
7
  6
CONTINUOUS
 10
4.8105337079
 20
0.4383532873
 11
4.8105337079
 21
1.5258532873
  0
LINE
  5
263
100
AcDbEntity
  8
ALL_ASSEMBLY_MEMBERS
100
AcDbLine
 62
7
  6
CONTINUOUS
 10
4.8317837079
 20
2.4713532873
 11
4.8317837079
 21
2.4876032873
  0
LINE
  5
264
100
AcDbEntity
  8
0
100
AcDbLine
 62
7
  6
CONTINUOUS
 10
4.8346913255
 20
1.8545947112
 11
4.8346913255
 21
1.7485706697
  0
LINE
  5
265
100
AcDbEntity
  8
0
100
AcDbLine
 62
7
  6
CONTINUOUS
 10
4.8480337079
 20
7.4552365166
 11
4.8480337079
 21
7.2508532873
  0
LINE
  5
266
100
AcDbEntity
  8
0
100
AcDbLine
 62
7
  6
CONTINUOUS
 10
4.8480337079
 20
2.2946032873
 11
4.8480337079
 21
2.0133532873
  0
LINE
  5
267
100
AcDbEntity
  8
0
100
AcDbLine
 62
7
  6
CONTINUOUS
 10
4.8699087079
 20
2.5883532873
 11
4.8699087079
 21
2.4008532873
  0
LINE
  5
268
100
AcDbEntity
  8
0
100
AcDbLine
 62
7
  6
CONTINUOUS
 10
4.8699087079
 20
1.7133532873
 11
4.8699087079
 21
1.5258532873
  0
LINE
  5
269
100
AcDbEntity
  8
ALL_FEATURES
100
AcDbLine
 62
7
  6
CONTINUOUS
 10
4.9117837079
 20
2.3383532873
 11
4.9117837079
 21
2.3683532873
  0
LINE
  5
26A
100
AcDbEntity
  8
0
100
AcDbLine
 62
7
  6
CONTINUOUS
 10
4.9395337079
 20
2.3383532873
 11
4.9395337079
 21
2.2946032873
  0
LINE
  5
26B
100
AcDbEntity
  8
0
100
AcDbLine
 62
7
  6
CONTINUOUS
 10
4.8699087079
 20
2.4008532873
 11
4.8669087079
 21
2.3978532873
  0
LINE
  5
26C
100
AcDbEntity
  8
ALL_ASSEMBLY_MEMBERS
100
AcDbLine
 62
7
  6
CONTINUOUS
 10
4.6044801964
 20
2.6586894259
 11
4.6044776286
 21
2.6586878148
  0
LINE
  5
26D
100
AcDbEntity
  8
ALL_ASSEMBLY_MEMBERS
100
AcDbLine
 62
7
  6
CONTINUOUS
 10
4.5998565967
 20
2.6588219928
 11
4.5998582761
 21
2.6588228796
  0
LINE
  5
26E
100
AcDbEntity
  8
0
100
AcDbLine
 62
7
  6
CONTINUOUS
 10
4.3113760903
 20
1.7485706697
 11
4.2761587079
 21
1.7133532873
  0
LINE
  5
26F
100
AcDbEntity
  8
0
100
AcDbLine
 62
7
  6
CONTINUOUS
 10
4.2980343871
 20
7.2508532873
 11
4.8480330286
 21
7.2508532873
  0
LINE
  5
270
100
AcDbEntity
  8
ALL_ASSEMBLY_MEMBERS
100
AcDbLine
 62
7
  6
CONTINUOUS
 10
4.5817837079
 20
7.7070870147
 11
4.5818513906
 21
7.7070991751
  0
LINE
  5
271
100
AcDbEntity
  8
ALL_ASSEMBLY_MEMBERS
100
AcDbLine
 62
7
  6
CONTINUOUS
 10
4.5817837079
 20
7.7070870147
 11
4.5818517047
 21
7.7070970643
  0
LINE
  5
272
100
AcDbEntity
  8
ALL_ASSEMBLY_MEMBERS
100
AcDbLine
 62
7
  6
CONTINUOUS
 10
4.5642837079
 20
7.7070870147
 11
4.564215711
 21
7.7070970643
  0
LINE
  5
273
100
AcDbEntity
  8
ALL_ASSEMBLY_MEMBERS
100
AcDbLine
 62
7
  6
CONTINUOUS
 10
4.5642837079
 20
7.7070870147
 11
4.5642160251
 21
7.7070991751
  0
ARC
  5
274
100
AcDbEntity
  8
ALL_ASSEMBLY_MEMBERS
100
AcDbCircle
 62
7
  6
CONTINUOUS
 10
4.5292605675
 20
3.9195562783
 40
1.2608715677
100
AcDbArc
 50
270.9176386796
 51
271.1093002622
  0
ARC
  5
275
100
AcDbEntity
  8
ALL_ASSEMBLY_MEMBERS
100
AcDbCircle
 62
7
  6
CONTINUOUS
 10
4.5691680216
 20
1.7871770628
 40
0.8719824609
100
AcDbArc
 50
92.4687214445
 51
92.7104032495
  0
ARC
  5
276
100
AcDbEntity
  8
ALL_ASSEMBLY_MEMBERS
100
AcDbCircle
 62
7
  6
CONTINUOUS
 10
4.5607006462
 20
1.9251251036
 40
0.7337908918
100
AcDbArc
 50
92.5591725798
 51
92.9543866244
  0
ARC
  5
277
100
AcDbEntity
  8
ALL_ASSEMBLY_MEMBERS
100
AcDbCircle
 62
7
  6
CONTINUOUS
 10
4.5431277413
 20
3.0539329975
 40
0.395137219
100
AcDbArc
 50
270.7347879382
 51
270.9173016062
  0
ARC
  5
278
100
AcDbEntity
  8
ALL_ASSEMBLY_MEMBERS
100
AcDbCircle
 62
7
  6
CONTINUOUS
 10
4.5457668533
 20
2.8430954055
 40
0.1842831317
100
AcDbArc
 50
270.4514845443
 51
270.7549695403
  0
ARC
  5
279
100
AcDbEntity
  8
ALL_ASSEMBLY_MEMBERS
100
AcDbCircle
 62
7
  6
CONTINUOUS
 10
4.3425972962
 20
2.5813532873
 40
0.09375
100
AcDbArc
 50
270.0
 51
334.9889839777
  0
ARC
  5
27A
100
AcDbEntity
  8
ALL_ASSEMBLY_MEMBERS
100
AcDbCircle
 62
7
  6
CONTINUOUS
 10
4.5465849872
 20
2.7309075093
 40
0.072092302
100
AcDbArc
 50
269.9416685112
 51
270.5038675746
  0
ARC
  5
27B
100
AcDbEntity
  8
ALL_ASSEMBLY_MEMBERS
100
AcDbCircle
 62
7
  6
CONTINUOUS
 10
4.2287837079
 20
2.3861032873
 40
0.01175
100
AcDbArc
 50
90.0
 51
176.0223558649
  0
ARC
  5
27C
100
AcDbEntity
  8
ALL_ASSEMBLY_MEMBERS
100
AcDbCircle
 62
7
  6
CONTINUOUS
 10
4.2287837079
 20
2.3877334173
 40
0.01175
100
AcDbArc
 50
183.9776441351
 51
261.0000000001
  0
ARC
  5
27D
100
AcDbEntity
  8
0
100
AcDbCircle
 62
7
  6
CONTINUOUS
 10
4.3030337079
 20
2.0133532873
 40
0.005
100
AcDbArc
 50
180.0
 51
270.0
  0
ARC
  5
27E
100
AcDbEntity
  8
ALL_ASSEMBLY_MEMBERS
100
AcDbCircle
 62
7
  6
CONTINUOUS
 10
4.5647037138
 20
2.658889417
 40
0.0003033763
100
AcDbArc
 50
90.5354293914
 51
100.2135155219
  0
ARC
  5
27F
100
AcDbEntity
  8
ALL_ASSEMBLY_MEMBERS
100
AcDbCircle
 62
7
  6
CONTINUOUS
 10
4.5694887465
 20
2.6589187851
 40
0.0003030742
100
AcDbArc
 50
90.254205278
 51
100.0242026743
  0
ARC
  5
280
100
AcDbEntity
  8
ALL_ASSEMBLY_MEMBERS
100
AcDbCircle
 62
7
  6
CONTINUOUS
 10
4.4942735226
 20
6.1170241963
 40
3.4586915288
100
AcDbArc
 50
271.0061640196
 51
271.1465773715
  0
ARC
  5
281
100
AcDbEntity
  8
ALL_ASSEMBLY_MEMBERS
100
AcDbCircle
 62
7
  6
CONTINUOUS
 10
4.5730336238
 20
7.7613461863
 40
0.3980385233
100
AcDbArc
 50
262.0468911491
 51
266.7595152879
  0
ARC
  5
282
100
AcDbEntity
  8
ALL_ASSEMBLY_MEMBERS
100
AcDbCircle
 62
7
  6
CONTINUOUS
 10
4.5730333076
 20
7.7637066514
 40
0.3884919287
100
AcDbArc
 50
270.0000590257
 51
271.8439091483
  0
ARC
  5
283
100
AcDbEntity
  8
ALL_ASSEMBLY_MEMBERS
100
AcDbCircle
 62
7
  6
CONTINUOUS
 10
4.5729860988
 20
7.7665356829
 40
0.0628673932
100
AcDbArc
 50
180.0441888905
 51
270.0433863412
  0
ARC
  5
284
100
AcDbEntity
  8
ALL_ASSEMBLY_MEMBERS
100
AcDbCircle
 62
7
  6
CONTINUOUS
 10
4.5729719379
 20
7.7667171511
 40
0.0599419704
100
AcDbArc
 50
98.333460525
 51
179.9656471544
  0
ARC
  5
285
100
AcDbEntity
  8
ALL_ASSEMBLY_MEMBERS
100
AcDbCircle
 62
7
  6
CONTINUOUS
 10
4.5729719379
 20
7.7667890252
 40
0.0599419703
100
AcDbArc
 50
180.0343528427
 51
261.6665394896
  0
ARC
  5
286
100
AcDbEntity
  8
ALL_ASSEMBLY_MEMBERS
100
AcDbCircle
 62
7
  6
CONTINUOUS
 10
4.57297183
 20
7.7664000869
 40
0.0599418522
100
AcDbArc
 50
180.0342894362
 51
261.600935616
  0
ARC
  5
287
100
AcDbEntity
  8
ALL_ASSEMBLY_MEMBERS
100
AcDbCircle
 62
7
  6
CONTINUOUS
 10
4.5730336534
 20
7.7663039098
 40
0.0565294412
100
AcDbArc
 50
261.0956358874
 51
270.0000551806
  0
ARC
  5
288
100
AcDbEntity
  8
ALL_ASSEMBLY_MEMBERS
100
AcDbCircle
 62
7
  6
CONTINUOUS
 10
4.5730336534
 20
7.7659974964
 40
0.0565294412
100
AcDbArc
 50
89.9999448194
 51
98.9043641126
  0
ARC
  5
289
100
AcDbEntity
  8
ALL_ASSEMBLY_MEMBERS
100
AcDbCircle
 62
7
  6
CONTINUOUS
 10
4.5813157949
 20
1.5238930945
 40
1.1355463727
100
AcDbArc
 50
92.7737741431
 51
92.9446861933
  0
ARC
  5
28A
100
AcDbEntity
  8
ALL_ASSEMBLY_MEMBERS
100
AcDbCircle
 62
7
  6
CONTINUOUS
 10
4.5730337079
 20
1.6814398258
 40
0.9777884615
100
AcDbArc
 50
87.7756400245
 51
88.1912054931
  0
ARC
  5
28B
100
AcDbEntity
  8
ALL_ASSEMBLY_MEMBERS
100
AcDbCircle
 62
7
  6
CONTINUOUS
 10
4.5730337079
 20
1.6814398258
 40
0.9777884615
100
AcDbArc
 50
75.186175743
 51
86.0915845126
  0
ARC
  5
28C
100
AcDbEntity
  8
ALL_ASSEMBLY_MEMBERS
100
AcDbCircle
 62
7
  6
CONTINUOUS
 10
4.5730337079
 20
1.6814398258
 40
0.9777884615
100
AcDbArc
 50
93.8569245396
 51
104.813824257
  0
ARC
  5
28D
100
AcDbEntity
  8
ALL_ASSEMBLY_MEMBERS
100
AcDbCircle
 62
7
  6
CONTINUOUS
 10
4.5730337079
 20
1.6814398258
 40
0.9777884615
100
AcDbArc
 50
91.8751008043
 51
92.3992089103
  0
ARC
  5
28E
100
AcDbEntity
  8
ALL_ASSEMBLY_MEMBERS
100
AcDbCircle
 62
7
  6
CONTINUOUS
 10
4.5730337079
 20
1.6814398258
 40
0.9777884615
100
AcDbArc
 50
89.3364725514
 51
89.4470604595
  0
ARC
  5
28F
100
AcDbEntity
  8
ALL_ASSEMBLY_MEMBERS
100
AcDbCircle
 62
7
  6
CONTINUOUS
 10
4.5730337079
 20
1.6814398258
 40
0.9777884615
100
AcDbArc
 50
89.7788241838
 51
90.2078044717
  0
ARC
  5
290
100
AcDbEntity
  8
ALL_ASSEMBLY_MEMBERS
100
AcDbCircle
 62
7
  6
CONTINUOUS
 10
4.5730337079
 20
1.6814398258
 40
0.9777884615
100
AcDbArc
 50
90.5598104407
 51
91.5421875207
  0
ARC
  5
291
100
AcDbEntity
  8
ALL_ASSEMBLY_MEMBERS
100
AcDbCircle
 62
7
  6
CONTINUOUS
 10
4.5730337079
 20
1.6814398258
 40
0.9777878594
100
AcDbArc
 50
86.3915539988
 51
87.4770552463
  0
ARC
  5
292
100
AcDbEntity
  8
ALL_ASSEMBLY_MEMBERS
100
AcDbCircle
 62
7
  6
CONTINUOUS
 10
4.5730337079
 20
1.6814398258
 40
0.9777820553
100
AcDbArc
 50
93.0260481167
 51
93.5795064298
  0
ARC
  5
293
100
AcDbEntity
  8
ALL_ASSEMBLY_MEMBERS
100
AcDbCircle
 62
7
  6
CONTINUOUS
 10
4.5730337079
 20
1.6814398258
 40
0.9776050566
100
AcDbArc
 50
87.494863994
 51
87.7756333968
  0
ARC
  5
294
100
AcDbEntity
  8
ALL_ASSEMBLY_MEMBERS
100
AcDbCircle
 62
7
  6
CONTINUOUS
 10
4.5730337079
 20
1.6814398258
 40
0.9776050566
100
AcDbArc
 50
86.1101398784
 51
86.3914003288
  0
ARC
  5
295
100
AcDbEntity
  8
ALL_ASSEMBLY_MEMBERS
100
AcDbCircle
 62
7
  6
CONTINUOUS
 10
4.5730337079
 20
1.6814398258
 40
0.9776050566
100
AcDbArc
 50
93.5959386537
 51
93.8770667218
  0
ARC
  5
296
100
AcDbEntity
  8
ALL_ASSEMBLY_MEMBERS
100
AcDbCircle
 62
7
  6
CONTINUOUS
 10
4.5736694773
 20
1.6895407112
 40
0.9696626304
100
AcDbArc
 50
89.7011413425
 51
89.8794192351
  0
ARC
  5
297
100
AcDbEntity
  8
ALL_ASSEMBLY_MEMBERS
100
AcDbCircle
 62
7
  6
CONTINUOUS
 10
4.574504128
 20
1.7187802396
 40
0.940422112
100
AcDbArc
 50
88.6789083544
 51
88.812872778
  0
ARC
  5
298
100
AcDbEntity
  8
ALL_ASSEMBLY_MEMBERS
100
AcDbCircle
 62
7
  6
CONTINUOUS
 10
4.5736708613
 20
1.741261459
 40
0.9179634629
100
AcDbArc
 50
89.0245712388
 51
89.3329989319
  0
ARC
  5
299
100
AcDbEntity
  8
ALL_ASSEMBLY_MEMBERS
100
AcDbCircle
 62
7
  6
CONTINUOUS
 10
4.5740115904
 20
1.7597863441
 40
0.8994354585
100
AcDbArc
 50
88.8180947087
 51
89.0088033782
  0
ARC
  5
29A
100
AcDbEntity
  8
ALL_ASSEMBLY_MEMBERS
100
AcDbCircle
 62
7
  6
CONTINUOUS
 10
4.5770677102
 20
1.8983374037
 40
0.760850683
100
AcDbArc
 50
88.5965820165
 51
88.7546925836
  0
ARC
  5
29B
100
AcDbEntity
  8
ALL_ASSEMBLY_MEMBERS
100
AcDbCircle
 62
7
  6
CONTINUOUS
 10
4.5904251009
 20
2.290459297
 40
0.3685204605
100
AcDbArc
 50
88.07139186
 51
88.3036291556
  0
ARC
  5
29C
100
AcDbEntity
  8
0
100
AcDbCircle
 62
7
  6
CONTINUOUS
 10
4.5730337079
 20
1.9946032873
 40
0.296875
100
AcDbArc
 50
157.9196589698
 51
22.0803410302
  0
ARC
  5
29D
100
AcDbEntity
  8
0
100
AcDbCircle
 62
7
  6
CONTINUOUS
 10
4.5730337079
 20
1.9946032873
 40
0.275
100
AcDbArc
 50
176.5574143948
 51
3.4425856096
  0
ARC
  5
29E
100
AcDbEntity
  8
0
100
AcDbCircle
 62
7
  6
CONTINUOUS
 10
4.5730337079
 20
1.9946032873
 40
0.24
100
AcDbArc
 50
176.7148530239
 51
3.2851469759
  0
ARC
  5
29F
100
AcDbEntity
  8
0
100
AcDbCircle
 62
7
  6
CONTINUOUS
 10
4.5730337079
 20
1.9946032873
 40
0.2375
100
AcDbArc
 50
179.9999999949
 51
360.0
  0
ARC
  5
2A0
100
AcDbEntity
  8
ALL_ASSEMBLY_MEMBERS
100
AcDbCircle
 62
7
  6
CONTINUOUS
 10
4.6050503645
 20
3.1758676027
 40
0.5170893601
100
AcDbArc
 50
269.0277311272
 51
269.2614247337
  0
ARC
  5
2A1
100
AcDbEntity
  8
ALL_ASSEMBLY_MEMBERS
100
AcDbCircle
 62
7
  6
CONTINUOUS
 10
4.6057542677
 20
3.0238247156
 40
0.3651592005
100
AcDbArc
 50
269.0747512216
 51
269.5233126981
  0
ARC
  5
2A2
100
AcDbEntity
  8
ALL_ASSEMBLY_MEMBERS
100
AcDbCircle
 62
7
  6
CONTINUOUS
 10
4.5884733797
 20
2.9214867928
 40
0.2624477456
100
AcDbArc
 50
268.5061035388
 51
268.8920957554
  0
ARC
  5
2A3
100
AcDbEntity
  8
ALL_ASSEMBLY_MEMBERS
100
AcDbCircle
 62
7
  6
CONTINUOUS
 10
4.5914596671
 20
2.4377288006
 40
0.2212667218
100
AcDbArc
 50
88.0688604314
 51
88.4826497138
  0
ARC
  5
2A4
100
AcDbEntity
  8
ALL_ASSEMBLY_MEMBERS
100
AcDbCircle
 62
7
  6
CONTINUOUS
 10
4.6003245181
 20
2.8215522672
 40
0.1627426217
100
AcDbArc
 50
269.317140094
 51
269.4504215
  0
ARC
  5
2A5
100
AcDbEntity
  8
ALL_ASSEMBLY_MEMBERS
100
AcDbCircle
 62
7
  6
CONTINUOUS
 10
4.5977491255
 20
2.5087261768
 40
0.1501307027
100
AcDbArc
 50
87.8586710535
 51
87.9735688937
  0
ARC
  5
2A6
100
AcDbEntity
  8
0
100
AcDbCircle
 62
7
  6
CONTINUOUS
 10
4.8430337079
 20
2.0133532873
 40
0.005
100
AcDbArc
 50
270.0
 51
360.0
  0
ARC
  5
2A7
100
AcDbEntity
  8
ALL_ASSEMBLY_MEMBERS
100
AcDbCircle
 62
7
  6
CONTINUOUS
 10
4.8034701195
 20
2.5813532873
 40
0.09375
100
AcDbArc
 50
205.0110160223
 51
270.0
  0
ARC
  5
2A8
100
AcDbEntity
  8
ALL_ASSEMBLY_MEMBERS
100
AcDbCircle
 62
7
  6
CONTINUOUS
 10
4.9172837079
 20
2.3861032873
 40
0.01175
100
AcDbArc
 50
3.9776441351
 51
90.0
  0
ARC
  5
2A9
100
AcDbEntity
  8
ALL_ASSEMBLY_MEMBERS
100
AcDbCircle
 62
7
  6
CONTINUOUS
 10
4.9172837079
 20
2.3877334173
 40
0.01175
100
AcDbArc
 50
278.9999999999
 51
356.0223558649
  0
ARC
  5
2AA
100
AcDbEntity
  8
0
100
AcDbCircle
 62
7
  6
CONTINUOUS
 10
4.5738804508
 20
7.7537185426
 40
0.4054022537
100
AcDbArc
 50
355.4952647839
 51
0.000335166
  0
ARC
  5
2AB
100
AcDbEntity
  8
ALL_ASSEMBLY_MEMBERS
100
AcDbCircle
 62
7
  6
CONTINUOUS
 10
4.5730337919
 20
7.7613461863
 40
0.3980385233
100
AcDbArc
 50
273.2404847121
 51
277.9531088509
  0
ARC
  5
2AC
100
AcDbEntity
  8
ALL_ASSEMBLY_MEMBERS
100
AcDbCircle
 62
7
  6
CONTINUOUS
 10
4.5730341081
 20
7.7637066514
 40
0.3884919287
100
AcDbArc
 50
268.1560908517
 51
269.9999409743
  0
ARC
  5
2AD
100
AcDbEntity
  8
ALL_ASSEMBLY_MEMBERS
100
AcDbCircle
 62
7
  6
CONTINUOUS
 10
4.5730813384
 20
7.7665356696
 40
0.0628673768
100
AcDbArc
 50
269.9565941223
 51
359.9558231863
  0
ARC
  5
2AE
100
AcDbEntity
  8
ALL_ASSEMBLY_MEMBERS
100
AcDbCircle
 62
7
  6
CONTINUOUS
 10
4.5730954765
 20
7.7667890262
 40
0.0599419707
100
AcDbArc
 50
278.3334616632
 51
359.9656461981
  0
ARC
  5
2AF
100
AcDbEntity
  8
ALL_ASSEMBLY_MEMBERS
100
AcDbCircle
 62
7
  6
CONTINUOUS
 10
4.5730954778
 20
7.7667171512
 40
0.05994197
100
AcDbArc
 50
0.0343527309
 51
81.6665393944
  0
ARC
  5
2B0
100
AcDbEntity
  8
ALL_ASSEMBLY_MEMBERS
100
AcDbCircle
 62
7
  6
CONTINUOUS
 10
4.5730955843
 20
7.7664000879
 40
0.0599418525
100
AcDbArc
 50
278.3990655353
 51
359.9657096104
  0
ARC
  5
2B1
100
AcDbEntity
  8
ALL_ASSEMBLY_MEMBERS
100
AcDbCircle
 62
7
  6
CONTINUOUS
 10
4.5730337623
 20
7.7659974964
 40
0.0565294412
100
AcDbArc
 50
81.0956358874
 51
90.0000551806
  0
ARC
  5
2B2
100
AcDbEntity
  8
ALL_ASSEMBLY_MEMBERS
100
AcDbCircle
 62
7
  6
CONTINUOUS
 10
4.5730337623
 20
7.7663039098
 40
0.0565294412
100
AcDbArc
 50
269.9999448194
 51
278.9043641126
  0
LINE
  5
2B3
100
AcDbEntity
  8
ALL_ASSEMBLY_MEMBERS
100
AcDbLine
 62
7
  6
CONTINUOUS
 10
4.5649862228
 20
2.6590585028
 11
4.5647008788
 21
2.65919278
  0
LINE
  5
2B4
100
AcDbEntity
  8
ALL_ASSEMBLY_MEMBERS
100
AcDbLine
 62
7
  6
CONTINUOUS
 10
4.5072625676
 20
2.6570137249
 11
4.5075379805
 21
2.6569046522
  0
SPLINE
  5
2B5
100
AcDbEntity
  8
ALL_ASSEMBLY_MEMBERS
100
AcDbSpline
 62
7
  6
CONTINUOUS
 70
0
 71
3
 72
9
 73
5
 74
0
 42
0.0000001
 43
0.0000001
 44
0.0000000001
 40
0.0
 40
0.0
 40
0.0
 40
0.0
 40
0.2414308759
 40
1.0
 40
1.0
 40
1.0
 40
1.0
 10
4.5075379805
 20
2.6569046522
 30
0.0
 10
4.5075426289
 20
2.6569006567
 30
0.0
 10
4.5075616587
 20
2.6568838477
 30
0.0
 10
4.5075798089
 20
2.6568660524
 30
0.0
 10
4.5075931229
 20
2.6568521368
 30
0.0
  0
LINE
  5
2B6
100
AcDbEntity
  8
ALL_ASSEMBLY_MEMBERS
100
AcDbLine
 62
7
  6
CONTINUOUS
 10
4.6349541096
 20
2.6572598321
 11
4.6351955947
 21
2.6570984119
  0
LINE
  5
2B7
100
AcDbEntity
  8
ALL_ASSEMBLY_MEMBERS
100
AcDbLine
 62
7
  6
CONTINUOUS
 10
4.611307823
 20
2.6584789077
 11
4.6116108262
 21
2.6583127679
  0
LINE
  5
2B8
100
AcDbEntity
  8
ALL_ASSEMBLY_MEMBERS
100
AcDbLine
 62
7
  6
CONTINUOUS
 10
4.5999209314
 20
2.6588585291
 11
4.6001905887
 21
2.6588510899
  0
LINE
  5
2B9
100
AcDbEntity
  8
ALL_ASSEMBLY_MEMBERS
100
AcDbLine
 62
7
  6
CONTINUOUS
 10
4.5936033412
 20
2.6590083871
 11
4.5939876017
 21
2.6590005026
  0
LINE
  5
2BA
100
AcDbEntity
  8
ALL_ASSEMBLY_MEMBERS
100
AcDbLine
 62
7
  6
CONTINUOUS
 10
4.5961858945
 20
2.6589523779
 11
4.5970796386
 21
2.658931336
  0
LINE
  5
2BB
100
AcDbEntity
  8
ALL_ASSEMBLY_MEMBERS
100
AcDbLine
 62
7
  6
CONTINUOUS
 10
4.5970796386
 20
2.658931336
 11
4.5975370994
 21
2.6589202322
  0
LINE
  5
2BC
100
AcDbEntity
  8
ALL_ASSEMBLY_MEMBERS
100
AcDbLine
 62
7
  6
CONTINUOUS
 10
4.5975370994
 20
2.6589202322
 11
4.5979985068
 21
2.6589088046
  0
LINE
  5
2BD
100
AcDbEntity
  8
ALL_ASSEMBLY_MEMBERS
100
AcDbLine
 62
7
  6
CONTINUOUS
 10
4.5979985068
 20
2.6589088046
 11
4.5984609051
 21
2.6588971202
  0
LINE
  5
2BE
100
AcDbEntity
  8
ALL_ASSEMBLY_MEMBERS
100
AcDbLine
 62
7
  6
CONTINUOUS
 10
4.5214163241
 20
2.6578644548
 11
4.5217965737
 21
2.657884479
  0
LINE
  5
2BF
100
AcDbEntity
  8
ALL_ASSEMBLY_MEMBERS
100
AcDbLine
 62
7
  6
CONTINUOUS
 10
4.5217965737
 20
2.657884479
 11
4.5228803833
 21
2.6579407015
  0
LINE
  5
2C0
100
AcDbEntity
  8
ALL_ASSEMBLY_MEMBERS
100
AcDbLine
 62
7
  6
CONTINUOUS
 10
4.5775649357
 20
2.6591233472
 11
4.5757101612
 21
2.6592011943
  0
LINE
  5
2C1
100
AcDbEntity
  8
ALL_ASSEMBLY_MEMBERS
100
AcDbLine
 62
7
  6
CONTINUOUS
 10
4.5826924329
 20
2.6590133115
 11
4.5775649357
 21
2.6591233472
  0
LINE
  5
2C2
100
AcDbEntity
  8
ALL_ASSEMBLY_MEMBERS
100
AcDbLine
 62
7
  6
CONTINUOUS
 10
4.5978860063
 20
2.6587448082
 11
4.5909069987
 21
2.6588687551
  0
LINE
  5
2C3
100
AcDbEntity
  8
ALL_ASSEMBLY_MEMBERS
100
AcDbLine
 62
7
  6
CONTINUOUS
 10
4.5998577004
 20
2.6587131269
 11
4.5978860063
 21
2.6587448082
  0
LINE
  5
2C4
100
AcDbEntity
  8
ALL_ASSEMBLY_MEMBERS
100
AcDbLine
 62
7
  6
CONTINUOUS
 10
4.6044776286
 20
2.6586878148
 11
4.6027162647
 21
2.6586781529
  0
LINE
  5
2C5
100
AcDbEntity
  8
ALL_ASSEMBLY_MEMBERS
100
AcDbLine
 62
7
  6
CONTINUOUS
 10
4.6160754055
 20
2.6582798896
 11
4.6157637907
 21
2.6581105925
  0
LINE
  5
2C6
100
AcDbEntity
  8
ALL_ASSEMBLY_MEMBERS
100
AcDbLine
 62
7
  6
CONTINUOUS
 10
4.6396815566
 20
2.6569542233
 11
4.6393510013
 21
2.6567606049
  0
LINE
  5
2C7
100
AcDbEntity
  8
ALL_ASSEMBLY_MEMBERS
100
AcDbLine
 62
7
  6
CONTINUOUS
 10
4.5119873118
 20
2.657314349
 11
4.5117185383
 21
2.6571201508
  0
LINE
  5
2C8
100
AcDbEntity
  8
ALL_ASSEMBLY_MEMBERS
100
AcDbLine
 62
7
  6
CONTINUOUS
 10
4.5319252229
 20
2.6583637368
 11
4.5316082607
 21
2.6583502239
  0
LINE
  5
2C9
100
AcDbEntity
  8
ALL_ASSEMBLY_MEMBERS
100
AcDbLine
 62
7
  6
CONTINUOUS
 10
4.5279338725
 20
2.6581840416
 11
4.5263637721
 21
2.6581090527
  0
LINE
  5
2CA
100
AcDbEntity
  8
ALL_ASSEMBLY_MEMBERS
100
AcDbLine
 62
7
  6
CONTINUOUS
 10
4.5229806803
 20
2.657940086
 11
4.5214166425
 21
2.6578585006
  0
LINE
  5
2CB
100
AcDbEntity
  8
ALL_ASSEMBLY_MEMBERS
100
AcDbLine
 62
7
  6
CONTINUOUS
 10
4.5214166425
 20
2.6578585006
 11
4.5212642895
 21
2.6578504335
  0
LINE
  5
2CC
100
AcDbEntity
  8
ALL_ASSEMBLY_MEMBERS
100
AcDbLine
 62
7
  6
CONTINUOUS
 10
4.5321016654
 20
2.6583711659
 11
4.5319252229
 21
2.6583637368
  0
LINE
  5
2CD
100
AcDbEntity
  8
ALL_ASSEMBLY_MEMBERS
100
AcDbLine
 62
7
  6
CONTINUOUS
 10
4.5421933594
 20
2.658662402
 11
4.5411762391
 21
2.6586775517
  0
LINE
  5
2CE
100
AcDbEntity
  8
ALL_ASSEMBLY_MEMBERS
100
AcDbLine
 62
7
  6
CONTINUOUS
 10
4.5411762391
 20
2.6586775517
 11
4.5409801723
 21
2.6586951674
  0
LINE
  5
2CF
100
AcDbEntity
  8
ALL_ASSEMBLY_MEMBERS
100
AcDbLine
 62
7
  6
CONTINUOUS
 10
4.5467224681
 20
2.6587129575
 11
4.5457627309
 21
2.6586975707
  0
LINE
  5
2D0
100
AcDbEntity
  8
ALL_ASSEMBLY_MEMBERS
100
AcDbLine
 62
7
  6
CONTINUOUS
 10
4.5457627309
 20
2.6586975707
 11
4.5421933594
 21
2.658662402
  0
LINE
  5
2D1
100
AcDbEntity
  8
ALL_ASSEMBLY_MEMBERS
100
AcDbLine
 62
7
  6
CONTINUOUS
 10
4.5550080504
 20
2.658865957
 11
4.5467224681
 21
2.6587129575
  0
LINE
  5
2D2
100
AcDbEntity
  8
ALL_ASSEMBLY_MEMBERS
100
AcDbLine
 62
7
  6
CONTINUOUS
 10
4.568037533
 20
2.6591417497
 11
4.5634826825
 21
2.659025182
  0
LINE
  5
2D3
100
AcDbEntity
  8
ALL_ASSEMBLY_MEMBERS
100
AcDbLine
 62
7
  6
CONTINUOUS
 10
4.5694359921
 20
2.6592172326
 11
4.568037533
 21
2.6591417497
  0
LINE
  5
2D4
100
AcDbEntity
  8
ALL_ASSEMBLY_MEMBERS
100
AcDbLine
 62
7
  6
CONTINUOUS
 10
4.5936032807
 20
2.6590083817
 11
4.5925639541
 21
2.6590304454
  0
LINE
  5
2D5
100
AcDbEntity
  8
ALL_ASSEMBLY_MEMBERS
100
AcDbLine
 62
7
  6
CONTINUOUS
 10
4.5973187353
 20
2.6589179357
 11
4.5963522781
 21
2.6589435536
  0
LINE
  5
2D6
100
AcDbEntity
  8
ALL_ASSEMBLY_MEMBERS
100
AcDbLine
 62
7
  6
CONTINUOUS
 10
4.5963522781
 20
2.6589435536
 11
4.5957023246
 21
2.6589598548
  0
LINE
  5
2D7
100
AcDbEntity
  8
ALL_ASSEMBLY_MEMBERS
100
AcDbLine
 62
7
  6
CONTINUOUS
 10
4.5802325037
 20
2.6591811309
 11
4.5816312468
 21
2.6591282511
  0
LINE
  5
2D8
100
AcDbEntity
  8
ALL_ASSEMBLY_MEMBERS
100
AcDbLine
 62
7
  6
CONTINUOUS
 10
4.6345644783
 20
2.6571065777
 11
4.6348760932
 21
2.6572700454
  0
LINE
  5
2D9
100
AcDbEntity
  8
ALL_ASSEMBLY_MEMBERS
100
AcDbLine
 62
7
  6
CONTINUOUS
 10
4.5457665478
 20
2.6588403054
 11
4.5465115918
 21
2.6588152447
  0
LINE
  5
2DA
100
AcDbEntity
  8
ALL_ASSEMBLY_MEMBERS
100
AcDbLine
 62
7
  6
CONTINUOUS
 10
4.5546675301
 20
2.6589397441
 11
4.5555375235
 21
2.6589559776
  0
LINE
  5
2DB
100
AcDbEntity
  8
ALL_ASSEMBLY_MEMBERS
100
AcDbLine
 62
7
  6
CONTINUOUS
 10
4.5555375235
 20
2.6589559776
 11
4.5563670854
 21
2.6589712988
  0
LINE
  5
2DC
100
AcDbEntity
  8
ALL_ASSEMBLY_MEMBERS
100
AcDbLine
 62
7
  6
CONTINUOUS
 10
4.5563670854
 20
2.6589712988
 11
4.5622360828
 21
2.6590880453
  0
LINE
  5
2DD
100
AcDbEntity
  8
ALL_ASSEMBLY_MEMBERS
100
AcDbLine
 62
7
  6
CONTINUOUS
 10
4.5069320124
 20
2.6568075577
 11
4.5072625676
 21
2.6570137249
  0
LINE
  5
2DE
100
AcDbEntity
  8
ALL_ASSEMBLY_MEMBERS
100
AcDbLine
 62
7
  6
CONTINUOUS
 10
4.6033586903
 20
2.6587520436
 11
4.6044255942
 21
2.6586995724
  0
SPLINE
  5
2DF
100
AcDbEntity
  8
ALL_ASSEMBLY_MEMBERS
100
AcDbSpline
 62
7
  6
CONTINUOUS
 70
0
 71
3
 72
11
 73
7
 74
0
 42
0.0000001
 43
0.0000001
 44
0.0000000001
 40
0.0
 40
0.0
 40
0.0
 40
0.0
 40
0.433056003
 40
0.7407662741
 40
0.9268252235
 40
1.0
 40
1.0
 40
1.0
 40
1.0
 10
4.6044255942
 20
2.6586995724
 30
0.0
 10
4.6044335197
 20
2.6586987544
 30
0.0
 10
4.6044467908
 20
2.6586972545
 30
0.0
 10
4.6044645035
 20
2.6586947532
 30
0.0
 10
4.604473254
 20
2.6586926505
 30
0.0
 10
4.6044793868
 20
2.6586907977
 30
0.0
 10
4.6044793997
 20
2.6586894515
 30
0.0
  0
LINE
  5
2E0
100
AcDbEntity
  8
ALL_ASSEMBLY_MEMBERS
100
AcDbLine
 62
7
  6
CONTINUOUS
 10
4.6001905887
 20
2.6588510899
 11
4.6013343867
 21
2.6588182486
  0
LINE
  5
2E1
100
AcDbEntity
  8
ALL_ASSEMBLY_MEMBERS
100
AcDbLine
 62
7
  6
CONTINUOUS
 10
4.6028273644
 20
2.6587710042
 11
4.6030578255
 21
2.658762991
  0
LINE
  5
2E2
100
AcDbEntity
  8
ALL_ASSEMBLY_MEMBERS
100
AcDbLine
 62
7
  6
CONTINUOUS
 10
4.5622360828
 20
2.6590880453
 11
4.5641964348
 21
2.6591564048
  0
LINE
  5
2E3
100
AcDbEntity
  8
ALL_ASSEMBLY_MEMBERS
100
AcDbLine
 62
7
  6
CONTINUOUS
 10
4.5641964348
 20
2.6591564048
 11
4.5646330924
 21
2.6591856183
  0
LINE
  5
2E4
100
AcDbEntity
  8
ALL_ASSEMBLY_MEMBERS
100
AcDbLine
 62
7
  6
CONTINUOUS
 10
4.6109772677
 20
2.6583082575
 11
4.611307823
 21
2.6584789077
  0
LINE
  5
2E5
100
AcDbEntity
  8
ALL_ASSEMBLY_MEMBERS
100
AcDbLine
 62
7
  6
CONTINUOUS
 10
4.5987635222
 20
2.6588171321
 11
4.5998172683
 21
2.6588177236
  0
SPLINE
  5
2E6
100
AcDbEntity
  8
ALL_ASSEMBLY_MEMBERS
100
AcDbSpline
 62
7
  6
CONTINUOUS
 70
0
 71
3
 72
9
 73
5
 74
0
 42
0.0000001
 43
0.0000001
 44
0.0000000001
 40
0.0
 40
0.0
 40
0.0
 40
0.0
 40
0.682742472
 40
1.0
 40
1.0
 40
1.0
 40
1.0
 10
4.5998172683
 20
2.6588177236
 30
0.0
 10
4.5998262706
 20
2.6588181991
 30
0.0
 10
4.5998391842
 20
2.6588195313
 30
0.0
 10
4.59985282
 20
2.6588201804
 30
0.0
 10
4.5998565967
 20
2.6588219928
 30
0.0
  0
LINE
  5
2E7
100
AcDbEntity
  8
ALL_ASSEMBLY_MEMBERS
100
AcDbLine
 62
7
  6
CONTINUOUS
 10
4.5956126141
 20
2.6588639639
 11
4.5962761448
 21
2.6588526906
  0
LINE
  5
2E8
100
AcDbEntity
  8
ALL_ASSEMBLY_MEMBERS
100
AcDbLine
 62
7
  6
CONTINUOUS
 10
4.5907634063
 20
2.6589510972
 11
4.5909084751
 21
2.6589484644
  0
LINE
  5
2E9
100
AcDbEntity
  8
ALL_ASSEMBLY_MEMBERS
100
AcDbLine
 62
7
  6
CONTINUOUS
 10
4.5925136258
 20
2.6589192355
 11
4.5956126141
 21
2.6588639639
  0
LINE
  5
2EA
100
AcDbEntity
  8
ALL_ASSEMBLY_MEMBERS
100
AcDbLine
 62
7
  6
CONTINUOUS
 10
4.5852293676
 20
2.6590522493
 11
4.5894074516
 21
2.6589755892
  0
LINE
  5
2EB
100
AcDbEntity
  8
ALL_ASSEMBLY_MEMBERS
100
AcDbLine
 62
7
  6
CONTINUOUS
 10
4.5894074516
 20
2.6589755892
 11
4.5907634063
 21
2.6589510972
  0
LINE
  5
2EC
100
AcDbEntity
  8
ALL_ASSEMBLY_MEMBERS
100
AcDbLine
 62
7
  6
CONTINUOUS
 10
4.5833988549
 20
2.6590881107
 11
4.5842675785
 21
2.6590707777
  0
LINE
  5
2ED
100
AcDbEntity
  8
ALL_ASSEMBLY_MEMBERS
100
AcDbLine
 62
7
  6
CONTINUOUS
 10
4.5842675785
 20
2.6590707777
 11
4.5852293676
 21
2.6590522493
  0
SPLINE
  5
2EE
100
AcDbEntity
  8
0
100
AcDbSpline
 62
7
  6
CONTINUOUS
 70
0
 71
3
 72
45
 73
41
 74
0
 42
0.0000001
 43
0.0000001
 44
0.0000000001
 40
0.0
 40
0.0
 40
0.0
 40
0.0
 40
0.0312224221
 40
0.0468452619
 40
0.0624657782
 40
0.093694381
 40
0.124927225
 40
0.140549725
 40
0.1561729137
 40
0.1874128426
 40
0.2186568352
 40
0.2342848335
 40
0.2499138536
 40
0.2811659932
 40
0.3124220528
 40
0.3280558963
 40
0.3436905983
 40
0.3749533857
 40
0.4062187877
 40
0.421856698
 40
0.4374950213
 40
0.4687635769
 40
0.500032615
 40
0.5156714952
 40
0.531310214
 40
0.5625778156
 40
0.5938436198
 40
0.6251068761
 40
0.6563671062
 40
0.6876238428
 40
0.7188766642
 40
0.7501254647
 40
0.7813702023
 40
0.8126109237
 40
0.843847864
 40
0.8750814548
 40
0.9063127014
 40
0.9375405353
 40
0.9687664685
 40
1.0
 40
1.0
 40
1.0
 40
1.0
 10
4.9780303546
 20
7.7218776473
 30
0.0
 10
4.9770134794
 20
7.7089800058
 30
0.0
 10
4.9745558854
 20
7.6896854809
 30
0.0
 10
4.9694523232
 20
7.6643024328
 30
0.0
 10
4.9631357178
 20
7.6391889797
 30
0.0
 10
4.9529953043
 20
7.6084089531
 30
0.0
 10
4.9399535475
 20
7.5787405335
 30
0.0
 10
4.9278589801
 20
7.555840204
 30
0.0
 10
4.9146789116
 20
7.5335435202
 30
0.0
 10
4.8962243894
 20
7.5068910807
 30
0.0
 10
4.8753021286
 20
7.4821260233
 30
0.0
 10
4.857207904
 20
7.4635845845
 30
0.0
 10
4.8382438543
 20
7.4459288274
 30
0.0
 10
4.8129861489
 20
7.4255873636
 30
0.0
 10
4.7858969394
 20
7.4077539752
 30
0.0
 10
4.7632849171
 20
7.395089516
 30
0.0
 10
4.7400901709
 20
7.3835205749
 30
0.0
 10
4.7100979994
 20
7.3711559952
 30
0.0
 10
4.679060003
 20
7.3617145085
 30
0.0
 10
4.6537817379
 20
7.3559641218
 30
0.0
 10
4.6282560496
 20
7.3514293053
 30
0.0
 10
4.5959858104
 20
7.348053928
 30
0.0
 10
4.5635404799
 20
7.3477775946
 30
0.0
 10
4.5376658907
 20
7.3494123999
 30
0.0
 10
4.5118998779
 20
7.3522827442
 30
0.0
 10
4.4799931689
 20
7.3581732273
 30
0.0
 10
4.4425655346
 20
7.3688640834
 30
0.0
 10
4.4063305429
 20
7.3830780179
 30
0.0
 10
4.3716216427
 20
7.4006843064
 30
0.0
 10
4.3387570102
 20
7.4215237149
 30
0.0
 10
4.30803718
 20
7.4454043047
 30
0.0
 10
4.2797425972
 20
7.4721068424
 30
0.0
 10
4.2541338114
 20
7.5013884619
 30
0.0
 10
4.2314446684
 20
7.5329802401
 30
0.0
 10
4.2118818114
 20
7.5665923669
 30
0.0
 10
4.1956260048
 20
7.6019184919
 30
0.0
 10
4.1828263489
 20
7.6386341218
 30
0.0
 10
4.1735972567
 20
7.6764034138
 30
0.0
 10
4.1680252461
 20
7.7148800379
 30
0.0
 10
4.1667846554
 20
7.7407786438
 30
0.0
 10
4.1667847111
 20
7.7537209128
 30
0.0
  0
SPLINE
  5
2EF
100
AcDbEntity
  8
ALL_ASSEMBLY_MEMBERS
100
AcDbSpline
 62
7
  6
CONTINUOUS
 70
0
 71
3
 72
19
 73
15
 74
0
 42
0.0000001
 43
0.0000001
 44
0.0000000001
 40
0.0
 40
0.0
 40
0.0
 40
0.0
 40
0.1249036651
 40
0.2498358597
 40
0.3123297877
 40
0.3748322417
 40
0.4373404872
 40
0.4998528544
 40
0.5623701684
 40
0.6248931945
 40
0.6874200479
 40
0.7499476481
 40
0.8749730943
 40
1.0
 40
1.0
 40
1.0
 40
1.0
 10
4.2185096902
 20
7.6053338743
 30
0.0
 10
4.2247079452
 20
7.5914010568
 30
0.0
 10
4.2387678788
 20
7.5642402623
 30
0.0
 10
4.2602225126
 20
7.5326048391
 30
0.0
 10
4.2795266186
 20
7.5089543634
 30
0.0
 10
4.2950329664
 20
7.4920949969
 30
0.0
 10
4.3115077751
 20
7.4761783367
 30
0.0
 10
4.3288959092
 20
7.4612618313
 30
0.0
 10
4.347134491
 20
7.4473951084
 30
0.0
 10
4.3661617804
 20
7.4346292123
 30
0.0
 10
4.3859100091
 20
7.4230059914
 30
0.0
 10
4.4131036186
 20
7.4090909503
 30
0.0
 10
4.4485659778
 20
7.394743685
 30
0.0
 10
4.4780965694
 20
7.3866854042
 30
0.0
 10
4.4930337079
 20
7.3835417153
 30
0.0
  0
SPLINE
  5
2F0
100
AcDbEntity
  8
ALL_ASSEMBLY_MEMBERS
100
AcDbSpline
 62
7
  6
CONTINUOUS
 70
0
 71
3
 72
19
 73
15
 74
0
 42
0.0000001
 43
0.0000001
 44
0.0000000001
 40
0.0
 40
0.0
 40
0.0
 40
0.0
 40
0.1250269057
 40
0.2500523519
 40
0.3125799521
 40
0.3751068055
 40
0.4376298316
 40
0.5001471456
 40
0.5626595128
 40
0.6251677583
 40
0.6876702123
 40
0.7501641403
 40
0.8750963349
 40
1.0
 40
1.0
 40
1.0
 40
1.0
 10
4.6530337079
 20
7.3835417153
 30
0.0
 10
4.6679708463
 20
7.3866854042
 30
0.0
 10
4.6975014379
 20
7.394743685
 30
0.0
 10
4.7329637971
 20
7.4090909503
 30
0.0
 10
4.7601574066
 20
7.4230059914
 30
0.0
 10
4.7799056353
 20
7.4346292123
 30
0.0
 10
4.7989329247
 20
7.4473951084
 30
0.0
 10
4.8171715065
 20
7.4612618313
 30
0.0
 10
4.8345596406
 20
7.4761783367
 30
0.0
 10
4.8510344494
 20
7.4920949969
 30
0.0
 10
4.8665407971
 20
7.5089543634
 30
0.0
 10
4.8858449031
 20
7.5326048391
 30
0.0
 10
4.9072995369
 20
7.5642402623
 30
0.0
 10
4.9213594706
 20
7.5914010568
 30
0.0
 10
4.9275577255
 20
7.6053338743
 30
0.0
  0
SPLINE
  5
2F1
100
AcDbEntity
  8
ALL_ASSEMBLY_MEMBERS
100
AcDbSpline
 62
7
  6
CONTINUOUS
 70
0
 71
3
 72
13
 73
9
 74
0
 42
0.0000001
 43
0.0000001
 44
0.0000000001
 40
0.0
 40
0.0
 40
0.0
 40
0.0
 40
0.3068714419
 40
0.5874967488
 40
0.7121776195
 40
0.8237386976
 40
0.9202853115
 40
1.0
 40
1.0
 40
1.0
 40
1.0
 10
4.1982931911
 20
7.6278708611
 30
0.0
 10
4.1986424388
 20
7.6268850105
 30
0.0
 10
4.1993784736
 20
7.6250208576
 30
0.0
 10
4.200434418
 20
7.6228319578
 30
0.0
 10
4.201310345
 20
7.621302825
 30
0.0
 10
4.2019280803
 20
7.6203505882
 30
0.0
 10
4.2025192957
 20
7.6195668973
 30
0.0
 10
4.2029267428
 20
7.6191227444
 30
0.0
 10
4.2031269017
 20
7.6189390349
 30
0.0
  0
SPLINE
  5
2F2
100
AcDbEntity
  8
ALL_ASSEMBLY_MEMBERS
100
AcDbSpline
 62
7
  6
CONTINUOUS
 70
0
 71
3
 72
33
 73
29
 74
0
 42
0.0000001
 43
0.0000001
 44
0.0000000001
 40
0.0
 40
0.0
 40
0.0
 40
0.0
 40
0.0312397877
 40
0.0624818915
 40
0.0937200544
 40
0.1249580808
 40
0.187405094
 40
0.2498524174
 40
0.2810909223
 40
0.312330423
 40
0.3435711769
 40
0.3748134428
 40
0.4060574674
 40
0.4373034493
 40
0.4997741008
 40
0.5622543805
 40
0.5935122527
 40
0.6247726862
 40
0.6560356453
 40
0.6873010816
 40
0.7185689023
 40
0.7498389613
 40
0.812357351
 40
0.8748825069
 40
0.9061608251
 40
0.9374393652
 40
0.9687213726
 40
1.0
 40
1.0
 40
1.0
 40
1.0
 10
4.1982931911
 20
7.6278708611
 30
0.0
 10
4.1956549666
 20
7.6353179976
 30
0.0
 10
4.1908225165
 20
7.650374534
 30
0.0
 10
4.1849367223
 20
7.6733478973
 30
0.0
 10
4.1804343979
 20
7.6966331949
 30
0.0
 10
4.1762982954
 20
7.7279705222
 30
0.0
 10
4.1746531053
 20
7.7675231044
 30
0.0
 10
4.177742309
 20
7.8069892448
 30
0.0
 10
4.1830206131
 20
7.8381551407
 30
0.0
 10
4.1883706068
 20
7.8612603296
 30
0.0
 10
4.1950919172
 20
7.8840047012
 30
0.0
 10
4.2031602176
 20
7.9063080429
 30
0.0
 10
4.2125474387
 20
7.9280913864
 30
0.0
 10
4.2267722761
 20
7.9563295179
 30
0.0
 10
4.2476826284
 20
7.9899621306
 30
0.0
 10
4.2724576503
 20
8.0208623895
 30
0.0
 10
4.2943696356
 20
8.0436704575
 30
0.0
 10
4.31180311
 20
8.0597730932
 30
0.0
 10
4.3301673365
 20
8.0748074472
 30
0.0
 10
4.3493971294
 20
8.0887207632
 30
0.0
 10
4.3694248721
 20
8.1014633902
 30
0.0
 10
4.3970872705
 20
8.1168275424
 30
0.0
 10
4.433314918
 20
8.1328983853
 30
0.0
 10
4.4712008666
 20
8.1445402969
 30
0.0
 10
4.5021632841
 20
8.1510978037
 30
0.0
 10
4.5256468631
 20
8.1546251409
 30
0.0
 10
4.5492973879
 20
8.156745999
 30
0.0
 10
4.5651232478
 20
8.1572181481
 30
0.0
 10
4.5730337079
 20
8.1572181481
 30
0.0
  0
SPLINE
  5
2F3
100
AcDbEntity
  8
ALL_ASSEMBLY_MEMBERS
100
AcDbSpline
 62
7
  6
CONTINUOUS
 70
0
 71
3
 72
19
 73
15
 74
0
 42
0.0000001
 43
0.0000001
 44
0.0000000001
 40
0.0
 40
0.0
 40
0.0
 40
0.0
 40
0.1835115711
 40
0.3602852136
 40
0.5231755068
 40
0.6666895122
 40
0.7298409395
 40
0.786655888
 40
0.836894017
 40
0.8805398765
 40
0.9177682909
 40
0.9491449088
 40
0.9758814001
 40
1.0
 40
1.0
 40
1.0
 40
1.0
 10
4.5505337079
 20
7.3639440979
 30
0.0
 10
4.5511881475
 20
7.3639070455
 30
0.0
 10
4.5524753653
 20
7.3638708478
 30
0.0
 10
4.5543444184
 20
7.3639267636
 30
0.0
 10
4.5560637963
 20
7.3640902242
 30
0.0
 10
4.5573665003
 20
7.3643152335
 30
0.0
 10
4.5582790216
 20
7.3645473586
 30
0.0
 10
4.5588584248
 20
7.3647330036
 30
0.0
 10
4.5593578186
 20
7.3649355719
 30
0.0
 10
4.5597738018
 20
7.3651527015
 30
0.0
 10
4.560103917
 20
7.3653828554
 30
0.0
 10
4.5603460109
 20
7.3656258745
 30
0.0
 10
4.5604978217
 20
7.3658820072
 30
0.0
 10
4.5605337079
 20
7.3660649066
 30
0.0
 10
4.5605337079
 20
7.3661510562
 30
0.0
  0
SPLINE
  5
2F4
100
AcDbEntity
  8
ALL_ASSEMBLY_MEMBERS
100
AcDbSpline
 62
7
  6
CONTINUOUS
 70
0
 71
3
 72
13
 73
9
 74
0
 42
0.0000001
 43
0.0000001
 44
0.0000000001
 40
0.0
 40
0.0
 40
0.0
 40
0.0
 40
0.080685729
 40
0.1774840464
 40
0.2891386813
 40
0.4139608923
 40
0.694882579
 40
1.0
 40
1.0
 40
1.0
 40
1.0
 10
4.5086881347
 20
7.3702156472
 30
0.0
 10
4.5088925074
 20
7.3700467618
 30
0.0
 10
4.5093752023
 20
7.3697155755
 30
0.0
 10
4.5102122408
 20
7.3692640503
 30
0.0
 10
4.5112157879
 20
7.3688231214
 30
0.0
 10
4.5128136084
 20
7.3682398038
 30
0.0
 10
4.5150703346
 20
7.3676217991
 30
0.0
 10
4.5169670378
 20
7.3672748628
 30
0.0
 10
4.5179599732
 20
7.3671361419
 30
0.0
  0
SPLINE
  5
2F5
100
AcDbEntity
  8
ALL_ASSEMBLY_MEMBERS
100
AcDbSpline
 62
7
  6
CONTINUOUS
 70
0
 71
3
 72
19
 73
15
 74
0
 42
0.0000001
 43
0.0000001
 44
0.0000000001
 40
0.0
 40
0.0
 40
0.0
 40
0.0
 40
0.0241185999
 40
0.0508550912
 40
0.0822317091
 40
0.1194601235
 40
0.163105983
 40
0.213344112
 40
0.2701590605
 40
0.3333104878
 40
0.4768244932
 40
0.6397147864
 40
0.8164884289
 40
1.0
 40
1.0
 40
1.0
 40
1.0
 10
4.5855337079
 20
7.3661510562
 30
0.0
 10
4.5855337079
 20
7.3660649066
 30
0.0
 10
4.585569594
 20
7.3658820072
 30
0.0
 10
4.5857214048
 20
7.3656258745
 30
0.0
 10
4.5859634987
 20
7.3653828554
 30
0.0
 10
4.5862936139
 20
7.3651527015
 30
0.0
 10
4.5867095972
 20
7.3649355719
 30
0.0
 10
4.5872089909
 20
7.3647330036
 30
0.0
 10
4.5877883941
 20
7.3645473586
 30
0.0
 10
4.5887009155
 20
7.3643152335
 30
0.0
 10
4.5900036194
 20
7.3640902242
 30
0.0
 10
4.5917229974
 20
7.3639267636
 30
0.0
 10
4.5935920505
 20
7.3638708478
 30
0.0
 10
4.5948792682
 20
7.3639070455
 30
0.0
 10
4.5955337079
 20
7.3639440979
 30
0.0
  0
SPLINE
  5
2F6
100
AcDbEntity
  8
ALL_ASSEMBLY_MEMBERS
100
AcDbSpline
 62
7
  6
CONTINUOUS
 70
0
 71
3
 72
33
 73
29
 74
0
 42
0.0000001
 43
0.0000001
 44
0.0000000001
 40
0.0
 40
0.0
 40
0.0
 40
0.0
 40
0.0312397877
 40
0.0624818915
 40
0.0937200544
 40
0.1249580808
 40
0.187405094
 40
0.2498524174
 40
0.2810909223
 40
0.312330423
 40
0.3435711769
 40
0.3748134428
 40
0.4060574674
 40
0.4373034493
 40
0.4997741008
 40
0.5622543805
 40
0.5935122527
 40
0.6247726862
 40
0.6560356453
 40
0.6873010816
 40
0.7185689023
 40
0.7498389613
 40
0.812357351
 40
0.8748825069
 40
0.9061608251
 40
0.9374393652
 40
0.9687213726
 40
1.0
 40
1.0
 40
1.0
 40
1.0
 10
4.9477742246
 20
7.6278708611
 30
0.0
 10
4.9504124491
 20
7.6353179976
 30
0.0
 10
4.9552448992
 20
7.650374534
 30
0.0
 10
4.9611306934
 20
7.6733478973
 30
0.0
 10
4.9656330179
 20
7.6966331949
 30
0.0
 10
4.9697691203
 20
7.7279705222
 30
0.0
 10
4.9714143104
 20
7.7675231044
 30
0.0
 10
4.9683251067
 20
7.8069892448
 30
0.0
 10
4.9630468026
 20
7.8381551407
 30
0.0
 10
4.9576968089
 20
7.8612603296
 30
0.0
 10
4.9509754985
 20
7.8840047012
 30
0.0
 10
4.9429071981
 20
7.9063080429
 30
0.0
 10
4.933519977
 20
7.9280913864
 30
0.0
 10
4.9192951396
 20
7.9563295179
 30
0.0
 10
4.8983847873
 20
7.9899621306
 30
0.0
 10
4.8736097655
 20
8.0208623895
 30
0.0
 10
4.8516977801
 20
8.0436704575
 30
0.0
 10
4.8342643057
 20
8.0597730932
 30
0.0
 10
4.8159000793
 20
8.0748074472
 30
0.0
 10
4.7966702863
 20
8.0887207632
 30
0.0
 10
4.7766425437
 20
8.1014633902
 30
0.0
 10
4.7489801453
 20
8.1168275424
 30
0.0
 10
4.7127524977
 20
8.1328983853
 30
0.0
 10
4.6748665491
 20
8.1445402969
 30
0.0
 10
4.6439041316
 20
8.1510978037
 30
0.0
 10
4.6204205526
 20
8.1546251409
 30
0.0
 10
4.5967700278
 20
8.156745999
 30
0.0
 10
4.580944168
 20
8.1572181481
 30
0.0
 10
4.5730337079
 20
8.1572181481
 30
0.0
  0
SPLINE
  5
2F7
100
AcDbEntity
  8
ALL_ASSEMBLY_MEMBERS
100
AcDbSpline
 62
7
  6
CONTINUOUS
 70
0
 71
3
 72
13
 73
9
 74
0
 42
0.0000001
 43
0.0000001
 44
0.0000000001
 40
0.0
 40
0.0
 40
0.0
 40
0.0
 40
0.0797146885
 40
0.1762613024
 40
0.2878223805
 40
0.4125032512
 40
0.6931285581
 40
1.0
 40
1.0
 40
1.0
 40
1.0
 10
4.942940514
 20
7.6189390349
 30
0.0
 10
4.9431406729
 20
7.6191227444
 30
0.0
 10
4.94354812
 20
7.6195668973
 30
0.0
 10
4.9441393354
 20
7.6203505882
 30
0.0
 10
4.9447570708
 20
7.621302825
 30
0.0
 10
4.9456329977
 20
7.6228319578
 30
0.0
 10
4.9466889421
 20
7.6250208576
 30
0.0
 10
4.9474249769
 20
7.6268850105
 30
0.0
 10
4.9477742246
 20
7.6278708611
 30
0.0
  0
SPLINE
  5
2F8
100
AcDbEntity
  8
ALL_ASSEMBLY_MEMBERS
100
AcDbSpline
 62
7
  6
CONTINUOUS
 70
0
 71
3
 72
13
 73
9
 74
0
 42
0.0000001
 43
0.0000001
 44
0.0000000001
 40
0.0
 40
0.0
 40
0.0
 40
0.0
 40
0.305117421
 40
0.5860391077
 40
0.7108613187
 40
0.8225159536
 40
0.919314271
 40
1.0
 40
1.0
 40
1.0
 40
1.0
 10
4.6281074425
 20
7.3671361419
 30
0.0
 10
4.629100378
 20
7.3672748628
 30
0.0
 10
4.6309970812
 20
7.3676217991
 30
0.0
 10
4.6332538074
 20
7.3682398038
 30
0.0
 10
4.6348516278
 20
7.3688231214
 30
0.0
 10
4.6358551749
 20
7.3692640503
 30
0.0
 10
4.6366922134
 20
7.3697155755
 30
0.0
 10
4.6371749084
 20
7.3700467618
 30
0.0
 10
4.6373792811
 20
7.3702156472
 30
0.0
  0
SPLINE
  5
2F9
100
AcDbEntity
  8
ALL_ASSEMBLY_MEMBERS
100
AcDbSpline
 62
7
  6
CONTINUOUS
 70
0
 71
3
 72
43
 73
39
 74
0
 42
0.0000001
 43
0.0000001
 44
0.0000000001
 40
0.0
 40
0.0
 40
0.0
 40
0.0
 40
0.0312553932
 40
0.0468883543
 40
0.0625214636
 40
0.0937781313
 40
0.1250340382
 40
0.140666452
 40
0.1562987618
 40
0.1875536697
 40
0.2188077782
 40
0.2500608996
 40
0.2813134661
 40
0.3125631085
 40
0.3438088036
 40
0.3750510526
 40
0.4062902908
 40
0.4375271396
 40
0.4687624477
 40
0.4999971018
 40
0.5312316591
 40
0.5624670125
 40
0.593704111
 40
0.6249434438
 40
0.656185668
 40
0.6874315673
 40
0.7186815265
 40
0.7499340051
 40
0.7811878411
 40
0.8124427566
 40
0.8436986239
 40
0.8593313398
 40
0.8749641041
 40
0.9062206496
 40
0.9374778276
 40
0.9531111599
 40
0.9687442947
 40
1.0
 40
1.0
 40
1.0
 40
1.0
 10
4.5730337079
 20
8.1190834767
 30
0.0
 10
4.5614627075
 20
8.1190834767
 30
0.0
 10
4.5440885332
 20
8.1182314762
 30
0.0
 10
4.521109537
 20
8.1154020668
 30
0.0
 10
4.4982942635
 20
8.1114507661
 30
0.0
 10
4.4701803024
 20
8.1044220845
 30
0.0
 10
4.4428897149
 20
8.0946742917
 30
0.0
 10
4.4217161316
 20
8.0853053335
 30
0.0
 10
4.4010275253
 20
8.0749104093
 30
0.0
 10
4.3761594332
 20
8.0600321873
 30
0.0
 10
4.3482176887
 20
8.0393456675
 30
0.0
 10
4.3224366243
 20
8.0160204534
 30
0.0
 10
4.2990682014
 20
7.9902812988
 30
0.0
 10
4.2783376745
 20
7.9623770149
 30
0.0
 10
4.2604459535
 20
7.9325772551
 30
0.0
 10
4.2455662935
 20
7.9011691295
 30
0.0
 10
4.2338421136
 20
7.8684553715
 30
0.0
 10
4.2253854989
 20
7.8347514666
 30
0.0
 10
4.2202783265
 20
7.8003818607
 30
0.0
 10
4.2185708073
 20
7.7656777069
 30
0.0
 10
4.2202781906
 20
7.7309735661
 30
0.0
 10
4.2253839815
 20
7.6966036966
 30
0.0
 10
4.2338399464
 20
7.6628994359
 30
0.0
 10
4.2455642838
 20
7.6301856119
 30
0.0
 10
4.2604432307
 20
7.5987770801
 30
0.0
 10
4.2783339718
 20
7.5689764884
 30
0.0
 10
4.2990646361
 20
7.5410720762
 30
0.0
 10
4.3224330167
 20
7.5153324517
 30
0.0
 10
4.3482138782
 20
7.4920062164
 30
0.0
 10
4.3761560898
 20
7.4713187681
 30
0.0
 10
4.4010247223
 20
7.4564398547
 30
0.0
 10
4.4217139335
 20
7.4460447251
 30
0.0
 10
4.4428878363
 20
7.4366752155
 30
0.0
 10
4.4701789705
 20
7.4269272678
 30
0.0
 10
4.4982933852
 20
7.4198983264
 30
0.0
 10
4.5211089857
 20
7.4159469366
 30
0.0
 10
4.544088236
 20
7.4131174451
 30
0.0
 10
4.5614625919
 20
7.4122654397
 30
0.0
 10
4.5730337079
 20
7.4122654397
 30
0.0
  0
SPLINE
  5
2FA
100
AcDbEntity
  8
ALL_ASSEMBLY_MEMBERS
100
AcDbSpline
 62
7
  6
CONTINUOUS
 70
0
 71
3
 72
23
 73
19
 74
0
 42
0.0000001
 43
0.0000001
 44
0.0000000001
 40
0.0
 40
0.0
 40
0.0
 40
0.0
 40
0.0624370761
 40
0.1249196089
 40
0.1873821733
 40
0.2498436424
 40
0.3123173837
 40
0.3747981587
 40
0.437285886
 40
0.4997815906
 40
0.5622855356
 40
0.624797793
 40
0.687318707
 40
0.749846633
 40
0.8123741879
 40
0.8749125223
 40
0.9374775173
 40
1.0
 40
1.0
 40
1.0
 40
1.0
 10
4.662696675
 20
7.7670920126
 30
0.0
 10
4.662696675
 20
7.7641639421
 30
0.0
 10
4.662407581
 20
7.7583016573
 30
0.0
 10
4.661115736
 20
7.7495959787
 30
0.0
 10
4.6589734912
 20
7.7410575349
 30
0.0
 10
4.6560040768
 20
7.7327711712
 30
0.0
 10
4.6522362736
 20
7.7248149326
 30
0.0
 10
4.647705072
 20
7.7172659331
 30
0.0
 10
4.6424552489
 20
7.7101964944
 30
0.0
 10
4.6365361629
 20
7.7036757044
 30
0.0
 10
4.6300063897
 20
7.697764822
 30
0.0
 10
4.6229272464
 20
7.6925223725
 30
0.0
 10
4.6153679726
 20
7.6879975329
 30
0.0
 10
4.6074009917
 20
7.684234935
 30
0.0
 10
4.59910339
 20
7.6812697532
 30
0.0
 10
4.5905533639
 20
7.6791306751
 30
0.0
 10
4.5818359234
 20
7.6778406589
 30
0.0
 10
4.5759657837
 20
7.6775519255
 30
0.0
 10
4.5730337079
 20
7.6775519255
 30
0.0
  0
SPLINE
  5
2FB
100
AcDbEntity
  8
ALL_ASSEMBLY_MEMBERS
100
AcDbSpline
 62
7
  6
CONTINUOUS
 70
0
 71
3
 72
44
 73
40
 74
0
 42
0.0000001
 43
0.0000001
 44
0.0000000001
 40
0.0
 40
0.0
 40
0.0
 40
0.0
 40
0.0312550992
 40
0.0468879134
 40
0.0625208757
 40
0.0937772493
 40
0.1250328623
 40
0.1406651291
 40
0.1562972922
 40
0.171929364
 40
0.1875613104
 40
0.2188151257
 40
0.2500679533
 40
0.2813202247
 40
0.3125695746
 40
0.3438149749
 40
0.3750569301
 40
0.4062958747
 40
0.4375324295
 40
0.4687674438
 40
0.5000018041
 40
0.5312360678
 40
0.5624711272
 40
0.593707932
 40
0.6249469711
 40
0.6561889013
 40
0.6874345067
 40
0.7186841723
 40
0.7499363568
 40
0.781189899
 40
0.8124445205
 40
0.8437000939
 40
0.8593326627
 40
0.87496528
 40
0.9062215315
 40
0.9374784155
 40
0.9531116008
 40
0.9687445886
 40
1.0
 40
1.0
 40
1.0
 40
1.0
 10
4.5730337079
 20
7.3839488336
 30
0.0
 10
4.5854883159
 20
7.3839488336
 30
0.0
 10
4.6041892522
 20
7.3848658916
 30
0.0
 10
4.6289230142
 20
7.3879113659
 30
0.0
 10
4.6534805597
 20
7.3921644058
 30
0.0
 10
4.6837413651
 20
7.3997297905
 30
0.0
 10
4.7131161425
 20
7.4102220838
 30
0.0
 10
4.73590628
 20
7.4203062388
 30
0.0
 10
4.7526112626
 20
7.4286998374
 30
0.0
 10
4.7688846999
 20
7.4379020662
 30
0.0
 10
4.7899495557
 20
7.4512175159
 30
0.0
 10
4.8150188558
 20
7.4697764092
 30
0.0
 10
4.8427670747
 20
7.4948819252
 30
0.0
 10
4.8679204109
 20
7.5225868841
 30
0.0
 10
4.8902338746
 20
7.5526219943
 30
0.0
 10
4.9094919239
 20
7.5846973911
 30
0.0
 10
4.9255078369
 20
7.6185039661
 30
0.0
 10
4.9381273201
 20
7.653715879
 30
0.0
 10
4.9472297149
 20
7.6899935479
 30
0.0
 10
4.9527268921
 20
7.7269877537
 30
0.0
 10
4.9545648004
 20
7.764342055
 30
0.0
 10
4.9527270335
 20
7.8016963418
 30
0.0
 10
4.9472313457
 20
7.8386908316
 30
0.0
 10
4.9381296482
 20
7.8749688834
 30
0.0
 10
4.9255099946
 20
7.9101808654
 30
0.0
 10
4.9094948324
 20
7.943987878
 30
0.0
 10
4.890237882
 20
7.9760641606
 30
0.0
 10
4.8679241472
 20
8.0060994688
 30
0.0
 10
4.8427712668
 20
8.0338046763
 30
0.0
 10
4.8150216752
 20
8.0589121949
 30
0.0
 10
4.7849456847
 20
8.0811794183
 30
0.0
 10
4.7581779862
 20
8.0971945477
 30
0.0
 10
4.7359088636
 20
8.1083834891
 30
0.0
 10
4.7131180362
 20
8.1184684892
 30
0.0
 10
4.6837428426
 20
8.1289608295
 30
0.0
 10
4.6534814992
 20
8.1365265282
 30
0.0
 10
4.6289236086
 20
8.1407796617
 30
0.0
 10
4.6041895714
 20
8.1438252253
 30
0.0
 10
4.5854884403
 20
8.1447422899
 30
0.0
 10
4.5730337079
 20
8.1447422899
 30
0.0
  0
SPLINE
  5
2FC
100
AcDbEntity
  8
ALL_ASSEMBLY_MEMBERS
100
AcDbSpline
 62
7
  6
CONTINUOUS
 70
0
 71
3
 72
35
 73
31
 74
0
 42
0.0000001
 43
0.0000001
 44
0.0000000001
 40
0.0
 40
0.0
 40
0.0
 40
0.0
 40
0.031218284
 40
0.062474627
 40
0.0937225353
 40
0.1249615411
 40
0.1873797895
 40
0.2498155632
 40
0.2810766864
 40
0.3123425313
 40
0.3436119167
 40
0.3748850896
 40
0.4061609379
 40
0.4374393554
 40
0.4687192275
 40
0.4999999996
 40
0.5312807717
 40
0.5625606439
 40
0.5938390615
 40
0.6251149099
 40
0.6563880829
 40
0.6876574682
 40
0.718923313
 40
0.7501844363
 40
0.81262021
 40
0.8750384587
 40
0.9062774645
 40
0.9375253714
 40
0.9687817142
 40
1.0
 40
1.0
 40
1.0
 40
1.0
 10
4.6359437348
 20
7.7664872008
 30
0.0
 10
4.6359437348
 20
7.7685409785
 30
0.0
 10
4.6357403315
 20
7.7726538366
 30
0.0
 10
4.6348346119
 20
7.7787621545
 30
0.0
 10
4.6333312645
 20
7.7847541334
 30
0.0
 10
4.6305564104
 20
7.7925003364
 30
0.0
 10
4.6256783297
 20
7.8016169806
 30
0.0
 10
4.6191110585
 20
7.8096048887
 30
0.0
 10
4.6130073663
 20
7.8151286167
 30
0.0
 10
4.6080402778
 20
7.8188072514
 30
0.0
 10
4.6027367064
 20
7.8219821481
 30
0.0
 10
4.5971465829
 20
7.8246218091
 30
0.0
 10
4.5913247183
 20
7.8267027596
 30
0.0
 10
4.5853263105
 20
7.8282023784
 30
0.0
 10
4.5792098282
 20
7.8291093117
 30
0.0
 10
4.5730337081
 20
7.8294113869
 30
0.0
 10
4.566857588
 20
7.8291093118
 30
0.0
 10
4.5607411056
 20
7.8282023784
 30
0.0
 10
4.5547426979
 20
7.8267027597
 30
0.0
 10
4.5489208333
 20
7.8246218092
 30
0.0
 10
4.5433307097
 20
7.8219821483
 30
0.0
 10
4.5380271383
 20
7.8188072516
 30
0.0
 10
4.5330600497
 20
7.8151286169
 30
0.0
 10
4.5269563574
 20
7.809604889
 30
0.0
 10
4.5203890863
 20
7.8016169809
 30
0.0
 10
4.515511006
 20
7.7925003366
 30
0.0
 10
4.5127361499
 20
7.7847541344
 30
0.0
 10
4.5112328038
 20
7.7787621551
 30
0.0
 10
4.5103270893
 20
7.7726538364
 30
0.0
 10
4.5101236845
 20
7.7685409786
 30
0.0
 10
4.5101236809
 20
7.7664872008
 30
0.0
  0
SPLINE
  5
2FD
100
AcDbEntity
  8
ALL_ASSEMBLY_MEMBERS
100
AcDbSpline
 62
7
  6
CONTINUOUS
 70
0
 71
3
 72
23
 73
19
 74
0
 42
0.0000001
 43
0.0000001
 44
0.0000000001
 40
0.0
 40
0.0
 40
0.0
 40
0.0
 40
0.0625420255
 40
0.1250776553
 40
0.1876014683
 40
0.2501098374
 40
0.3126014791
 40
0.3750776777
 40
0.4375420466
 40
0.5000000007
 40
0.5624579577
 40
0.6249223236
 40
0.6873985213
 40
0.7498901641
 40
0.8123985328
 40
0.8749223459
 40
0.9374579765
 40
1.0
 40
1.0
 40
1.0
 40
1.0
 10
4.5730337079
 20
7.6775519255
 30
0.0
 10
4.5671747799
 20
7.6775519255
 30
0.0
 10
4.5554251364
 20
7.6787061701
 30
0.0
 10
4.5385027245
 20
7.6838338836
 30
0.0
 10
4.5229000541
 20
7.6921610212
 30
0.0
 10
4.5092254928
 20
7.7033677848
 30
0.0
 10
4.4980022907
 20
7.7170236912
 30
0.0
 10
4.4896625655
 20
7.7326040516
 30
0.0
 10
4.4845268498
 20
7.7495101011
 30
0.0
 10
4.4827927157
 20
7.7670920149
 30
0.0
 10
4.4845268506
 20
7.7846739284
 30
0.0
 10
4.4896625671
 20
7.8015799774
 30
0.0
 10
4.4980022928
 20
7.8171603373
 30
0.0
 10
4.5092254955
 20
7.8308162432
 30
0.0
 10
4.5229000573
 20
7.8420230062
 30
0.0
 10
4.5385027281
 20
7.8503501432
 30
0.0
 10
4.5554251402
 20
7.8554778559
 30
0.0
 10
4.5671747836
 20
7.8566321
 30
0.0
 10
4.5730337114
 20
7.8566320998
 30
0.0
  0
SPLINE
  5
2FE
100
AcDbEntity
  8
ALL_ASSEMBLY_MEMBERS
100
AcDbSpline
 62
7
  6
CONTINUOUS
 70
0
 71
3
 72
44
 73
40
 74
0
 42
0.0000001
 43
0.0000001
 44
0.0000000001
 40
0.0
 40
0.0
 40
0.0
 40
0.0
 40
0.0312550992
 40
0.0468879134
 40
0.0625208756
 40
0.0937772493
 40
0.1250328622
 40
0.140665129
 40
0.156297292
 40
0.1719293638
 40
0.1875613101
 40
0.2188151255
 40
0.2500679527
 40
0.2813202244
 40
0.3125695745
 40
0.3438149747
 40
0.37505693
 40
0.4062958747
 40
0.4375324295
 40
0.4687674439
 40
0.5000018042
 40
0.5312360679
 40
0.5624711274
 40
0.5937079322
 40
0.6249469712
 40
0.6561889015
 40
0.6874345069
 40
0.7186841724
 40
0.7499363569
 40
0.781189899
 40
0.8124445206
 40
0.8437000939
 40
0.8593326627
 40
0.87496528
 40
0.9062215316
 40
0.9374784155
 40
0.9531116009
 40
0.9687445886
 40
1.0
 40
1.0
 40
1.0
 40
1.0
 10
4.5730337079
 20
8.1447422899
 30
0.0
 10
4.5605790999
 20
8.1447422899
 30
0.0
 10
4.5418781635
 20
8.143825232
 30
0.0
 10
4.5171444015
 20
8.1407797577
 30
0.0
 10
4.492586856
 20
8.1365267178
 30
0.0
 10
4.4623260507
 20
8.1289613331
 30
0.0
 10
4.4329512733
 20
8.11846904
 30
0.0
 10
4.4101611358
 20
8.1083848851
 30
0.0
 10
4.3934561532
 20
8.0999912866
 30
0.0
 10
4.3771827158
 20
8.0907890579
 30
0.0
 10
4.3561178601
 20
8.0774736082
 30
0.0
 10
4.3310485602
 20
8.058914715
 30
0.0
 10
4.3033003407
 20
8.0338091997
 30
0.0
 10
4.2781470049
 20
8.0061042401
 30
0.0
 10
4.2558335412
 20
7.9760691297
 30
0.0
 10
4.2365754917
 20
7.9439937329
 30
0.0
 10
4.2205595788
 20
7.9101871578
 30
0.0
 10
4.2079400956
 20
7.8749752448
 30
0.0
 10
4.1988377008
 20
7.8386975758
 30
0.0
 10
4.1933405236
 20
7.80170337
 30
0.0
 10
4.1915026154
 20
7.7643490686
 30
0.0
 10
4.1933403822
 20
7.7269947818
 30
0.0
 10
4.1988360701
 20
7.6900002919
 30
0.0
 10
4.2079377676
 20
7.6537222401
 30
0.0
 10
4.2205574211
 20
7.618510258
 30
0.0
 10
4.2365725833
 20
7.5847032455
 30
0.0
 10
4.2558295336
 20
7.5526269628
 30
0.0
 10
4.2781432686
 20
7.5225916548
 30
0.0
 10
4.3032961489
 20
7.4948864473
 30
0.0
 10
4.3310457406
 20
7.4697789287
 30
0.0
 10
4.361121731
 20
7.4475117053
 30
0.0
 10
4.3878894295
 20
7.431496576
 30
0.0
 10
4.4101585521
 20
7.4203076345
 30
0.0
 10
4.4329493795
 20
7.4102226344
 30
0.0
 10
4.4623245731
 20
7.399730294
 30
0.0
 10
4.4925859166
 20
7.3921645954
 30
0.0
 10
4.5171438071
 20
7.3879114618
 30
0.0
 10
4.5418778444
 20
7.3848658983
 30
0.0
 10
4.5605789755
 20
7.3839488336
 30
0.0
 10
4.5730337079
 20
7.3839488336
 30
0.0
  0
SPLINE
  5
2FF
100
AcDbEntity
  8
ALL_ASSEMBLY_MEMBERS
100
AcDbSpline
 62
7
  6
CONTINUOUS
 70
0
 71
3
 72
23
 73
19
 74
0
 42
0.0000001
 43
0.0000001
 44
0.0000000001
 40
0.0
 40
0.0
 40
0.0
 40
0.0
 40
0.06252243
 40
0.125087322
 40
0.1876256118
 40
0.2501531566
 40
0.3126810799
 40
0.3752020259
 40
0.4377143345
 40
0.5002183384
 40
0.5627141033
 40
0.6252018595
 40
0.6876826247
 40
0.7501563656
 40
0.8126178432
 40
0.8750803832
 40
0.9375629104
 40
1.0
 40
1.0
 40
1.0
 40
1.0
 10
4.5730337079
 20
7.8566320998
 30
0.0
 10
4.5759657806
 20
7.8566320996
 30
0.0
 10
4.5818359119
 20
7.856343366
 30
0.0
 10
4.5905533404
 20
7.8550533485
 30
0.0
 10
4.5991033612
 20
7.852914288
 30
0.0
 10
4.6074009596
 20
7.8499491085
 30
0.0
 10
4.6153679353
 20
7.8461865017
 30
0.0
 10
4.6229272087
 20
7.8416616587
 30
0.0
 10
4.6300063618
 20
7.8364192138
 30
0.0
 10
4.6365361323
 20
7.8305083186
 30
0.0
 10
4.642455216
 20
7.8239875205
 30
0.0
 10
4.6477050475
 20
7.8169180858
 30
0.0
 10
4.6522362395
 20
7.8093690801
 30
0.0
 10
4.6560040057
 20
7.8014128265
 30
0.0
 10
4.6589734287
 20
7.7931264709
 30
0.0
 10
4.6611157219
 20
7.7845880422
 30
0.0
 10
4.662407583
 20
7.7758823673
 30
0.0
 10
4.662696675
 20
7.7700200832
 30
0.0
 10
4.662696675
 20
7.7670920126
 30
0.0
  0
SPLINE
  5
300
100
AcDbEntity
  8
ALL_ASSEMBLY_MEMBERS
100
AcDbSpline
 62
7
  6
CONTINUOUS
 70
0
 71
3
 72
43
 73
39
 74
0
 42
0.0000001
 43
0.0000001
 44
0.0000000001
 40
0.0
 40
0.0
 40
0.0
 40
0.0
 40
0.0312553932
 40
0.0468883543
 40
0.0625214636
 40
0.0937781313
 40
0.1250340382
 40
0.1406664521
 40
0.1562987619
 40
0.1875536699
 40
0.2188077783
 40
0.2500609
 40
0.2813134663
 40
0.3125631085
 40
0.3438088037
 40
0.3750510526
 40
0.4062902908
 40
0.4375271395
 40
0.4687624476
 40
0.4999971017
 40
0.531231659
 40
0.5624670124
 40
0.5937041109
 40
0.6249434437
 40
0.6561856679
 40
0.6874315671
 40
0.7186815265
 40
0.7499340051
 40
0.7811878411
 40
0.8124427566
 40
0.8436986239
 40
0.8593313398
 40
0.8749641041
 40
0.9062206496
 40
0.9374778276
 40
0.9531111599
 40
0.9687442947
 40
1.0
 40
1.0
 40
1.0
 40
1.0
 10
4.5730337079
 20
7.4122654397
 30
0.0
 10
4.5846047082
 20
7.4122654397
 30
0.0
 10
4.6019788826
 20
7.4131174403
 30
0.0
 10
4.6249578787
 20
7.4159468497
 30
0.0
 10
4.6477731522
 20
7.4198981504
 30
0.0
 10
4.6758871133
 20
7.426926832
 30
0.0
 10
4.7031777008
 20
7.4366746249
 30
0.0
 10
4.7243512842
 20
7.4460435831
 30
0.0
 10
4.7450398904
 20
7.4564385075
 30
0.0
 10
4.7699079826
 20
7.4713167294
 30
0.0
 10
4.7978497272
 20
7.4920032493
 30
0.0
 10
4.8236307912
 20
7.5153284638
 30
0.0
 10
4.8469992144
 20
7.541067618
 30
0.0
 10
4.8677297413
 20
7.5689719018
 30
0.0
 10
4.8856214622
 20
7.5987716616
 30
0.0
 10
4.9005011222
 20
7.6301797872
 30
0.0
 10
4.9122253021
 20
7.6628935451
 30
0.0
 10
4.9206819168
 20
7.69659745
 30
0.0
 10
4.9257890892
 20
7.7309670558
 30
0.0
 10
4.9274966084
 20
7.7656712096
 30
0.0
 10
4.9257892252
 20
7.8003753503
 30
0.0
 10
4.9206834343
 20
7.8347452198
 30
0.0
 10
4.9122274693
 20
7.8684494805
 30
0.0
 10
4.9005031319
 20
7.9011633045
 30
0.0
 10
4.8856241851
 20
7.9325718363
 30
0.0
 10
4.8677334439
 20
7.962372428
 30
0.0
 10
4.8470027796
 20
7.9902768403
 30
0.0
 10
4.8236343991
 20
8.0160164648
 30
0.0
 10
4.7978535375
 20
8.0393427002
 30
0.0
 10
4.7699113259
 20
8.0600301484
 30
0.0
 10
4.7450426934
 20
8.0749090618
 30
0.0
 10
4.7243534822
 20
8.0853041914
 30
0.0
 10
4.7031795794
 20
8.094673701
 30
0.0
 10
4.6758884452
 20
8.1044216487
 30
0.0
 10
4.6477740305
 20
8.1114505901
 30
0.0
 10
4.62495843
 20
8.1154019798
 30
0.0
 10
4.6019791798
 20
8.1182314714
 30
0.0
 10
4.5846048238
 20
8.1190834767
 30
0.0
 10
4.5730337079
 20
8.1190834767
 30
0.0
  0
SPLINE
  5
301
100
AcDbEntity
  8
0
100
AcDbSpline
 62
7
  6
CONTINUOUS
 70
0
 71
3
 72
57
 73
53
 74
0
 42
0.0000001
 43
0.0000001
 44
0.0000000001
 40
0.0
 40
0.0
 40
0.0
 40
0.0
 40
0.0007366823
 40
0.0015438666
 40
0.0025234583
 40
0.0037331277
 40
0.0052028668
 40
0.0069489001
 40
0.0089799392
 40
0.0112974381
 40
0.016788032
 40
0.0234119418
 40
0.0311580396
 40
0.0400134466
 40
0.0499624829
 40
0.0609866385
 40
0.073060034
 40
0.0861540169
 40
0.1152820688
 40
0.1480977083
 40
0.1842920518
 40
0.2235210661
 40
0.2654091598
 40
0.3095558903
 40
0.3555373336
 40
0.4029107457
 40
0.4999999826
 40
0.5970892211
 40
0.6444626322
 40
0.6904440751
 40
0.7345908082
 40
0.7764789013
 40
0.815707914
 40
0.8519022609
 40
0.8847179004
 40
0.9138459501
 40
0.9269399342
 40
0.9390133319
 40
0.9500374887
 40
0.9599865243
 40
0.9688419297
 40
0.9765880269
 40
0.9832119384
 40
0.9887025336
 40
0.9910200314
 40
0.9930510671
 40
0.9947970947
 40
0.9962668269
 40
0.9974764908
 40
0.9984560826
 40
0.9992632806
 40
1.0
 40
1.0
 40
1.0
 40
1.0
 10
4.8105337079
 20
1.9946032873
 30
0.0
 10
4.8105334213
 20
1.994486019
 30
0.0
 10
4.8104802302
 20
1.9942373351
 30
0.0
 10
4.810241644
 20
1.993904603
 30
0.0
 10
4.8098673722
 20
1.9936036225
 30
0.0
 10
4.8093583994
 20
1.9933172629
 30
0.0
 10
4.8087116837
 20
1.9930360864
 30
0.0
 10
4.8079255178
 20
1.9927530736
 30
0.0
 10
4.8069998395
 20
1.9924620086
 30
0.0
 10
4.805490943
 20
1.9920412349
 30
0.0
 10
4.8032530031
 20
1.9915178737
 30
0.0
 10
4.8001477347
 20
1.9909209441
 30
0.0
 10
4.7964952755
 20
1.9903444753
 30
0.0
 10
4.7923058802
 20
1.9897841661
 30
0.0
 10
4.7875892956
 20
1.9892351415
 30
0.0
 10
4.7823567974
 20
1.9886918802
 30
0.0
 10
4.7766203371
 20
1.9881580549
 30
0.0
 10
4.7680071212
 20
1.9874395828
 30
0.0
 10
4.7560907931
 20
1.9866068964
 30
0.0
 10
4.7404939857
 20
1.9857136807
 30
0.0
 10
4.7232829624
 20
1.9848994736
 30
0.0
 10
4.7046224249
 20
1.9841797484
 30
0.0
 10
4.6846918083
 20
1.9835593099
 30
0.0
 10
4.6636830443
 20
1.9830421646
 30
0.0
 10
4.6417985991
 20
1.9826315923
 30
0.0
 10
4.6114853516
 20
1.9822274635
 30
0.0
 10
4.573033709
 20
1.9820201481
 30
0.0
 10
4.5345820666
 20
1.9822274672
 30
0.0
 10
4.5042688191
 20
1.9826315912
 30
0.0
 10
4.4823843736
 20
1.9830421598
 30
0.0
 10
4.4613756096
 20
1.9835593148
 30
0.0
 10
4.4414449929
 20
1.9841797497
 30
0.0
 10
4.4227844548
 20
1.9848994679
 30
0.0
 10
4.4055734318
 20
1.9857136851
 30
0.0
 10
4.389976624
 20
1.9866068977
 30
0.0
 10
4.3780602956
 20
1.9874395772
 30
0.0
 10
4.3694470799
 20
1.9881580543
 30
0.0
 10
4.3637106193
 20
1.9886918838
 30
0.0
 10
4.3584781208
 20
1.9892351467
 30
0.0
 10
4.353761536
 20
1.9897841676
 30
0.0
 10
4.3495721405
 20
1.9903444724
 30
0.0
 10
4.3459196812
 20
1.9909209408
 30
0.0
 10
4.3428144133
 20
1.991517875
 30
0.0
 10
4.3405764737
 20
1.9920412384
 30
0.0
 10
4.339067577
 20
1.9924620092
 30
0.0
 10
4.3381418989
 20
1.9927530691
 30
0.0
 10
4.3373557328
 20
1.9930360738
 30
0.0
 10
4.3367090167
 20
1.9933172423
 30
0.0
 10
4.3362000432
 20
1.9936035966
 30
0.0
 10
4.3358257696
 20
1.9939045778
 30
0.0
 10
4.3355871831
 20
1.9942373205
 30
0.0
 10
4.3355339945
 20
1.994486013
 30
0.0
 10
4.3355337079
 20
1.9946032873
 30
0.0
  0
ELLIPSE
  5
302
100
AcDbEntity
  8
0
100
AcDbEllipse
 62
7
  6
CONTINUOUS
 10
4.5730337079
 20
7.7586274094
 30
0.0
 11
0.0241886594
 21
0.4066086882
 31
0.0
 40
0.9973452613
 41
0.0
 42
6.2831853072
  0
ELLIPSE
  5
303
100
AcDbEntity
  8
ALL_ASSEMBLY_MEMBERS
100
AcDbEllipse
 62
7
  6
CONTINUOUS
 10
4.8858461454
 20
7.7117346595
 30
0.0
 11
0.5644120744
 21
-0.2319451681
 31
0.0
 40
0.806336174
 41
-1.9724929536
 42
-1.9379401262
  0
ELLIPSE
  5
304
100
AcDbEntity
  8
ALL_ASSEMBLY_MEMBERS
100
AcDbEllipse
 62
7
  6
CONTINUOUS
 10
4.5730337079
 20
8.0398559693
 30
0.0
 11
-0.0
 21
0.5657520615
 31
0.0
 40
0.9785198251
 41
-3.8733588687
 42
-3.8366088562
  0
ELLIPSE
  5
305
100
AcDbEntity
  8
ALL_ASSEMBLY_MEMBERS
100
AcDbEllipse
 62
7
  6
CONTINUOUS
 10
4.5730337079
 20
8.0398559693
 30
0.0
 11
-0.0
 21
0.5657520615
 31
0.0
 40
0.9785198251
 41
-2.446576451
 42
-2.4098264385
  0
ELLIPSE
  5
306
100
AcDbEntity
  8
ALL_ASSEMBLY_MEMBERS
100
AcDbEllipse
 62
7
  6
CONTINUOUS
 10
4.2602212704
 20
7.7117346595
 30
0.0
 11
0.5644120744
 21
0.2319451681
 31
0.0
 40
0.806336174
 41
-1.2036525274
 42
-1.1690997
  0
ENDSEC
  0
SECTION
  2
OBJECTS
  0
DICTIONARY
  5
C
100
AcDbDictionary
280
0
281
1
  3
ACAD_GROUP
350
D
  3
ACAD_MLINESTYLE
350
17
  3
ACAD_LAYOUT
350
1A
  3
ACAD_PLOTSETTINGS
350
19
  3
ACAD_PLOTSTYLENAME
350
E
  0
DICTIONARY
  5
D
102
{ACAD_REACTORS
330
C
102
}
100
AcDbDictionary
280
0
281
1
  0
ACDBDICTIONARYWDFLT
  5
E
102
{ACAD_REACTORS
330
C
102
}
100
AcDbDictionary
281
1
  3
Normal
350
F
100
AcDbDictionaryWithDefault
340
F
  0
DICTIONARY
  5
17
102
{ACAD_REACTORS
330
C
102
}
100
AcDbDictionary
280
0
281
1
  3
Standard
350
18
  0
DICTIONARY
  5
19
102
{ACAD_REACTORS
330
C
102
}
100
AcDbDictionary
281
1
  0
DICTIONARY
  5
1A
102
{ACAD_REACTORS
330
C
102
}
100
AcDbDictionary
281
1
  3
Model
350
307
  3
Layout1
350
308
  0
ACDBPLACEHOLDER
  5
F
102
{ACAD_REACTORS
330
E
102
}
  0
MLINESTYLE
  5
18
102
{ACAD_REACTORS
330
17
102
}
100
AcDbMlineStyle
  2
STANDARD
 70
0
  3

 62
256
 51
90.0
 52
90.0
 71
2
 49
0.5
 62
256
  6
BYLAYER
 49
-0.5
 62
256
  6
BYLAYER
  0
LAYOUT
  5
307
102
{ACAD_REACTORS
330
1A
102
}
100
AcDbPlotSettings
  1

  2
none_device
  4
ANSI_A_(11.00_x_8.50_Inches)
  6

 40
0.0
 41
0.0
 42
0.0
 43
0.0
 44
279.4
 45
215.9
 46
0.0
 47
0.0
 48
0.0
 49
0.0
140
0.0
141
0.0
142
1.0
143
1.0
 70
1024
 72
0
 73
0
 74
0
  7

 75
0
147
1.0
148
0.0
149
0.0
100
AcDbLayout
  1
Model
 70
0
 71
0
 10
0.0
 20
0.0
 11
11.0
 21
8.5
 12
0.0
 22
0.0
 32
0.0
 14
0.0
 24
0.0
 34
0.0
 15
0.0
 25
0.0
 35
0.0
146
0.0
 13
0.0
 23
0.0
 33
0.0
 16
1.0
 26
0.0
 36
0.0
 17
0.0
 27
1.0
 37
0.0
 76
0
330
211
345
0
346
0
  0
LAYOUT
  5
308
102
{ACAD_REACTORS
330
1A
102
}
100
AcDbPlotSettings
  1

  2
none_device
  4
ANSI_A_(11.00_x_8.50_Inches)
  6

 40
0.0
 41
0.0
 42
0.0
 43
0.0
 44
279.4
 45
215.9
 46
0.0
 47
0.0
 48
0.0
 49
0.0
140
0.0
141
0.0
142
1.0
143
1.0
 70
0
 72
0
 73
0
 74
0
  7

 75
0
147
1.0
148
0.0
149
0.0
100
AcDbLayout
  1
Layout1
 70
0
 71
1
 10
0.0
 20
0.0
 11
11.0
 21
8.5
 12
0.0
 22
0.0
 32
0.0
 14
0.0
 24
0.0
 34
0.0
 15
0.0
 25
0.0
 35
0.0
146
0.0
 13
0.0
 23
0.0
 33
0.0
 16
1.0
 26
0.0
 36
0.0
 17
0.0
 27
1.0
 37
0.0
 76
0
330
212
345
0
346
0
  0
ENDSEC
  0
EOF
