999
DXF file: 255_right.dxf
999
Pro/ENGINEER 2018400 by Parametric Technology Corporation
  0
SECTION
  2
HEADER
  9
$ACADVER
  1
AC1027
  9
$DWGCODEPAGE
  3
ANSI_1252
  9
$EXTMAX
 10
11.0
 20
8.5
 30
0.0
  9
$EXTMIN
 10
0.0
 20
0.0
 30
0.0
  9
$LIMMIN
 10
0.0
 20
0.0
  9
$LIMMAX
 10
11.0
 20
8.5
  9
$VIEWCTR
 10
5.5
 20
4.25
  9
$VIEWSIZE
 40
8.5
  9
$CLAYER
  8
0
  9
$LTSCALE
 40
0.605
  9
$CELTYPE
  6
BYLAYER
  9
$DIMSCALE
 40
1.0
  9
$DIMASZ
 40
0.1
  9
$DIMEXO
 40
0.0625
  9
$DIMDLI
 40
0.418
  9
$DIMEXE
 40
0.125
  9
$DIMCEN
 40
0.099
  9
$DIMLFAC
 40
1.0
  9
$DIMBLK
  1
_FILLED
  9
$DIMALT
 70
1
  9
$DIMALTD
 70
1
  9
$DIMALTTD
 70
2
  9
$DIMALTF
 40
25.4
  9
$DIMTXT
 40
0.08
  9
$DIMTOL
 70
1
  9
$DIMLIM
 70
0
  9
$DIMTFAC
 40
1.0
  9
$DIMTP
 40
0.01
  9
$DIMTM
 40
0.01
  9
$DIMGAP
 40
0.09
  9
$DIMDSEP
 70
46
  9
$AUNITS
 70
0
  9
$PDMODE
 70
3
  9
$PDSIZE
 40
0.3125
  9
$HANDSEED
  5
34F
  9
$TILEMODE
 70
1
  9
$MEASUREMENT
 70
0
  9
$INSUNITS
 70
1
  0
ENDSEC
  0
SECTION
  2
CLASSES
  0
CLASS
  1
ACDBDICTIONARYWDFLT
  2
AcDbDictionaryWithDefault
  3
AutoCAD 2000
 90
0
 91
1
280
0
281
0
  0
CLASS
  1
ACDBPLACEHOLDER
  2
AcDbPlaceHolder
  3
AutoCAD 2000
 90
0
 91
1
280
0
281
0
  0
CLASS
  1
LAYOUT
  2
AcDbLayout
  3
AutoCAD 2000
 90
0
 91
0
280
0
281
0
  0
ENDSEC
  0
SECTION
  2
TABLES
  0
TABLE
  2
VPORT
  5
8
100
AcDbSymbolTable
 70
2
  0
VPORT
  5
1F4
100
AcDbSymbolTableRecord
100
AcDbViewportTableRecord
  2
*ACTIVE
 70
0
 10
0.0
 20
0.0
 11
1.0
 21
1.0
 12
5.5
 22
4.25
 13
0.0
 23
0.0
 14
1.0
 24
1.0
 15
0.0
 25
0.0
 16
0.0
 26
0.0
 36
1.0
 17
0.0
 27
0.0
 37
0.0
 40
8.5
 41
1.2941176471
 42
50.0
 43
0.0
 44
0.0
 50
0.0
 51
0.0
 71
0
 72
100
 73
1
 74
1
 75
0
 76
0
 77
0
 78
0
  0
ENDTAB
  0
TABLE
  2
LTYPE
  5
5
100
AcDbSymbolTable
 70
6
  0
LTYPE
  5
14
100
AcDbSymbolTableRecord
100
AcDbLinetypeTableRecord
  2
BYBLOCK
 70
0
  3

 72
65
 73
0
 40
0.0
  0
LTYPE
  5
15
100
AcDbSymbolTableRecord
100
AcDbLinetypeTableRecord
  2
BYLAYER
 70
0
  3

 72
65
 73
0
 40
0.0
  0
LTYPE
  5
16
100
AcDbSymbolTableRecord
100
AcDbLinetypeTableRecord
  2
CONTINUOUS
 70
64
  3
Solid line
 72
65
 73
0
 40
0.0
  0
LTYPE
  5
1F5
100
AcDbSymbolTableRecord
100
AcDbLinetypeTableRecord
  2
CENTER
 70
64
  3
____ _ ____ _ ____ _ ____ _ ____ _ ____ _ ____
 72
65
 73
4
 40
0.6
 49
0.375
 74
0
 49
-0.075
 74
0
 49
0.075
 74
0
 49
-0.075
 74
0
  0
LTYPE
  5
1F6
100
AcDbSymbolTableRecord
100
AcDbLinetypeTableRecord
  2
HIDDEN
 70
64
  3
- - - - - - - - - - - - - - - - - - - -
 72
65
 73
2
 40
0.2
 49
0.1
 74
0
 49
-0.1
 74
0
  0
LTYPE
  5
1F7
100
AcDbSymbolTableRecord
100
AcDbLinetypeTableRecord
  2
PHANTOM
 70
64
  3
_____ _ _ _____ _ _ _____ _ _ _____
 72
65
 73
6
 40
0.8
 49
0.45
 74
0
 49
-0.05
 74
0
 49
0.1
 74
0
 49
-0.05
 74
0
 49
0.1
 74
0
 49
-0.05
 74
0
  0
LTYPE
  5
1F8
100
AcDbSymbolTableRecord
100
AcDbLinetypeTableRecord
  2
DOT
 70
64
  3
. . . . . . . . . . . . . . . . . . . .
 72
65
 73
2
 40
0.2
 49
0.1
 74
0
 49
-0.1
 74
0
  0
LTYPE
  5
1F9
100
AcDbSymbolTableRecord
100
AcDbLinetypeTableRecord
  2
DASHED
 70
64
  3
- - - - - - - - - - - - - - - - - - - -
 72
65
 73
2
 40
0.2
 49
0.1
 74
0
 49
-0.1
 74
0
  0
ENDTAB
  0
TABLE
  2
LAYER
  5
2
100
AcDbSymbolTable
 70
36
  0
LAYER
  5
10
100
AcDbSymbolTableRecord
100
AcDbLayerTableRecord
  2
0
 70
0
 62
7
  6
CONTINUOUS
370
-3
390
F
  0
LAYER
  5
1FA
100
AcDbSymbolTableRecord
100
AcDbLayerTableRecord
  2
DEFAULT_1
 70
0
 62
7
  6
CENTER
370
-3
390
F
  0
LAYER
  5
1FB
100
AcDbSymbolTableRecord
100
AcDbLayerTableRecord
  2
DEFAULT_2
 70
0
 62
8
  6
HIDDEN
370
-3
390
F
  0
LAYER
  5
1FC
100
AcDbSymbolTableRecord
100
AcDbLayerTableRecord
  2
DEFAULT_3
 70
0
 62
7
  6
PHANTOM
370
-3
390
F
  0
LAYER
  5
1FD
100
AcDbSymbolTableRecord
100
AcDbLayerTableRecord
  2
ALL_ASSEMBLY_MEMBERS
 70
0
 62
7
  6
CONTINUOUS
370
-3
390
F
  0
LAYER
  5
1FE
100
AcDbSymbolTableRecord
100
AcDbLayerTableRecord
  2
ALL_FEATURES
 70
0
 62
7
  6
CONTINUOUS
370
-3
390
F
  0
LAYER
  5
1FF
100
AcDbSymbolTableRecord
100
AcDbLayerTableRecord
  2
AXES_FEATURES
 70
0
 62
7
  6
CONTINUOUS
370
-3
390
F
  0
LAYER
  5
200
100
AcDbSymbolTableRecord
100
AcDbLayerTableRecord
  2
CHAMFER_FEATURES
 70
0
 62
7
  6
CONTINUOUS
370
-3
390
F
  0
LAYER
  5
201
100
AcDbSymbolTableRecord
100
AcDbLayerTableRecord
  2
CUT_FEATURES
 70
0
 62
7
  6
CONTINUOUS
370
-3
390
F
  0
LAYER
  5
202
100
AcDbSymbolTableRecord
100
AcDbLayerTableRecord
  2
DATUM_PLANES
 70
0
 62
7
  6
CONTINUOUS
370
-3
390
F
  0
LAYER
  5
203
100
AcDbSymbolTableRecord
100
AcDbLayerTableRecord
  2
DEFAULT_COORDINATE_SYSTEM
 70
0
 62
7
  6
CONTINUOUS
370
-3
390
F
  0
LAYER
  5
204
100
AcDbSymbolTableRecord
100
AcDbLayerTableRecord
  2
DEFAULT_DATUM_AXES
 70
0
 62
7
  6
CONTINUOUS
370
-3
390
F
  0
LAYER
  5
205
100
AcDbSymbolTableRecord
100
AcDbLayerTableRecord
  2
DEFAULT_DATUM_CURVES
 70
0
 62
7
  6
CONTINUOUS
370
-3
390
F
  0
LAYER
  5
206
100
AcDbSymbolTableRecord
100
AcDbLayerTableRecord
  2
DEFAULT_DATUM_PLANES
 70
0
 62
7
  6
CONTINUOUS
370
-3
390
F
  0
LAYER
  5
207
100
AcDbSymbolTableRecord
100
AcDbLayerTableRecord
  2
DIMENSIONS
 70
0
 62
7
  6
CONTINUOUS
370
-3
390
F
  0
LAYER
  5
208
100
AcDbSymbolTableRecord
100
AcDbLayerTableRecord
  2
PART_REFERENCE_DIMENSIONS
 70
0
 62
7
  6
CONTINUOUS
370
-3
390
F
  0
LAYER
  5
209
100
AcDbSymbolTableRecord
100
AcDbLayerTableRecord
  2
PROTRUSION_FEATURES
 70
0
 62
7
  6
CONTINUOUS
370
-3
390
F
  0
LAYER
  5
20A
100
AcDbSymbolTableRecord
100
AcDbLayerTableRecord
  2
QUILT
 70
0
 62
7
  6
CONTINUOUS
370
-3
390
F
  0
LAYER
  5
20B
100
AcDbSymbolTableRecord
100
AcDbLayerTableRecord
  2
QUILTS
 70
0
 62
7
  6
CONTINUOUS
370
-3
390
F
  0
LAYER
  5
20C
100
AcDbSymbolTableRecord
100
AcDbLayerTableRecord
  2
REFERENCE_DIMENSIONS
 70
0
 62
7
  6
CONTINUOUS
370
-3
390
F
  0
LAYER
  5
20D
100
AcDbSymbolTableRecord
100
AcDbLayerTableRecord
  2
ROUND_FEATURES
 70
0
 62
7
  6
CONTINUOUS
370
-3
390
F
  0
LAYER
  5
20E
100
AcDbSymbolTableRecord
100
AcDbLayerTableRecord
  2
SHELL_FEATURES
 70
0
 62
7
  6
CONTINUOUS
370
-3
390
F
  0
ENDTAB
  0
TABLE
  2
STYLE
  5
3
100
AcDbSymbolTable
 70
1
  0
STYLE
  5
11
100
AcDbSymbolTableRecord
100
AcDbTextStyleTableRecord
  2
STANDARD
 70
0
 40
0.0
 41
0.8
 50
0.0
 71
0
 42
0.2
  3
txt
  4

  0
STYLE
  5
20F
100
AcDbSymbolTableRecord
100
AcDbTextStyleTableRecord
  2
TEXTSTYLE_1
 70
0
 40
0.0
 41
0.8
 50
0.0
 71
0
 42
0.2
  3
gdt
  4

  0
ENDTAB
  0
TABLE
  2
VIEW
  5
6
100
AcDbSymbolTable
 70
0
  0
ENDTAB
  0
TABLE
  2
UCS
  5
7
100
AcDbSymbolTable
 70
0
  0
ENDTAB
  0
TABLE
  2
APPID
  5
9
100
AcDbSymbolTable
 70
1
  0
APPID
  5
210
100
AcDbSymbolTableRecord
100
AcDbRegAppTableRecord
  2
ACAD
 70
0
  0
ENDTAB
  0
TABLE
  2
BLOCK_RECORD
  5
1
100
AcDbSymbolTable
 70
0
  0
BLOCK_RECORD
  5
211
100
AcDbSymbolTableRecord
100
AcDbBlockTableRecord
  2
*Model_Space
  0
BLOCK_RECORD
  5
212
100
AcDbSymbolTableRecord
100
AcDbBlockTableRecord
  2
*Paper_Space
  0
BLOCK_RECORD
  5
213
100
AcDbSymbolTableRecord
100
AcDbBlockTableRecord
  2
_FILLED
  0
ENDTAB
  0
TABLE
  2
DIMSTYLE
  5
A
100
AcDbSymbolTable
 70
1
100
AcDbDimStyleTable
 71
0
  0
DIMSTYLE
105
214
100
AcDbSymbolTableRecord
100
AcDbDimStyleTableRecord
  2
STANDARD
 70
0
  3

  4

 40
1.0
 41
0.1
 42
0.0625
 43
0.38
 44
0.125
 45
0.0
 46
0.0
 47
0.01
 48
0.01
140
0.08
141
0.09
142
0.0
143
25.4
144
1.0
145
0.0
146
1.0
147
0.09
 71
1.0
 72
0.0
 73
1
 74
1
 75
0
 76
0
 77
0
 78
4
 79
1
170
1
171
1
172
0
173
0
174
0
175
0
176
0
177
0
178
0
270
2
179
2
271
2
272
2
273
2
274
2
275
0
280
0
281
0
282
0
283
1
284
4
285
0
286
0
287
3
288
0
340
11
278
46
341
213
342
213
343
213
344
213
  0
ENDTAB
  0
ENDSEC
  0
SECTION
  2
BLOCKS
  0
BLOCK
  5
20
100
AcDbEntity
  8
0
100
AcDbBlockBegin
  2
*Model_Space
 70
0
 10
0.0
 20
0.0
 30
0.0
  3
*Model_Space
  1

  0
ENDBLK
  5
21
100
AcDbEntity
  8
0
100
AcDbBlockEnd
  0
BLOCK
  5
1C
100
AcDbEntity
  8
0
100
AcDbBlockBegin
  2
*Paper_Space
 70
0
 10
0.0
 20
0.0
 30
0.0
  3
*Paper_Space
  1

  0
ENDBLK
  5
1D
100
AcDbEntity
  8
0
100
AcDbBlockEnd
  0
BLOCK
  5
215
100
AcDbEntity
  8
0
100
AcDbBlockBegin
  2
_FILLED
 70
64
 10
0.0
 20
0.0
  3
_FILLED
  1

  0
SOLID
  5
216
100
AcDbEntity
  8
0
  6
BYBLOCK
 62
0
100
AcDbTrace
 10
0.0
 20
0.0
 11
-1.0
 21
0.2
 12
-1.0
 22
-0.2
 13
-1.0
 23
-0.2
  0
ENDBLK
  5
217
100
AcDbEntity
  8
0
  6
BYBLOCK
 62
0
100
AcDbBlockEnd
  0
ENDSEC
  0
SECTION
  2
ENTITIES
  0
MTEXT
  5
218
100
AcDbEntity
  8
0
100
AcDbMText
 62
2
  6
CONTINUOUS
  7
STANDARD
 71
3
 72
1
 10
5.7283431062
 20
0.2617802536
 30
0.0
 11
1.0
 21
0.0
 31
0.0
 73
2
 44
0.9
  1
SCALE  .250
 40
0.08
 41
0.704
  0
LINE
  5
219
100
AcDbEntity
  8
0
100
AcDbLine
 62
7
  6
CONTINUOUS
 10
0.0
 20
0.0
 11
0.0
 21
8.5
  0
LINE
  5
21A
100
AcDbEntity
  8
0
100
AcDbLine
 62
7
  6
CONTINUOUS
 10
0.0
 20
0.0
 11
11.0
 21
0.0
  0
LINE
  5
21B
100
AcDbEntity
  8
0
100
AcDbLine
 62
7
  6
CONTINUOUS
 10
0.0
 20
8.5
 11
11.0
 21
8.5
  0
LINE
  5
21C
100
AcDbEntity
  8
0
100
AcDbLine
 62
7
  6
CONTINUOUS
 10
11.0
 20
0.0
 11
11.0
 21
8.5
  0
LINE
  5
21D
100
AcDbEntity
  8
0
100
AcDbLine
 62
7
  6
CONTINUOUS
 10
5.3549712079
 20
0.4383532873
 11
5.8299712079
 21
0.4383532873
  0
LINE
  5
21E
100
AcDbEntity
  8
ALL_ASSEMBLY_MEMBERS
100
AcDbLine
 62
7
  6
CONTINUOUS
 10
5.1314582591
 20
7.6189390349
 11
5.0919460039
 21
7.6053338743
  0
LINE
  5
21F
100
AcDbEntity
  8
0
100
AcDbLine
 62
7
  6
CONTINUOUS
 10
5.8893462079
 20
1.5258532873
 11
5.2955962079
 21
1.5258532873
  0
LINE
  5
220
100
AcDbEntity
  8
0
100
AcDbLine
 62
7
  6
CONTINUOUS
 10
5.1707212079
 20
1.6977282873
 11
4.9832212079
 21
1.6977282873
  0
LINE
  5
221
100
AcDbEntity
  8
0
100
AcDbLine
 62
7
  6
CONTINUOUS
 10
5.8893462079
 20
1.7133532873
 11
5.2955962079
 21
1.7133532873
  0
LINE
  5
222
100
AcDbEntity
  8
0
100
AcDbLine
 62
7
  6
CONTINUOUS
 10
3.8932212079
 20
1.7196032873
 11
4.0582212079
 21
1.7196032873
  0
LINE
  5
223
100
AcDbEntity
  8
0
100
AcDbLine
 62
7
  6
CONTINUOUS
 10
5.3152212079
 20
1.7329782873
 11
5.2059712079
 21
1.7329782873
  0
LINE
  5
224
100
AcDbEntity
  8
0
100
AcDbLine
 62
7
  6
CONTINUOUS
 10
5.8541288255
 20
1.7485706697
 11
5.3464039058
 21
1.7485706697
  0
LINE
  5
225
100
AcDbEntity
  8
0
100
AcDbLine
 62
7
  6
CONTINUOUS
 10
4.9832212079
 20
1.7571032873
 11
4.0582212079
 21
1.7571032873
  0
LINE
  5
226
100
AcDbEntity
  8
0
100
AcDbLine
 62
7
  6
CONTINUOUS
 10
3.8582212079
 20
1.7571032873
 11
3.6107212245
 21
1.7571032873
  0
LINE
  5
227
100
AcDbEntity
  8
0
100
AcDbLine
 62
7
  6
CONTINUOUS
 10
3.7523831701
 20
2.0083532873
 11
3.353224538
 21
2.0083532873
  0
LINE
  5
228
100
AcDbEntity
  8
0
100
AcDbLine
 62
7
  6
CONTINUOUS
 10
3.7631151409
 20
2.0133532873
 11
3.3482212079
 21
2.0133532873
  0
LINE
  5
229
100
AcDbEntity
  8
0
100
AcDbLine
 62
7
  6
CONTINUOUS
 10
3.8582212079
 20
1.7546032873
 11
3.8932212079
 21
1.7196032873
  0
LINE
  5
22A
100
AcDbEntity
  8
0
100
AcDbLine
 62
7
  6
CONTINUOUS
 10
5.3441450262
 20
7.4944543194
 11
5.3174712079
 21
7.4708532873
  0
LINE
  5
22B
100
AcDbEntity
  8
0
100
AcDbLine
 62
7
  6
CONTINUOUS
 10
4.9832212079
 20
2.2321032873
 11
4.0582212079
 21
2.2321032873
  0
LINE
  5
22C
100
AcDbEntity
  8
0
100
AcDbLine
 62
7
  6
CONTINUOUS
 10
5.3308135903
 20
2.2562282873
 11
5.2059712079
 21
2.2562282873
  0
LINE
  5
22D
100
AcDbEntity
  8
0
100
AcDbLine
 62
7
  6
CONTINUOUS
 10
3.8982212079
 20
2.2696032873
 11
4.0582212079
 21
2.2696032873
  0
LINE
  5
22E
100
AcDbEntity
  8
0
100
AcDbLine
 62
7
  6
CONTINUOUS
 10
5.1707212079
 20
2.2914782873
 11
4.9832212079
 21
2.2914782873
  0
LINE
  5
22F
100
AcDbEntity
  8
0
100
AcDbLine
 62
7
  6
CONTINUOUS
 10
3.2567212079
 20
2.2946032873
 11
3.9897212079
 21
2.2946032873
  0
LINE
  5
230
100
AcDbEntity
  8
0
100
AcDbLine
 62
7
  6
CONTINUOUS
 10
3.2567212079
 20
2.3383532873
 11
3.9897212079
 21
2.3383532873
  0
LINE
  5
231
100
AcDbEntity
  8
0
100
AcDbLine
 62
7
  6
CONTINUOUS
 10
5.8541288255
 20
2.3656359049
 11
5.3308135903
 21
2.3656359049
  0
LINE
  5
232
100
AcDbEntity
  8
ALL_FEATURES
100
AcDbLine
 62
7
  6
CONTINUOUS
 10
3.2844712079
 20
2.3683532873
 11
3.9619712079
 21
2.3683532873
  0
LINE
  5
233
100
AcDbEntity
  8
ALL_ASSEMBLY_MEMBERS
100
AcDbLine
 62
7
  6
CONTINUOUS
 10
3.2771331029
 20
2.3761280793
 11
3.9693093128
 21
2.3761280793
  0
LINE
  5
234
100
AcDbEntity
  8
ALL_ASSEMBLY_MEMBERS
100
AcDbLine
 62
7
  6
CONTINUOUS
 10
3.9791929044
 20
2.3869183523
 11
3.2672495114
 21
2.3869183523
  0
LINE
  5
235
100
AcDbEntity
  8
ALL_ASSEMBLY_MEMBERS
100
AcDbLine
 62
7
  6
CONTINUOUS
 10
3.9674712079
 20
2.3978532873
 11
3.2789712079
 21
2.3978532873
  0
LINE
  5
236
100
AcDbEntity
  8
0
100
AcDbLine
 62
7
  6
CONTINUOUS
 10
5.8893462079
 20
2.4008532873
 11
5.2955962079
 21
2.4008532873
  0
LINE
  5
237
100
AcDbEntity
  8
ALL_ASSEMBLY_MEMBERS
100
AcDbLine
 62
7
  6
CONTINUOUS
 10
3.2771331029
 20
2.3761280793
 11
3.3262212079
 21
2.3683532873
  0
LINE
  5
238
100
AcDbEntity
  8
ALL_ASSEMBLY_MEMBERS
100
AcDbLine
 62
7
  6
CONTINUOUS
 10
3.9693093128
 20
2.3761280793
 11
3.9202212079
 21
2.3683532873
  0
LINE
  5
239
100
AcDbEntity
  8
ALL_ASSEMBLY_MEMBERS
100
AcDbLine
 62
7
  6
CONTINUOUS
 10
3.6042837079
 20
2.6583082575
 11
3.6058650666
 21
2.6583365478
  0
LINE
  5
23A
100
AcDbEntity
  8
ALL_ASSEMBLY_MEMBERS
100
AcDbLine
 62
7
  6
CONTINUOUS
 10
3.6042837079
 20
2.6571065777
 11
3.6057618379
 21
2.6571325204
  0
LINE
  5
23B
100
AcDbEntity
  8
ALL_ASSEMBLY_MEMBERS
100
AcDbLine
 62
7
  6
CONTINUOUS
 10
3.6216381055
 20
2.6584786933
 11
3.6232212079
 21
2.6584789077
  0
LINE
  5
23C
100
AcDbEntity
  8
ALL_ASSEMBLY_MEMBERS
100
AcDbLine
 62
7
  6
CONTINUOUS
 10
3.3644716013
 20
2.4713532873
 11
3.8819708145
 21
2.4713532873
  0
LINE
  5
23D
100
AcDbEntity
  8
ALL_ASSEMBLY_MEMBERS
100
AcDbLine
 62
7
  6
CONTINUOUS
 10
3.3644716013
 20
2.4876032873
 11
3.8819708145
 21
2.4876032873
  0
LINE
  5
23E
100
AcDbEntity
  8
ALL_ASSEMBLY_MEMBERS
100
AcDbLine
 62
7
  6
CONTINUOUS
 10
3.4744712079
 20
2.5417282873
 11
3.7719712079
 21
2.5417282873
  0
LINE
  5
23F
100
AcDbEntity
  8
ALL_ASSEMBLY_MEMBERS
100
AcDbLine
 62
7
  6
CONTINUOUS
 10
3.3712212079
 20
2.5742282873
 11
3.8752212079
 21
2.5742282873
  0
LINE
  5
240
100
AcDbEntity
  8
0
100
AcDbLine
 62
7
  6
CONTINUOUS
 10
5.8893462079
 20
2.5883532873
 11
5.2955962079
 21
2.5883532873
  0
LINE
  5
241
100
AcDbEntity
  8
ALL_ASSEMBLY_MEMBERS
100
AcDbLine
 62
7
  6
CONTINUOUS
 10
3.3732212079
 20
2.6267282873
 11
3.8732212079
 21
2.6267282873
  0
LINE
  5
242
100
AcDbEntity
  8
ALL_ASSEMBLY_MEMBERS
100
AcDbLine
 62
7
  6
CONTINUOUS
 10
3.6232212079
 20
2.6569542233
 11
3.6221361122
 21
2.6569550049
  0
LINE
  5
243
100
AcDbEntity
  8
ALL_ASSEMBLY_MEMBERS
100
AcDbLine
 62
7
  6
CONTINUOUS
 10
3.6263787188
 20
2.658471645
 11
3.6279571778
 21
2.6584641875
  0
LINE
  5
244
100
AcDbEntity
  8
ALL_ASSEMBLY_MEMBERS
100
AcDbLine
 62
7
  6
CONTINUOUS
 10
3.6405802513
 20
2.6583127679
 11
3.6421587079
 21
2.6582823545
  0
LINE
  5
245
100
AcDbEntity
  8
ALL_ASSEMBLY_MEMBERS
100
AcDbLine
 62
7
  6
CONTINUOUS
 10
3.6404403453
 20
2.6570984437
 11
3.6421587079
 21
2.6570646597
  0
LINE
  5
246
100
AcDbEntity
  8
ALL_ASSEMBLY_MEMBERS
100
AcDbLine
 62
7
  6
CONTINUOUS
 10
5.1591623875
 20
7.7897502075
 11
5.1549987034
 21
7.783387968
  0
LINE
  5
247
100
AcDbEntity
  8
ALL_ASSEMBLY_MEMBERS
100
AcDbLine
 62
7
  6
CONTINUOUS
 10
5.1716452567
 20
7.7890960081
 11
5.1674815726
 21
7.7827337685
  0
LINE
  5
248
100
AcDbEntity
  8
ALL_ASSEMBLY_MEMBERS
100
AcDbLine
 62
7
  6
CONTINUOUS
 10
5.1517719314
 20
7.729691825
 11
5.1559356269
 21
7.7360540637
  0
LINE
  5
249
100
AcDbEntity
  8
ALL_ASSEMBLY_MEMBERS
100
AcDbLine
 62
7
  6
CONTINUOUS
 10
5.1642548006
 20
7.7290376255
 11
5.1684184961
 21
7.7353998642
  0
LINE
  5
24A
100
AcDbEntity
  8
ALL_ASSEMBLY_MEMBERS
100
AcDbLine
 62
7
  6
CONTINUOUS
 10
3.6204317834
 20
2.6589961317
 11
3.6210565765
 21
2.6590426932
  0
LINE
  5
24B
100
AcDbEntity
  8
ALL_ASSEMBLY_MEMBERS
100
AcDbLine
 62
7
  6
CONTINUOUS
 10
3.6216774068
 20
2.6590872149
 11
3.6217456696
 21
2.6590918976
  0
LINE
  5
24C
100
AcDbEntity
  8
0
100
AcDbLine
 62
7
  6
CONTINUOUS
 10
3.2567212079
 20
2.3383532873
 11
3.2567212079
 21
2.2946032873
  0
LINE
  5
24D
100
AcDbEntity
  8
ALL_FEATURES
100
AcDbLine
 62
7
  6
CONTINUOUS
 10
3.2844712079
 20
2.3383532873
 11
3.2844712079
 21
2.3683532873
  0
LINE
  5
24E
100
AcDbEntity
  8
0
100
AcDbLine
 62
7
  6
CONTINUOUS
 10
3.3482212079
 20
2.2946032873
 11
3.3482212079
 21
2.0133532873
  0
LINE
  5
24F
100
AcDbEntity
  8
ALL_ASSEMBLY_MEMBERS
100
AcDbLine
 62
7
  6
CONTINUOUS
 10
3.3644712079
 20
2.4876032873
 11
3.3644712079
 21
2.4713532873
  0
LINE
  5
250
100
AcDbEntity
  8
0
100
AcDbLine
 62
7
  6
CONTINUOUS
 10
3.3857212079
 20
2.0083532873
 11
3.3857212079
 21
1.9821033039
  0
LINE
  5
251
100
AcDbEntity
  8
ALL_ASSEMBLY_MEMBERS
100
AcDbLine
 62
7
  6
CONTINUOUS
 10
3.4744712079
 20
2.5742282873
 11
3.4744712079
 21
2.5417282873
  0
LINE
  5
252
100
AcDbEntity
  8
ALL_ASSEMBLY_MEMBERS
100
AcDbLine
 62
7
  6
CONTINUOUS
 10
3.4778462079
 20
2.4713532873
 11
3.4778462079
 21
2.3978532873
  0
LINE
  5
253
100
AcDbEntity
  8
ALL_ASSEMBLY_MEMBERS
100
AcDbLine
 62
7
  6
CONTINUOUS
 10
3.3732212079
 20
2.6267282873
 11
3.3712212079
 21
2.5742282873
  0
LINE
  5
254
100
AcDbEntity
  8
ALL_ASSEMBLY_MEMBERS
100
AcDbLine
 62
7
  6
CONTINUOUS
 10
3.6042837079
 20
2.6581105925
 11
3.6042837079
 21
2.6583082575
  0
LINE
  5
255
100
AcDbEntity
  8
ALL_ASSEMBLY_MEMBERS
100
AcDbLine
 62
7
  6
CONTINUOUS
 10
3.6042837079
 20
2.6567606049
 11
3.6042837079
 21
2.6571065777
  0
LINE
  5
256
100
AcDbEntity
  8
ALL_ASSEMBLY_MEMBERS
100
AcDbLine
 62
7
  6
CONTINUOUS
 10
3.6051362829
 20
2.6587448082
 11
3.6051362829
 21
2.6590133115
  0
LINE
  5
257
100
AcDbEntity
  8
ALL_ASSEMBLY_MEMBERS
100
AcDbLine
 62
7
  6
CONTINUOUS
 10
3.6081332134
 20
2.6586861889
 11
3.6081332134
 21
2.6589510972
  0
LINE
  5
258
100
AcDbEntity
  8
ALL_ASSEMBLY_MEMBERS
100
AcDbLine
 62
7
  6
CONTINUOUS
 10
3.6089901586
 20
2.6586781529
 11
3.6089901586
 21
2.6588639639
  0
LINE
  5
259
100
AcDbEntity
  8
ALL_ASSEMBLY_MEMBERS
100
AcDbLine
 62
7
  6
CONTINUOUS
 10
3.611310991
 20
2.658673198
 11
3.611310991
 21
2.6588171321
  0
LINE
  5
25A
100
AcDbEntity
  8
ALL_ASSEMBLY_MEMBERS
100
AcDbLine
 62
7
  6
CONTINUOUS
 10
3.614566279
 20
2.6586878148
 11
3.614566279
 21
2.6588219928
  0
LINE
  5
25B
100
AcDbEntity
  8
ALL_ASSEMBLY_MEMBERS
100
AcDbLine
 62
7
  6
CONTINUOUS
 10
3.6176603279
 20
2.658716066
 11
3.6176603279
 21
2.6588698537
  0
LINE
  5
25C
100
AcDbEntity
  8
ALL_ASSEMBLY_MEMBERS
100
AcDbLine
 62
7
  6
CONTINUOUS
 10
3.6199042463
 20
2.658762991
 11
3.6199042463
 21
2.6589598548
  0
LINE
  5
25D
100
AcDbEntity
  8
ALL_ASSEMBLY_MEMBERS
100
AcDbLine
 62
7
  6
CONTINUOUS
 10
3.6217456696
 20
2.6587991609
 11
3.6217456696
 21
2.6590918976
  0
LINE
  5
25E
100
AcDbEntity
  8
ALL_ASSEMBLY_MEMBERS
100
AcDbLine
 62
7
  6
CONTINUOUS
 10
3.6221361122
 20
2.6569550049
 11
3.6221361122
 21
2.6582798896
  0
LINE
  5
25F
100
AcDbEntity
  8
ALL_ASSEMBLY_MEMBERS
100
AcDbLine
 62
7
  6
CONTINUOUS
 10
3.6241114359
 20
2.6588971202
 11
3.6241114359
 21
2.659183495
  0
LINE
  5
260
100
AcDbEntity
  8
ALL_ASSEMBLY_MEMBERS
100
AcDbLine
 62
7
  6
CONTINUOUS
 10
3.6266056727
 20
2.656945038
 11
3.6266056727
 21
2.6582711885
  0
LINE
  5
261
100
AcDbEntity
  8
ALL_ASSEMBLY_MEMBERS
100
AcDbLine
 62
7
  6
CONTINUOUS
 10
3.636544666
 20
2.6586936503
 11
3.636544666
 21
2.6588520824
  0
LINE
  5
262
100
AcDbEntity
  8
ALL_ASSEMBLY_MEMBERS
100
AcDbLine
 62
7
  6
CONTINUOUS
 10
3.6383867094
 20
2.6587006487
 11
3.6383867094
 21
2.6589563636
  0
LINE
  5
263
100
AcDbEntity
  8
ALL_ASSEMBLY_MEMBERS
100
AcDbLine
 62
7
  6
CONTINUOUS
 10
3.6415063913
 20
2.6587564156
 11
3.6415063913
 21
2.6589999174
  0
LINE
  5
264
100
AcDbEntity
  8
ALL_ASSEMBLY_MEMBERS
100
AcDbLine
 62
7
  6
CONTINUOUS
 10
3.6421587079
 20
2.6570646597
 11
3.6421587079
 21
2.6567380168
  0
LINE
  5
265
100
AcDbEntity
  8
ALL_ASSEMBLY_MEMBERS
100
AcDbLine
 62
7
  6
CONTINUOUS
 10
3.6421587079
 20
2.6582823545
 11
3.6421587079
 21
2.6580814442
  0
LINE
  5
266
100
AcDbEntity
  8
ALL_ASSEMBLY_MEMBERS
100
AcDbLine
 62
7
  6
CONTINUOUS
 10
3.7685962079
 20
2.4713532873
 11
3.7685962079
 21
2.3978532873
  0
LINE
  5
267
100
AcDbEntity
  8
ALL_ASSEMBLY_MEMBERS
100
AcDbLine
 62
7
  6
CONTINUOUS
 10
3.7719712079
 20
2.5742282873
 11
3.7719712079
 21
2.5417282873
  0
LINE
  5
268
100
AcDbEntity
  8
0
100
AcDbLine
 62
7
  6
CONTINUOUS
 10
5.2059712079
 20
2.2562282873
 11
5.1707212079
 21
2.2914782873
  0
LINE
  5
269
100
AcDbEntity
  8
0
100
AcDbLine
 62
7
  6
CONTINUOUS
 10
5.8541288255
 20
1.7485706697
 11
5.8893462079
 21
1.7133532873
  0
LINE
  5
26A
100
AcDbEntity
  8
0
100
AcDbLine
 62
7
  6
CONTINUOUS
 10
5.2955962079
 20
2.4008532873
 11
5.3308135903
 21
2.3656359049
  0
LINE
  5
26B
100
AcDbEntity
  8
ALL_ASSEMBLY_MEMBERS
100
AcDbLine
 62
7
  6
CONTINUOUS
 10
3.8732212079
 20
2.6267282873
 11
3.8752212079
 21
2.5742282873
  0
LINE
  5
26C
100
AcDbEntity
  8
0
100
AcDbLine
 62
7
  6
CONTINUOUS
 10
3.8582212079
 20
1.7546032873
 11
3.8582212079
 21
2.1874763025
  0
LINE
  5
26D
100
AcDbEntity
  8
ALL_ASSEMBLY_MEMBERS
100
AcDbLine
 62
7
  6
CONTINUOUS
 10
3.8819712079
 20
2.4876032873
 11
3.8819712079
 21
2.4713532873
  0
LINE
  5
26E
100
AcDbEntity
  8
0
100
AcDbLine
 62
7
  6
CONTINUOUS
 10
3.8932212079
 20
2.2646032873
 11
3.8932212079
 21
1.7196032873
  0
LINE
  5
26F
100
AcDbEntity
  8
0
100
AcDbLine
 62
7
  6
CONTINUOUS
 10
3.8982212079
 20
2.2946032873
 11
3.8982212079
 21
2.2696032873
  0
LINE
  5
270
100
AcDbEntity
  8
ALL_FEATURES
100
AcDbLine
 62
7
  6
CONTINUOUS
 10
3.9619712079
 20
2.3383532873
 11
3.9619712079
 21
2.3683532873
  0
LINE
  5
271
100
AcDbEntity
  8
0
100
AcDbLine
 62
7
  6
CONTINUOUS
 10
3.9897212079
 20
2.3383532873
 11
3.9897212079
 21
2.2946032873
  0
LINE
  5
272
100
AcDbEntity
  8
0
100
AcDbLine
 62
7
  6
CONTINUOUS
 10
4.0582212079
 20
1.7196032873
 11
4.0582212079
 21
2.2696032873
  0
LINE
  5
273
100
AcDbEntity
  8
ALL_ASSEMBLY_MEMBERS
100
AcDbLine
 62
7
  6
CONTINUOUS
 10
5.019326372
 20
7.8540894943
 11
5.0101717371
 21
7.6794086543
  0
LINE
  5
274
100
AcDbEntity
  8
ALL_ASSEMBLY_MEMBERS
100
AcDbLine
 62
7
  6
CONTINUOUS
 10
5.0195127647
 20
7.8566320998
 11
5.0101275705
 21
7.6775519255
  0
LINE
  5
275
100
AcDbEntity
  8
ALL_ASSEMBLY_MEMBERS
100
AcDbLine
 62
7
  6
CONTINUOUS
 10
5.0233473353
 20
7.4122654397
 11
5.060390099
 21
8.1190834767
  0
LINE
  5
276
100
AcDbEntity
  8
ALL_ASSEMBLY_MEMBERS
100
AcDbLine
 62
7
  6
CONTINUOUS
 10
5.0193626084
 20
7.8547809256
 11
5.0195127647
 21
7.8566320998
  0
LINE
  5
277
100
AcDbEntity
  8
0
100
AcDbLine
 62
7
  6
CONTINUOUS
 10
4.9832212079
 20
1.6977282873
 11
4.9832212079
 21
2.2914782873
  0
LINE
  5
278
100
AcDbEntity
  8
ALL_ASSEMBLY_MEMBERS
100
AcDbLine
 62
7
  6
CONTINUOUS
 10
5.0101717371
 20
7.6794086543
 11
5.0101275705
 21
7.6775519255
  0
LINE
  5
279
100
AcDbEntity
  8
ALL_ASSEMBLY_MEMBERS
100
AcDbLine
 62
7
  6
CONTINUOUS
 10
5.0472898247
 20
7.3839488336
 11
5.0871613203
 21
8.1447422899
  0
LINE
  5
27A
100
AcDbEntity
  8
ALL_ASSEMBLY_MEMBERS
100
AcDbLine
 62
7
  6
CONTINUOUS
 10
5.0798965127
 20
7.3754158858
 11
5.0798859702
 21
7.3752147227
  0
LINE
  5
27B
100
AcDbEntity
  8
ALL_ASSEMBLY_MEMBERS
100
AcDbLine
 62
7
  6
CONTINUOUS
 10
5.0803223694
 20
7.3835417153
 11
5.0919460039
 21
7.6053338743
  0
LINE
  5
27C
100
AcDbEntity
  8
ALL_ASSEMBLY_MEMBERS
100
AcDbLine
 62
7
  6
CONTINUOUS
 10
5.1190606347
 20
7.3823782689
 11
5.1184232187
 21
7.3702156472
  0
LINE
  5
27D
100
AcDbEntity
  8
ALL_ASSEMBLY_MEMBERS
100
AcDbLine
 62
7
  6
CONTINUOUS
 10
5.1243570574
 20
7.3639440979
 11
5.1251593473
 21
7.379252701
  0
LINE
  5
27E
100
AcDbEntity
  8
ALL_ASSEMBLY_MEMBERS
100
AcDbLine
 62
7
  6
CONTINUOUS
 10
5.1381888729
 20
7.6278708611
 11
5.1659307887
 21
8.1572181481
  0
LINE
  5
27F
100
AcDbEntity
  8
0
100
AcDbLine
 62
7
  6
CONTINUOUS
 10
5.2912172174
 20
8.1594102939
 11
5.2486946584
 21
7.3480315331
  0
LINE
  5
280
100
AcDbEntity
  8
0
100
AcDbLine
 62
7
  6
CONTINUOUS
 10
5.2977648572
 20
7.37674888
 11
5.3370168244
 21
8.1257210311
  0
LINE
  5
281
100
AcDbEntity
  8
0
100
AcDbLine
 62
7
  6
CONTINUOUS
 10
5.1707212079
 20
1.6977282873
 11
5.1707212079
 21
2.2914782873
  0
LINE
  5
282
100
AcDbEntity
  8
0
100
AcDbLine
 62
7
  6
CONTINUOUS
 10
5.2059712079
 20
1.7329782873
 11
5.2059712079
 21
2.2562282873
  0
LINE
  5
283
100
AcDbEntity
  8
0
100
AcDbLine
 62
7
  6
CONTINUOUS
 10
5.2955962079
 20
2.5883532873
 11
5.2955962079
 21
2.4008532873
  0
LINE
  5
284
100
AcDbEntity
  8
0
100
AcDbLine
 62
7
  6
CONTINUOUS
 10
5.2955962079
 20
1.7133532873
 11
5.2955962079
 21
1.5258532873
  0
LINE
  5
285
100
AcDbEntity
  8
0
100
AcDbLine
 62
7
  6
CONTINUOUS
 10
5.3174712079
 20
7.4708532873
 11
5.3174712079
 21
7.2508532873
  0
LINE
  5
286
100
AcDbEntity
  8
0
100
AcDbLine
 62
7
  6
CONTINUOUS
 10
5.3174712079
 20
7.5083532873
 11
5.3174712079
 21
7.7512349556
  0
LINE
  5
287
100
AcDbEntity
  8
0
100
AcDbLine
 62
7
  6
CONTINUOUS
 10
5.3308135903
 20
2.3656359049
 11
5.3308135903
 21
2.2562282873
  0
LINE
  5
288
100
AcDbEntity
  8
0
100
AcDbLine
 62
7
  6
CONTINUOUS
 10
5.3549712079
 20
0.4383532873
 11
5.3549712079
 21
1.5258532873
  0
LINE
  5
289
100
AcDbEntity
  8
ALL_FEATURES
100
AcDbLine
 62
7
  6
CONTINUOUS
 10
5.3549712079
 20
2.5883532873
 11
5.3549712079
 21
7.2508532873
  0
LINE
  5
28A
100
AcDbEntity
  8
0
100
AcDbLine
 62
7
  6
CONTINUOUS
 10
3.8932212079
 20
2.2646032873
 11
3.8982212079
 21
2.2696032873
  0
LINE
  5
28B
100
AcDbEntity
  8
0
100
AcDbLine
 62
7
  6
CONTINUOUS
 10
3.898157733
 20
2.2695406726
 11
3.8982212079
 21
2.2696032873
  0
LINE
  5
28C
100
AcDbEntity
  8
0
100
AcDbLine
 62
7
  6
CONTINUOUS
 10
5.8299712079
 20
0.4383532873
 11
5.8299712079
 21
1.5258532873
  0
LINE
  5
28D
100
AcDbEntity
  8
ALL_FEATURES
100
AcDbLine
 62
7
  6
CONTINUOUS
 10
5.8299712079
 20
2.5883532873
 11
5.8299712079
 21
7.2508532873
  0
LINE
  5
28E
100
AcDbEntity
  8
0
100
AcDbLine
 62
7
  6
CONTINUOUS
 10
5.8541288255
 20
2.3656359049
 11
5.8541288255
 21
1.7485706697
  0
LINE
  5
28F
100
AcDbEntity
  8
0
100
AcDbLine
 62
7
  6
CONTINUOUS
 10
5.8674712079
 20
7.4708532873
 11
5.8674712079
 21
7.2508532873
  0
LINE
  5
290
100
AcDbEntity
  8
0
100
AcDbLine
 62
7
  6
CONTINUOUS
 10
5.8893462079
 20
2.5883532873
 11
5.8893462079
 21
2.4008532873
  0
LINE
  5
291
100
AcDbEntity
  8
0
100
AcDbLine
 62
7
  6
CONTINUOUS
 10
5.8893462079
 20
1.7133532873
 11
5.8893462079
 21
1.5258532873
  0
LWPOLYLINE
  5
292
100
AcDbEntity
  8
ALL_ASSEMBLY_MEMBERS
100
AcDbPolyline
 62
7
  6
CONTINUOUS
 90
3
 70
0
 10
5.1461547479
 20
7.7368144996
 10
5.1496233829
 20
7.7300669711
 10
5.1497618048
 20
7.729797171
  0
LWPOLYLINE
  5
293
100
AcDbEntity
  8
ALL_ASSEMBLY_MEMBERS
100
AcDbPolyline
 62
7
  6
CONTINUOUS
 90
3
 70
0
 10
5.1586376171
 20
7.7361603001
 10
5.1621062521
 20
7.7294127717
 10
5.162244674
 20
7.7291429715
  0
LWPOLYLINE
  5
294
100
AcDbEntity
  8
ALL_ASSEMBLY_MEMBERS
100
AcDbPolyline
 62
7
  6
CONTINUOUS
 90
3
 70
0
 10
5.1711204863
 20
7.7355061007
 10
5.1745891213
 20
7.7287585722
 10
5.1746185909
 20
7.7287011326
  0
LINE
  5
295
100
AcDbEntity
  8
ALL_ASSEMBLY_MEMBERS
100
AcDbLine
 62
7
  6
CONTINUOUS
 10
5.1522967018
 20
7.7832817317
 11
5.1486896449
 21
7.7902990605
  0
LINE
  5
296
100
AcDbEntity
  8
ALL_ASSEMBLY_MEMBERS
100
AcDbLine
 62
7
  6
CONTINUOUS
 10
5.164779571
 20
7.7826275322
 11
5.1611725141
 21
7.789644861
  0
LINE
  5
297
100
AcDbEntity
  8
0
100
AcDbLine
 62
7
  6
CONTINUOUS
 10
5.2059712079
 20
1.7329782873
 11
5.1707212079
 21
1.6977282873
  0
LINE
  5
298
100
AcDbEntity
  8
0
100
AcDbLine
 62
7
  6
CONTINUOUS
 10
5.8893462079
 20
2.4008532873
 11
5.8541288255
 21
2.3656359049
  0
LINE
  5
299
100
AcDbEntity
  8
0
100
AcDbLine
 62
7
  6
CONTINUOUS
 10
5.3152212079
 20
1.7329782873
 11
5.2955962079
 21
1.7133532873
  0
LINE
  5
29A
100
AcDbEntity
  8
0
100
AcDbLine
 62
7
  6
CONTINUOUS
 10
5.8674712079
 20
7.2508532873
 11
5.3174712079
 21
7.2508532873
  0
LINE
  5
29B
100
AcDbEntity
  8
0
100
AcDbLine
 62
7
  6
CONTINUOUS
 10
5.8674712079
 20
7.4708532873
 11
5.3174712079
 21
7.4708532873
  0
LINE
  5
29C
100
AcDbEntity
  8
0
100
AcDbLine
 62
7
  6
CONTINUOUS
 10
5.3174712079
 20
7.5083532873
 11
5.304661952
 21
7.5083532873
  0
LINE
  5
29D
100
AcDbEntity
  8
0
100
AcDbLine
 62
7
  6
CONTINUOUS
 10
5.1861838301
 20
7.3513037081
 11
5.2486944557
 21
7.348027665
  0
LINE
  5
29E
100
AcDbEntity
  8
0
100
AcDbLine
 62
7
  6
CONTINUOUS
 10
5.2977648572
 20
7.37674888
 11
5.2503299543
 21
7.379234838
  0
LINE
  5
29F
100
AcDbEntity
  8
ALL_ASSEMBLY_MEMBERS
100
AcDbLine
 62
7
  6
CONTINUOUS
 10
5.0798859702
 20
7.3752147227
 11
5.0472898247
 21
7.3839488336
  0
LINE
  5
2A0
100
AcDbEntity
  8
0
100
AcDbLine
 62
7
  6
CONTINUOUS
 10
5.8344467188
 20
7.5000734018
 11
5.8674712079
 21
7.4708532873
  0
LINE
  5
2A1
100
AcDbEntity
  8
ALL_ASSEMBLY_MEMBERS
100
AcDbLine
 62
7
  6
CONTINUOUS
 10
5.1640202607
 20
7.7288560821
 11
5.1624589525
 21
7.7289379068
  0
LINE
  5
2A2
100
AcDbEntity
  8
ALL_ASSEMBLY_MEMBERS
100
AcDbLine
 62
7
  6
CONTINUOUS
 10
5.1515373915
 20
7.7295102815
 11
5.1499760833
 21
7.7295921062
  0
LINE
  5
2A3
100
AcDbEntity
  8
ALL_ASSEMBLY_MEMBERS
100
AcDbLine
 62
7
  6
CONTINUOUS
 10
5.1438915942
 20
7.7366852647
 11
5.1462859649
 21
7.7365597811
  0
LINE
  5
2A4
100
AcDbEntity
  8
ALL_ASSEMBLY_MEMBERS
100
AcDbLine
 62
7
  6
CONTINUOUS
 10
5.1557918661
 20
7.7360615979
 11
5.1587688341
 21
7.7359055816
  0
LINE
  5
2A5
100
AcDbEntity
  8
ALL_ASSEMBLY_MEMBERS
100
AcDbLine
 62
7
  6
CONTINUOUS
 10
5.1682747353
 20
7.7354073984
 11
5.1712517033
 21
7.7352513821
  0
LINE
  5
2A6
100
AcDbEntity
  8
ALL_ASSEMBLY_MEMBERS
100
AcDbLine
 62
7
  6
CONTINUOUS
 10
5.1676253218
 20
7.7827262349
 11
5.1646483653
 21
7.7828822506
  0
LINE
  5
2A7
100
AcDbEntity
  8
ALL_ASSEMBLY_MEMBERS
100
AcDbLine
 62
7
  6
CONTINUOUS
 10
5.1551424526
 20
7.7833804344
 11
5.1521654961
 21
7.7835364501
  0
LINE
  5
2A8
100
AcDbEntity
  8
ALL_ASSEMBLY_MEMBERS
100
AcDbLine
 62
7
  6
CONTINUOUS
 10
5.1731559571
 20
7.7892106705
 11
5.1718797964
 21
7.7892775513
  0
LINE
  5
2A9
100
AcDbEntity
  8
ALL_ASSEMBLY_MEMBERS
100
AcDbLine
 62
7
  6
CONTINUOUS
 10
5.1609582354
 20
7.789849926
 11
5.1593969272
 21
7.7899317507
  0
LINE
  5
2AA
100
AcDbEntity
  8
ALL_ASSEMBLY_MEMBERS
100
AcDbLine
 62
7
  6
CONTINUOUS
 10
5.1484753662
 20
7.7905041255
 11
5.146914058
 21
7.7905859502
  0
LINE
  5
2AB
100
AcDbEntity
  8
ALL_ASSEMBLY_MEMBERS
100
AcDbLine
 62
7
  6
CONTINUOUS
 10
5.1659307887
 20
8.1572181481
 11
5.0871613203
 21
8.1447422899
  0
LINE
  5
2AC
100
AcDbEntity
  8
0
100
AcDbLine
 62
7
  6
CONTINUOUS
 10
5.3370168244
 20
8.1257210311
 11
5.2895819215
 21
8.128206989
  0
LINE
  5
2AD
100
AcDbEntity
  8
0
100
AcDbLine
 62
7
  6
CONTINUOUS
 10
5.166485008
 20
8.1659511107
 11
5.2912174202
 21
8.159414162
  0
ARC
  5
2AE
100
AcDbEntity
  8
0
100
AcDbCircle
 62
7
  6
CONTINUOUS
 10
1.7156405796
 20
3.9159425861
 40
2.7074727246
100
AcDbArc
 50
314.7941167802
 51
315.2056246561
  0
ARC
  5
2AF
100
AcDbEntity
  8
ALL_ASSEMBLY_MEMBERS
100
AcDbCircle
 62
7
  6
CONTINUOUS
 10
3.6220174844
 20
1.6041456032
 40
1.0528093082
100
AcDbArc
 50
89.750301769
 51
89.9344911879
  0
ARC
  5
2B0
100
AcDbEntity
  8
ALL_ASSEMBLY_MEMBERS
100
AcDbCircle
 62
7
  6
CONTINUOUS
 10
3.6225534796
 20
1.681721264
 40
0.9767578722
100
AcDbArc
 50
90.0536950669
 51
90.9789756451
  0
ARC
  5
2B1
100
AcDbEntity
  8
ALL_ASSEMBLY_MEMBERS
100
AcDbCircle
 62
7
  6
CONTINUOUS
 10
3.6225532107
 20
1.6817271115
 40
0.976752025
100
AcDbArc
 50
88.9424828785
 51
89.6830044053
  0
ARC
  5
2B2
100
AcDbEntity
  8
ALL_ASSEMBLY_MEMBERS
100
AcDbCircle
 62
7
  6
CONTINUOUS
 10
3.6225533311
 20
1.6817364135
 40
0.9767427226
100
AcDbArc
 50
89.7756019787
 51
89.9608223089
  0
ARC
  5
2B3
100
AcDbEntity
  8
ALL_ASSEMBLY_MEMBERS
100
AcDbCircle
 62
7
  6
CONTINUOUS
 10
3.6224700043
 20
1.681716906
 40
0.9765630407
100
AcDbArc
 50
90.019589729
 51
91.0670670748
  0
ARC
  5
2B4
100
AcDbEntity
  8
ALL_ASSEMBLY_MEMBERS
100
AcDbCircle
 62
7
  6
CONTINUOUS
 10
3.6224696211
 20
1.6817217989
 40
0.9765581484
100
AcDbArc
 50
88.8447405657
 51
89.7573324174
  0
ARC
  5
2B5
100
AcDbEntity
  8
ALL_ASSEMBLY_MEMBERS
100
AcDbCircle
 62
7
  6
CONTINUOUS
 10
3.6221418885
 20
1.6817197557
 40
0.9755502897
100
AcDbArc
 50
90.0003392495
 51
90.9620743088
  0
ARC
  5
2B6
100
AcDbEntity
  8
ALL_ASSEMBLY_MEMBERS
100
AcDbCircle
 62
7
  6
CONTINUOUS
 10
3.6221415975
 20
1.6817245494
 40
0.9755454965
100
AcDbArc
 50
88.9252141702
 51
89.7378148327
  0
ARC
  5
2B7
100
AcDbEntity
  8
ALL_ASSEMBLY_MEMBERS
100
AcDbCircle
 62
7
  6
CONTINUOUS
 10
3.6218323592
 20
1.8726680956
 40
0.7865514391
100
AcDbArc
 50
90.4806657828
 51
90.596353745
  0
ARC
  5
2B8
100
AcDbEntity
  8
ALL_ASSEMBLY_MEMBERS
100
AcDbCircle
 62
7
  6
CONTINUOUS
 10
3.6203504309
 20
2.0035138789
 40
0.6556972719
100
AcDbArc
 50
90.619841168
 51
90.8464511943
  0
ARC
  5
2B9
100
AcDbEntity
  8
ALL_ASSEMBLY_MEMBERS
100
AcDbCircle
 62
7
  6
CONTINUOUS
 10
3.620843106
 20
2.0883638723
 40
0.5708310769
100
AcDbArc
 50
90.4312698665
 51
90.7477298112
  0
ARC
  5
2BA
100
AcDbEntity
  8
0
100
AcDbCircle
 62
7
  6
CONTINUOUS
 10
3.6107212245
 20
1.9821033039
 40
0.2249997007
100
AcDbArc
 50
180.0
 51
270.0
  0
ARC
  5
2BB
100
AcDbEntity
  8
0
100
AcDbCircle
 62
7
  6
CONTINUOUS
 10
3.3532212079
 20
2.0133532873
 40
0.005
100
AcDbArc
 50
180.0
 51
270.0
  0
ARC
  5
2BC
100
AcDbEntity
  8
ALL_ASSEMBLY_MEMBERS
100
AcDbCircle
 62
7
  6
CONTINUOUS
 10
3.6182413913
 20
2.2962927326
 40
0.3628859877
100
AcDbArc
 50
90.7654092394
 51
90.9555878424
  0
ARC
  5
2BD
100
AcDbEntity
  8
ALL_ASSEMBLY_MEMBERS
100
AcDbCircle
 62
7
  6
CONTINUOUS
 10
3.6127556422
 20
2.4240138968
 40
0.2351271661
100
AcDbArc
 50
91.218417003
 51
91.465888309
  0
ARC
  5
2BE
100
AcDbEntity
  8
ALL_ASSEMBLY_MEMBERS
100
AcDbCircle
 62
7
  6
CONTINUOUS
 10
3.6159159081
 20
2.4365616845
 40
0.2225977615
100
AcDbArc
 50
90.959232316
 51
91.2703368051
  0
ARC
  5
2BF
100
AcDbEntity
  8
ALL_ASSEMBLY_MEMBERS
100
AcDbCircle
 62
7
  6
CONTINUOUS
 10
3.614235723
 20
2.5143311727
 40
0.1448101449
100
AcDbArc
 50
91.2878872965
 51
91.526250374
  0
ARC
  5
2C0
100
AcDbEntity
  8
ALL_ASSEMBLY_MEMBERS
100
AcDbCircle
 62
7
  6
CONTINUOUS
 10
3.6096976448
 20
2.539220646
 40
0.1198799416
100
AcDbArc
 50
91.4134090972
 51
92.0146812745
  0
ARC
  5
2C1
100
AcDbEntity
  8
ALL_ASSEMBLY_MEMBERS
100
AcDbCircle
 62
7
  6
CONTINUOUS
 10
3.3927847962
 20
2.5813532873
 40
0.09375
100
AcDbArc
 50
270.0
 51
334.9859065104
  0
ARC
  5
2C2
100
AcDbEntity
  8
ALL_ASSEMBLY_MEMBERS
100
AcDbCircle
 62
7
  6
CONTINUOUS
 10
3.6117132323
 20
2.7446106305
 40
0.0857938439
100
AcDbArc
 50
268.8519750501
 51
269.418603006
  0
ARC
  5
2C3
100
AcDbEntity
  8
ALL_ASSEMBLY_MEMBERS
100
AcDbCircle
 62
7
  6
CONTINUOUS
 10
3.6197664679
 20
2.7433675276
 40
0.0845870171
100
AcDbArc
 50
272.340750393
 51
273.0088669275
  0
ARC
  5
2C4
100
AcDbEntity
  8
ALL_ASSEMBLY_MEMBERS
100
AcDbCircle
 62
7
  6
CONTINUOUS
 10
3.6155881337
 20
2.7426019047
 40
0.0837576883
100
AcDbArc
 50
271.4176620606
 51
272.1476966657
  0
ARC
  5
2C5
100
AcDbEntity
  8
ALL_ASSEMBLY_MEMBERS
100
AcDbCircle
 62
7
  6
CONTINUOUS
 10
3.6078277598
 20
2.592704896
 40
0.066363017
100
AcDbArc
 50
92.0246449631
 51
92.3243755102
  0
ARC
  5
2C6
100
AcDbEntity
  8
ALL_ASSEMBLY_MEMBERS
100
AcDbCircle
 62
7
  6
CONTINUOUS
 10
3.6071445944
 20
2.6094043513
 40
0.0496495946
100
AcDbArc
 50
92.31822991
 51
92.6199243235
  0
ARC
  5
2C7
100
AcDbEntity
  8
ALL_ASSEMBLY_MEMBERS
100
AcDbCircle
 62
7
  6
CONTINUOUS
 10
3.2789712079
 20
2.3877334173
 40
0.01175
100
AcDbArc
 50
183.9776441351
 51
261.0
  0
ARC
  5
2C8
100
AcDbEntity
  8
ALL_ASSEMBLY_MEMBERS
100
AcDbCircle
 62
7
  6
CONTINUOUS
 10
3.2789712079
 20
2.3861032873
 40
0.01175
100
AcDbArc
 50
90.0
 51
176.0223558649
  0
ARC
  5
2C9
100
AcDbEntity
  8
ALL_ASSEMBLY_MEMBERS
100
AcDbCircle
 62
7
  6
CONTINUOUS
 10
3.6162647656
 20
2.6510694264
 40
0.0081339295
100
AcDbArc
 50
85.7634953159
 51
88.6790346778
  0
ARC
  5
2CA
100
AcDbEntity
  8
ALL_ASSEMBLY_MEMBERS
100
AcDbCircle
 62
7
  6
CONTINUOUS
 10
3.6232212079
 20
1.6814398258
 40
0.9777884615
100
AcDbArc
 50
90.0
 51
90.3724340998
  0
ARC
  5
2CB
100
AcDbEntity
  8
ALL_ASSEMBLY_MEMBERS
100
AcDbCircle
 62
7
  6
CONTINUOUS
 10
3.6232212079
 20
1.6814398258
 40
0.9777884615
100
AcDbArc
 50
91.1103493044
 51
104.813824257
  0
ARC
  5
2CC
100
AcDbEntity
  8
ALL_ASSEMBLY_MEMBERS
100
AcDbCircle
 62
7
  6
CONTINUOUS
 10
3.6232212079
 20
1.6814398258
 40
0.9777884615
100
AcDbArc
 50
75.186175743
 51
88.9324458125
  0
ARC
  5
2CD
100
AcDbEntity
  8
ALL_ASSEMBLY_MEMBERS
100
AcDbCircle
 62
7
  6
CONTINUOUS
 10
3.6281350071
 20
2.1422172911
 40
0.516974108
100
AcDbArc
 50
89.0070648158
 51
89.143514299
  0
ARC
  5
2CE
100
AcDbEntity
  8
ALL_ASSEMBLY_MEMBERS
100
AcDbCircle
 62
7
  6
CONTINUOUS
 10
3.6269972492
 20
2.1659152003
 40
0.4932879892
100
AcDbArc
 50
89.670897028
 51
89.9254489631
  0
ARC
  5
2CF
100
AcDbEntity
  8
ALL_ASSEMBLY_MEMBERS
100
AcDbCircle
 62
7
  6
CONTINUOUS
 10
3.6310777329
 20
2.3048793097
 40
0.3542854172
100
AcDbArc
 50
88.7678622253
 51
88.9265469028
  0
ARC
  5
2D0
100
AcDbEntity
  8
ALL_ASSEMBLY_MEMBERS
100
AcDbCircle
 62
7
  6
CONTINUOUS
 10
3.6293652426
 20
2.3233803149
 40
0.3357775726
100
AcDbArc
 50
89.4304699289
 51
89.7381734261
  0
ARC
  5
2D1
100
AcDbEntity
  8
ALL_ASSEMBLY_MEMBERS
100
AcDbCircle
 62
7
  6
CONTINUOUS
 10
3.6271134824
 20
2.3851804618
 40
0.2740226442
100
AcDbArc
 50
89.9588786358
 51
90.2923978265
  0
ARC
  5
2D2
100
AcDbEntity
  8
ALL_ASSEMBLY_MEMBERS
100
AcDbCircle
 62
7
  6
CONTINUOUS
 10
3.6305617524
 20
2.4109739643
 40
0.248176571
100
AcDbArc
 50
88.7378517645
 51
89.5056792365
  0
ARC
  5
2D3
100
AcDbEntity
  8
ALL_ASSEMBLY_MEMBERS
100
AcDbCircle
 62
7
  6
CONTINUOUS
 10
3.6343302759
 20
2.4513909473
 40
0.2077375986
100
AcDbArc
 50
88.421576523
 51
88.6663239368
  0
ARC
  5
2D4
100
AcDbEntity
  8
ALL_ASSEMBLY_MEMBERS
100
AcDbCircle
 62
7
  6
CONTINUOUS
 10
3.6299960353
 20
2.4588342991
 40
0.2003220782
100
AcDbArc
 50
89.8206180121
 51
90.0271437073
  0
ARC
  5
2D5
100
AcDbEntity
  8
ALL_ASSEMBLY_MEMBERS
100
AcDbCircle
 62
7
  6
CONTINUOUS
 10
3.6266583552
 20
2.4746774458
 40
0.184524503
100
AcDbArc
 50
90.2928968312
 51
90.4968991181
  0
ARC
  5
2D6
100
AcDbEntity
  8
ALL_ASSEMBLY_MEMBERS
100
AcDbCircle
 62
7
  6
CONTINUOUS
 10
3.62998618
 20
2.5143867766
 40
0.1447696032
100
AcDbArc
 50
90.0336591171
 51
90.2566118972
  0
ARC
  5
2D7
100
AcDbEntity
  8
ALL_ASSEMBLY_MEMBERS
100
AcDbCircle
 62
7
  6
CONTINUOUS
 10
3.6329866932
 20
2.5233669482
 40
0.1357574519
100
AcDbArc
 50
88.4295001652
 51
88.7161956959
  0
ARC
  5
2D8
100
AcDbEntity
  8
ALL_ASSEMBLY_MEMBERS
100
AcDbCircle
 62
7
  6
CONTINUOUS
 10
3.6303190703
 20
2.5342729642
 40
0.1251130652
100
AcDbArc
 50
93.9607111883
 51
94.2456619836
  0
ARC
  5
2D9
100
AcDbEntity
  8
ALL_ASSEMBLY_MEMBERS
100
AcDbCircle
 62
7
  6
CONTINUOUS
 10
3.6259690519
 20
2.5442576982
 40
0.1149408088
100
AcDbArc
 50
90.5563216226
 51
90.9260260852
  0
ARC
  5
2DA
100
AcDbEntity
  8
ALL_ASSEMBLY_MEMBERS
100
AcDbCircle
 62
7
  6
CONTINUOUS
 10
3.8536576195
 20
2.5813532873
 40
0.09375
100
AcDbArc
 50
205.0140934896
 51
270.0
  0
ARC
  5
2DB
100
AcDbEntity
  8
ALL_ASSEMBLY_MEMBERS
100
AcDbCircle
 62
7
  6
CONTINUOUS
 10
3.6345065187
 20
2.5788416167
 40
0.0802619681
100
AcDbArc
 50
88.2924512681
 51
88.4286881646
  0
ARC
  5
2DC
100
AcDbEntity
  8
ALL_ASSEMBLY_MEMBERS
100
AcDbCircle
 62
7
  6
CONTINUOUS
 10
3.624992439
 20
2.6020084473
 40
0.0571817123
100
AcDbArc
 50
91.0946032173
 51
91.775048363
  0
ARC
  5
2DD
100
AcDbEntity
  8
ALL_ASSEMBLY_MEMBERS
100
AcDbCircle
 62
7
  6
CONTINUOUS
 10
3.6397312267
 20
2.618113424
 40
0.0409250113
100
AcDbArc
 50
86.8136113023
 51
87.5139563578
  0
ARC
  5
2DE
100
AcDbEntity
  8
ALL_ASSEMBLY_MEMBERS
100
AcDbCircle
 62
7
  6
CONTINUOUS
 10
3.6399378303
 20
2.699237141
 40
0.0405084137
100
AcDbArc
 50
272.1185455192
 51
272.5126919842
  0
ARC
  5
2DF
100
AcDbEntity
  8
ALL_ASSEMBLY_MEMBERS
100
AcDbCircle
 62
7
  6
CONTINUOUS
 10
3.9674712079
 20
2.3877334173
 40
0.01175
100
AcDbArc
 50
279.0
 51
356.0223558649
  0
ARC
  5
2E0
100
AcDbEntity
  8
ALL_ASSEMBLY_MEMBERS
100
AcDbCircle
 62
7
  6
CONTINUOUS
 10
3.9674712079
 20
2.3861032873
 40
0.01175
100
AcDbArc
 50
3.9776441351
 51
90.0
  0
ARC
  5
2E1
100
AcDbEntity
  8
ALL_ASSEMBLY_MEMBERS
100
AcDbCircle
 62
7
  6
CONTINUOUS
 10
3.6287084151
 20
2.6518826453
 40
0.00737443
100
AcDbArc
 50
67.8517967089
 51
70.8552423936
  0
ARC
  5
2E2
100
AcDbEntity
  8
ALL_ASSEMBLY_MEMBERS
100
AcDbCircle
 62
7
  6
CONTINUOUS
 10
3.6359370707
 20
3.1628191568
 40
0.5041258549
100
AcDbArc
 50
269.494408405
 51
270.1720284183
  0
ARC
  5
2E3
100
AcDbEntity
  8
ALL_ASSEMBLY_MEMBERS
100
AcDbCircle
 62
7
  6
CONTINUOUS
 10
3.6113628848
 20
3.1102131385
 40
0.4515398088
100
AcDbArc
 50
269.7351747174
 51
270.4589352563
  0
ARC
  5
2E4
100
AcDbEntity
  8
ALL_ASSEMBLY_MEMBERS
100
AcDbCircle
 62
7
  6
CONTINUOUS
 10
3.6106436806
 20
2.9368109889
 40
0.2781361994
100
AcDbArc
 50
269.4825865562
 51
269.7182255142
  0
ARC
  5
2E5
100
AcDbEntity
  8
ALL_ASSEMBLY_MEMBERS
100
AcDbCircle
 62
7
  6
CONTINUOUS
 10
3.6123757639
 20
2.9180339295
 40
0.2592211922
100
AcDbArc
 50
270.2287515192
 51
270.4841763297
  0
ARC
  5
2E6
100
AcDbEntity
  8
ALL_ASSEMBLY_MEMBERS
100
AcDbCircle
 62
7
  6
CONTINUOUS
 10
3.6124101733
 20
2.9175856023
 40
0.2587725921
100
AcDbArc
 50
270.4773967213
 51
270.7215265043
  0
ARC
  5
2E7
100
AcDbEntity
  8
ALL_ASSEMBLY_MEMBERS
100
AcDbCircle
 62
7
  6
CONTINUOUS
 10
3.6366273086
 20
2.9062187986
 40
0.2475245939
100
AcDbArc
 50
270.1905920099
 51
270.4082011002
  0
ARC
  5
2E8
100
AcDbEntity
  8
ALL_ASSEMBLY_MEMBERS
100
AcDbCircle
 62
7
  6
CONTINUOUS
 10
3.6130736715
 20
2.8626678187
 40
0.2038508096
100
AcDbArc
 50
270.729429134
 51
270.929122877
  0
ARC
  5
2E9
100
AcDbEntity
  8
ALL_ASSEMBLY_MEMBERS
100
AcDbCircle
 62
7
  6
CONTINUOUS
 10
3.612572208
 20
2.8493838656
 40
0.190570907
100
AcDbArc
 50
269.6208081311
 51
270.2520942089
  0
ARC
  5
2EA
100
AcDbEntity
  8
ALL_ASSEMBLY_MEMBERS
100
AcDbCircle
 62
7
  6
CONTINUOUS
 10
3.6165700418
 20
2.8326244864
 40
0.1739024148
100
AcDbArc
 50
271.3592335312
 51
271.6929253321
  0
ARC
  5
2EB
100
AcDbEntity
  8
ALL_ASSEMBLY_MEMBERS
100
AcDbCircle
 62
7
  6
CONTINUOUS
 10
3.6138940626
 20
2.8126211685
 40
0.1537974368
100
AcDbArc
 50
270.9258632803
 51
271.4032267695
  0
ARC
  5
2EC
100
AcDbEntity
  8
ALL_ASSEMBLY_MEMBERS
100
AcDbCircle
 62
7
  6
CONTINUOUS
 10
3.6180965407
 20
2.7832994943
 40
0.1245538742
100
AcDbArc
 50
271.661353533
 51
272.3580535712
  0
ARC
  5
2ED
100
AcDbEntity
  8
ALL_ASSEMBLY_MEMBERS
100
AcDbCircle
 62
7
  6
CONTINUOUS
 10
3.6121095822
 20
2.777610536
 40
0.1187960882
100
AcDbArc
 50
269.3889530789
 51
269.6148336755
  0
ARC
  5
2EE
100
AcDbEntity
  8
0
100
AcDbCircle
 62
7
  6
CONTINUOUS
 10
5.9955416062
 20
0.4114044937
 40
1.4864027504
100
AcDbArc
 50
115.8946146911
 51
117.2385257869
  0
ARC
  5
2EF
100
AcDbEntity
  8
ALL_ASSEMBLY_MEMBERS
100
AcDbCircle
 62
7
  6
CONTINUOUS
 10
7.9543253411
 20
7.5339381405
 40
2.9525
100
AcDbArc
 50
168.5690755523
 51
173.7253137752
  0
ARC
  5
2F0
100
AcDbEntity
  8
ALL_ASSEMBLY_MEMBERS
100
AcDbCircle
 62
7
  6
CONTINUOUS
 10
7.9625936402
 20
7.6917066849
 40
2.9525
100
AcDbArc
 50
180.2746862248
 51
185.4309244477
  0
ARC
  5
2F1
100
AcDbEntity
  8
0
100
AcDbCircle
 62
7
  6
CONTINUOUS
 10
5.3174712079
 20
7.4758086444
 40
0.5175446429
100
AcDbArc
 50
2.687261954
 51
88.6049019959
  0
ARC
  5
2F2
100
AcDbEntity
  8
ALL_ASSEMBLY_MEMBERS
100
AcDbCircle
 62
7
  6
CONTINUOUS
 10
5.0964440563
 20
7.7628142859
 40
0.0958514476
100
AcDbArc
 50
145.5718300592
 51
208.4282774369
  0
ARC
  5
2F3
100
AcDbEntity
  8
0
100
AcDbCircle
 62
7
  6
CONTINUOUS
 10
5.3174712079
 20
7.4758086444
 40
0.0325446429
100
AcDbArc
 50
34.9545239319
 51
90.0
  0
ARC
  5
2F4
100
AcDbEntity
  8
ALL_ASSEMBLY_MEMBERS
100
AcDbCircle
 62
7
  6
CONTINUOUS
 10
5.0557014437
 20
7.4153414229
 40
0.0325
100
AcDbArc
 50
185.4309244477
 51
255.0
  0
ARC
  5
2F5
100
AcDbEntity
  8
ALL_ASSEMBLY_MEMBERS
100
AcDbCircle
 62
7
  6
CONTINUOUS
 10
5.0922454404
 20
8.1126424188
 40
0.0325
100
AcDbArc
 50
99.0
 51
168.5690755523
  0
ARC
  5
2F6
100
AcDbEntity
  8
ALL_ASSEMBLY_MEMBERS
100
AcDbCircle
 62
7
  6
CONTINUOUS
 10
5.1282025776
 20
7.6283942206
 40
0.01
100
AcDbArc
 50
289.0
 51
357.0
  0
LINE
  5
2F7
100
AcDbEntity
  8
ALL_ASSEMBLY_MEMBERS
100
AcDbLine
 62
7
  6
CONTINUOUS
 10
5.1517719473
 20
7.7296921559
 11
5.1515373915
 21
7.7295102815
  0
LINE
  5
2F8
100
AcDbEntity
  8
ALL_ASSEMBLY_MEMBERS
100
AcDbLine
 62
7
  6
CONTINUOUS
 10
5.1486896257
 20
7.7902987249
 11
5.1484753662
 21
7.7905041255
  0
LINE
  5
2F9
100
AcDbEntity
  8
ALL_ASSEMBLY_MEMBERS
100
AcDbLine
 62
7
  6
CONTINUOUS
 10
5.1497618241
 20
7.7297975088
 11
5.1499760833
 21
7.7295921062
  0
LINE
  5
2FA
100
AcDbEntity
  8
ALL_ASSEMBLY_MEMBERS
100
AcDbLine
 62
7
  6
CONTINUOUS
 10
5.1622446931
 20
7.7291433067
 11
5.1624589525
 21
7.7289379068
  0
LINE
  5
2FB
100
AcDbEntity
  8
ALL_ASSEMBLY_MEMBERS
100
AcDbLine
 62
7
  6
CONTINUOUS
 10
5.1591623716
 20
7.7897498749
 11
5.1593969272
 21
7.7899317507
  0
LINE
  5
2FC
100
AcDbEntity
  8
ALL_ASSEMBLY_MEMBERS
100
AcDbLine
 62
7
  6
CONTINUOUS
 10
5.1642548165
 20
7.7290379579
 11
5.1640202607
 21
7.7288560821
  0
LINE
  5
2FD
100
AcDbEntity
  8
ALL_ASSEMBLY_MEMBERS
100
AcDbLine
 62
7
  6
CONTINUOUS
 10
5.161172495
 20
7.7896445268
 11
5.1609582354
 21
7.789849926
  0
LINE
  5
2FE
100
AcDbEntity
  8
ALL_ASSEMBLY_MEMBERS
100
AcDbLine
 62
7
  6
CONTINUOUS
 10
5.1716452568
 20
7.7890960099
 11
5.1718797964
 21
7.7892775513
  0
SPLINE
  5
2FF
100
AcDbEntity
  8
ALL_ASSEMBLY_MEMBERS
100
AcDbSpline
 62
7
  6
CONTINUOUS
 70
0
 71
3
 72
38
 73
34
 74
0
 42
0.0000001
 43
0.0000001
 44
0.0000000001
 40
0.0
 40
0.0
 40
0.0
 40
0.0
 40
0.0037165776
 40
0.0051410553
 40
0.0067968706
 40
0.0108322956
 40
0.0158623011
 40
0.0218980574
 40
0.0289365684
 40
0.0369698735
 40
0.0459874245
 40
0.0559760061
 40
0.0787808854
 40
0.1051984734
 40
0.1350177519
 40
0.2038219585
 40
0.2828764777
 40
0.3694998932
 40
0.4607426652
 40
0.5534923111
 40
0.6445958241
 40
0.7309442989
 40
0.8095925565
 40
0.845182707
 40
0.8778707177
 40
0.9073881731
 40
0.9334825041
 40
0.9559466629
 40
0.9745958048
 40
0.9824474211
 40
0.989302536
 40
0.9951538594
 40
1.0
 40
1.0
 40
1.0
 40
1.0
 10
5.1718797964
 20
7.7892775513
 30
0.0
 10
5.1719549221
 20
7.7892736141
 30
0.0
 10
5.1720379655
 20
7.7891768102
 30
0.0
 10
5.1721020203
 20
7.7890590133
 30
0.0
 10
5.1721612068
 20
7.7889264743
 30
0.0
 10
5.1722295047
 20
7.7887206907
 30
0.0
 10
5.1723048442
 20
7.7884240709
 30
0.0
 10
5.1723769716
 20
7.788064743
 30
0.0
 10
5.1724462275
 20
7.7876430596
 30
0.0
 10
5.1725124277
 20
7.787159935
 30
0.0
 10
5.1725756209
 20
7.7866162469
 30
0.0
 10
5.1726595691
 20
7.7857740787
 30
0.0
 10
5.1727543561
 20
7.7845792075
 30
0.0
 10
5.1728530048
 20
7.7829822878
 30
0.0
 10
5.1729764504
 20
7.7804542387
 30
0.0
 10
5.1730995851
 20
7.7768597439
 30
0.0
 10
5.1732117505
 20
7.7721147881
 30
0.0
 10
5.1733012361
 20
7.7669150982
 30
0.0
 10
5.1733769003
 20
7.7614379748
 30
0.0
 10
5.1734480016
 20
7.7558701018
 30
0.0
 10
5.1735240742
 20
7.7504013649
 30
0.0
 10
5.1736145118
 20
7.7452183127
 30
0.0
 10
5.1737117394
 20
7.7411592533
 30
0.0
 10
5.1738087627
 20
7.7381868192
 30
0.0
 10
5.1738881469
 20
7.7362088664
 30
0.0
 10
5.1739772393
 20
7.7344237425
 30
0.0
 10
5.1740767848
 20
7.7328464428
 30
0.0
 10
5.1741872018
 20
7.7314904806
 30
0.0
 10
5.1742933465
 20
7.7305048293
 30
0.0
 10
5.1743878574
 20
7.729836246
 30
0.0
 10
5.1744576463
 20
7.7294259336
 30
0.0
 10
5.1745303954
 20
7.7290780876
 30
0.0
 10
5.1745859819
 20
7.7288685984
 30
0.0
 10
5.1746153869
 20
7.7287750168
 30
0.0
  0
SPLINE
  5
300
100
AcDbEntity
  8
ALL_ASSEMBLY_MEMBERS
100
AcDbSpline
 62
7
  6
CONTINUOUS
 70
0
 71
3
 72
39
 73
35
 74
0
 42
0.0000001
 43
0.0000001
 44
0.0000000001
 40
0.0
 40
0.0
 40
0.0
 40
0.0
 40
0.0038047451
 40
0.0052748141
 40
0.0069862247
 40
0.0111629568
 40
0.0163741495
 40
0.0226296328
 40
0.0299253659
 40
0.0382524404
 40
0.0475993647
 40
0.0579509379
 40
0.081573754
 40
0.1089211692
 40
0.1397623072
 40
0.2108108215
 40
0.2922224801
 40
0.3811099933
 40
0.4743089936
 40
0.5685043193
 40
0.6603541794
 40
0.7465880146
 40
0.7866302355
 40
0.8241456637
 40
0.8587980881
 40
0.8902860615
 40
0.918331759
 40
0.9426935098
 40
0.9631676388
 40
0.9795882264
 40
0.9862483704
 40
0.991864929
 40
0.9964405754
 40
1.0
 40
1.0
 40
1.0
 40
1.0
 10
5.1640202607
 20
7.7288560821
 30
0.0
 10
5.1639429642
 20
7.728860133
 30
0.0
 10
5.1638584416
 20
7.7289617247
 30
0.0
 10
5.1637934636
 20
7.7290838779
 30
0.0
 10
5.163733121
 20
7.7292221874
 30
0.0
 10
5.1636636069
 20
7.7294367691
 30
0.0
 10
5.163586999
 20
7.7297460584
 30
0.0
 10
5.1635137303
 20
7.7301206894
 30
0.0
 10
5.1634434537
 20
7.7305602808
 30
0.0
 10
5.1633763588
 20
7.7310638424
 30
0.0
 10
5.1633123982
 20
7.7316304194
 30
0.0
 10
5.163227558
 20
7.7325076695
 30
0.0
 10
5.1631319762
 20
7.7337516238
 30
0.0
 10
5.1630328177
 20
7.7354130595
 30
0.0
 10
5.1629091794
 20
7.7380393623
 30
0.0
 10
5.16278654
 20
7.7417665166
 30
0.0
 10
5.1626753102
 20
7.7466751886
 30
0.0
 10
5.1625865779
 20
7.7520349996
 30
0.0
 10
5.1625108015
 20
7.7576550792
 30
0.0
 10
5.162438088
 20
7.7633354697
 30
0.0
 10
5.1623582208
 20
7.768874055
 30
0.0
 10
5.1622758254
 20
7.7733108059
 30
0.0
 10
5.1621941873
 20
7.7766419386
 30
0.0
 10
5.162126558
 20
7.7789237159
 30
0.0
 10
5.1620499827
 20
7.7810310857
 30
0.0
 10
5.1619636189
 20
7.7829452653
 30
0.0
 10
5.1618666448
 20
7.7846492938
 30
0.0
 10
5.1617586096
 20
7.7861281447
 30
0.0
 10
5.1616390561
 20
7.7873686683
 30
0.0
 10
5.1615238253
 20
7.7882476286
 30
0.0
 10
5.1614202879
 20
7.7888222855
 30
0.0
 10
5.161345067
 20
7.7891569669
 30
0.0
 10
5.1612668538
 20
7.7894257055
 30
0.0
 10
5.1612055508
 20
7.7895801003
 30
0.0
 10
5.161172495
 20
7.7896445268
 30
0.0
  0
SPLINE
  5
301
100
AcDbEntity
  8
ALL_ASSEMBLY_MEMBERS
100
AcDbSpline
 62
7
  6
CONTINUOUS
 70
0
 71
3
 72
39
 73
35
 74
0
 42
0.0000001
 43
0.0000001
 44
0.0000000001
 40
0.0
 40
0.0
 40
0.0
 40
0.0
 40
0.0038047673
 40
0.0052748498
 40
0.0069862757
 40
0.0111630409
 40
0.0163742738
 40
0.0226298307
 40
0.0299256497
 40
0.0382527953
 40
0.0475997487
 40
0.0579513481
 40
0.0815743257
 40
0.1089220445
 40
0.1397635585
 40
0.2108098558
 40
0.2922176277
 40
0.3811025014
 40
0.4743002082
 40
0.5684962237
 40
0.6603486035
 40
0.7465863419
 40
0.7866292445
 40
0.8241446372
 40
0.8587970396
 40
0.8902852971
 40
0.9183312215
 40
0.9426931821
 40
0.963167424
 40
0.9795881191
 40
0.9862483122
 40
0.9918648993
 40
0.9964405611
 40
1.0
 40
1.0
 40
1.0
 40
1.0
 10
5.1593969272
 20
7.7899317507
 30
0.0
 10
5.1594742241
 20
7.7899276998
 30
0.0
 10
5.1595587466
 20
7.7898261064
 30
0.0
 10
5.1596237247
 20
7.7897039522
 30
0.0
 10
5.1596840675
 20
7.7895656414
 30
0.0
 10
5.1597535822
 20
7.7893510581
 30
0.0
 10
5.1598301909
 20
7.7890417658
 30
0.0
 10
5.1599034598
 20
7.7886671308
 30
0.0
 10
5.1599737365
 20
7.7882275347
 30
0.0
 10
5.1600408315
 20
7.7877239692
 30
0.0
 10
5.1601047924
 20
7.7871573897
 30
0.0
 10
5.1601896327
 20
7.7862801352
 30
0.0
 10
5.1602852142
 20
7.7850361708
 30
0.0
 10
5.1603843732
 20
7.7833747181
 30
0.0
 10
5.1605080079
 20
7.7807484465
 30
0.0
 10
5.1606306467
 20
7.7770214089
 30
0.0
 10
5.1607418714
 20
7.7721129147
 30
0.0
 10
5.1608306037
 20
7.766753263
 30
0.0
 10
5.16090638
 20
7.7611332494
 30
0.0
 10
5.160979094
 20
7.75545282
 30
0.0
 10
5.161058962
 20
7.7499140902
 30
0.0
 10
5.1611413589
 20
7.7454771947
 30
0.0
 10
5.1612229983
 20
7.7421459696
 30
0.0
 10
5.1612906275
 20
7.7398641796
 30
0.0
 10
5.1613672034
 20
7.7377568053
 30
0.0
 10
5.1614535663
 20
7.7358426158
 30
0.0
 10
5.1615505413
 20
7.7341385726
 30
0.0
 10
5.1616585762
 20
7.7326597105
 30
0.0
 10
5.1617781302
 20
7.7314191782
 30
0.0
 10
5.1618933614
 20
7.7305402124
 30
0.0
 10
5.161996899
 20
7.7299655517
 30
0.0
 10
5.1620721203
 20
7.7296308685
 30
0.0
 10
5.162150334
 20
7.7293621288
 30
0.0
 10
5.1622116372
 20
7.7292077335
 30
0.0
 10
5.1622446931
 20
7.7291433067
 30
0.0
  0
SPLINE
  5
302
100
AcDbEntity
  8
ALL_ASSEMBLY_MEMBERS
100
AcDbSpline
 62
7
  6
CONTINUOUS
 70
0
 71
3
 72
39
 73
35
 74
0
 42
0.0000001
 43
0.0000001
 44
0.0000000001
 40
0.0
 40
0.0
 40
0.0
 40
0.0
 40
0.0038047477
 40
0.0052748104
 40
0.006986208
 40
0.0111628867
 40
0.0163739672
 40
0.0226292332
 40
0.0299246507
 40
0.0382513246
 40
0.0475977745
 40
0.0579485988
 40
0.0815693563
 40
0.1089152111
 40
0.1397546257
 40
0.2108026603
 40
0.2922152955
 40
0.3811036427
 40
0.4743035792
 40
0.5684992471
 40
0.6603476361
 40
0.7465815367
 40
0.7866249699
 40
0.824142137
 40
0.858795563
 40
0.890284159
 40
0.9183301804
 40
0.9426925055
 40
0.9631670077
 40
0.9795879178
 40
0.9862482003
 40
0.9918648347
 40
0.9964405259
 40
1.0
 40
1.0
 40
1.0
 40
1.0
 10
5.146914058
 20
7.7905859502
 30
0.0
 10
5.1469913545
 20
7.7905818993
 30
0.0
 10
5.147075877
 20
7.7904803076
 30
0.0
 10
5.1471408551
 20
7.7903581548
 30
0.0
 10
5.1472011973
 20
7.7902198467
 30
0.0
 10
5.1472707106
 20
7.7900052687
 30
0.0
 10
5.1473473167
 20
7.7896959869
 30
0.0
 10
5.147420584
 20
7.7893213691
 30
0.0
 10
5.1474908586
 20
7.7888817966
 30
0.0
 10
5.1475579515
 20
7.7883782591
 30
0.0
 10
5.1476219089
 20
7.7878117151
 30
0.0
 10
5.1477067463
 20
7.7869345319
 30
0.0
 10
5.1478023288
 20
7.7856906668
 30
0.0
 10
5.1479014789
 20
7.7840293396
 30
0.0
 10
5.1480251248
 20
7.7814031139
 30
0.0
 10
5.1481477647
 20
7.7776759847
 30
0.0
 10
5.1482590005
 20
7.772767286
 30
0.0
 10
5.1483477349
 20
7.7674074195
 30
0.0
 10
5.1484235129
 20
7.7617872972
 30
0.0
 10
5.148496226
 20
7.7561069108
 30
0.0
 10
5.1485760926
 20
7.7505683475
 30
0.0
 10
5.1486584845
 20
7.7461316006
 30
0.0
 10
5.1487401242
 20
7.7428004067
 30
0.0
 10
5.1488077525
 20
7.7405185491
 30
0.0
 10
5.1488843297
 20
7.738411111
 30
0.0
 10
5.1489706923
 20
7.7364968918
 30
0.0
 10
5.1490676693
 20
7.7347928325
 30
0.0
 10
5.1491757031
 20
7.7333139556
 30
0.0
 10
5.1492952577
 20
7.7320734062
 30
0.0
 10
5.1494104894
 20
7.731194429
 30
0.0
 10
5.1495140274
 20
7.7306197611
 30
0.0
 10
5.1495892496
 20
7.7302850746
 30
0.0
 10
5.1496674645
 20
7.7300163329
 30
0.0
 10
5.1497287681
 20
7.7298619363
 30
0.0
 10
5.1497618241
 20
7.7297975088
 30
0.0
  0
LINE
  5
303
100
AcDbEntity
  8
ALL_ASSEMBLY_MEMBERS
100
AcDbLine
 62
7
  6
CONTINUOUS
 10
5.1711204871
 20
7.7355061314
 11
5.1710324598
 21
7.7357084944
  0
SPLINE
  5
304
100
AcDbEntity
  8
ALL_ASSEMBLY_MEMBERS
100
AcDbSpline
 62
7
  6
CONTINUOUS
 70
0
 71
3
 72
38
 73
34
 74
0
 42
0.0000001
 43
0.0000001
 44
0.0000000001
 40
0.0
 40
0.0
 40
0.0
 40
0.0
 40
0.0053207183
 40
0.0116073321
 40
0.0270911136
 40
0.0464080133
 40
0.06942345
 40
0.095975542
 40
0.1258469961
 40
0.1945538584
 40
0.2732760871
 40
0.3593879783
 40
0.4500044622
 40
0.5420815142
 40
0.6325256075
 40
0.7183017245
 40
0.7585322715
 40
0.7965364977
 40
0.8319941285
 40
0.8646178277
 40
0.8941303494
 40
0.9202985178
 40
0.9429148566
 40
0.9618058834
 40
0.9698202868
 40
0.9768666323
 40
0.9829394995
 40
0.9880451987
 40
0.9922082231
 40
0.9954815847
 40
0.9968207121
 40
0.9979930457
 40
1.0
 40
1.0
 40
1.0
 40
1.0
 10
5.1710324598
 20
7.7357084944
 30
0.0
 10
5.1710029867
 20
7.7357870953
 30
0.0
 10
5.1709464239
 20
7.7359614657
 30
0.0
 10
5.1708379541
 20
7.736375026
 30
0.0
 10
5.1707142269
 20
7.7370119092
 30
0.0
 10
5.1705818775
 20
7.7379145423
 30
0.0
 10
5.170457856
 20
7.738994385
 30
0.0
 10
5.170342004
 20
7.7402423895
 30
0.0
 10
5.1701908736
 20
7.7422108464
 30
0.0
 10
5.1700275855
 20
7.7450035376
 30
0.0
 10
5.1698615944
 20
7.7486844199
 30
0.0
 10
5.1697126925
 20
7.7527119485
 30
0.0
 10
5.1695741717
 20
7.7569506371
 30
0.0
 10
5.1694390756
 20
7.7612578182
 30
0.0
 10
5.1693001354
 20
7.7654884715
 30
0.0
 10
5.169172856
 20
7.7689010761
 30
0.0
 10
5.1690597056
 20
7.7714862147
 30
0.0
 10
5.1689712511
 20
7.7732777723
 30
0.0
 10
5.1688766016
 20
7.7749488264
 30
0.0
 10
5.1687751856
 20
7.7764852536
 30
0.0
 10
5.1686662873
 20
7.7778742138
 30
0.0
 10
5.1685495582
 20
7.7791040651
 30
0.0
 10
5.1684245909
 20
7.7801645397
 30
0.0
 10
5.1683081357
 20
7.7809373903
 30
0.0
 10
5.168207178
 20
7.7814635217
 30
0.0
 10
5.1681333712
 20
7.7817887645
 30
0.0
 10
5.1680572889
 20
7.7820661643
 30
0.0
 10
5.1679789435
 20
7.7822954537
 30
0.0
 10
5.1678983211
 20
7.7824764359
 30
0.0
 10
5.1678248543
 20
7.7825948943
 30
0.0
 10
5.167762644
 20
7.7826621956
 30
0.0
 10
5.1677065802
 20
7.7827063762
 30
0.0
 10
5.16765694
 20
7.782724566
 30
0.0
 10
5.1676253156
 20
7.7827261444
 30
0.0
  0
SPLINE
  5
305
100
AcDbEntity
  8
ALL_ASSEMBLY_MEMBERS
100
AcDbSpline
 62
7
  6
CONTINUOUS
 70
0
 71
3
 72
39
 73
35
 74
0
 42
0.0000001
 43
0.0000001
 44
0.0000000001
 40
0.0
 40
0.0
 40
0.0
 40
0.0
 40
0.0038047613
 40
0.0052748406
 40
0.0069862634
 40
0.0111630239
 40
0.0163742548
 40
0.0226298061
 40
0.029925617
 40
0.0382527543
 40
0.0475997012
 40
0.057951292
 40
0.0815742661
 40
0.1089220678
 40
0.1397636875
 40
0.2108091793
 40
0.2922146664
 40
0.3810972444
 40
0.4742938891
 40
0.5684901507
 40
0.6603440808
 40
0.7465844682
 40
0.7866284005
 40
0.8241445138
 40
0.8587971704
 40
0.8902853511
 40
0.9183311732
 40
0.9426931274
 40
0.963167386
 40
0.9795880983
 40
0.9862482985
 40
0.9918648891
 40
0.9964405547
 40
1.0
 40
1.0
 40
1.0
 40
1.0
 10
5.1515373915
 20
7.7295102815
 30
0.0
 10
5.1514600947
 20
7.7295143325
 30
0.0
 10
5.1513755722
 20
7.7296159254
 30
0.0
 10
5.1513105941
 20
7.7297380793
 30
0.0
 10
5.1512502513
 20
7.7298763899
 30
0.0
 10
5.1511807368
 20
7.7300909731
 30
0.0
 10
5.1511041282
 20
7.7304002651
 30
0.0
 10
5.1510308593
 20
7.7307748998
 30
0.0
 10
5.1509605826
 20
7.7312144955
 30
0.0
 10
5.1508934876
 20
7.7317180605
 30
0.0
 10
5.1508295267
 20
7.7322846394
 30
0.0
 10
5.1507446862
 20
7.7331618936
 30
0.0
 10
5.1506491045
 20
7.7344058593
 30
0.0
 10
5.1505499455
 20
7.7360673158
 30
0.0
 10
5.1504263116
 20
7.7386935749
 30
0.0
 10
5.1503036737
 20
7.7424205517
 30
0.0
 10
5.150192451
 20
7.7473289364
 30
0.0
 10
5.1501037196
 20
7.7526884732
 30
0.0
 10
5.1500279433
 20
7.7583084234
 30
0.0
 10
5.1499552293
 20
7.7639888677
 30
0.0
 10
5.1498753607
 20
7.7695276879
 30
0.0
 10
5.1497929634
 20
7.7739646897
 30
0.0
 10
5.1497113217
 20
7.7772960042
 30
0.0
 10
5.1496436917
 20
7.779577835
 30
0.0
 10
5.1495671155
 20
7.7816852275
 30
0.0
 10
5.1494807524
 20
7.7835994186
 30
0.0
 10
5.1493837774
 20
7.7853034579
 30
0.0
 10
5.1492757428
 20
7.7867823182
 30
0.0
 10
5.1491561888
 20
7.7880228511
 30
0.0
 10
5.1490409577
 20
7.7889018177
 30
0.0
 10
5.1489374201
 20
7.7894764789
 30
0.0
 10
5.1488621987
 20
7.7898111624
 30
0.0
 10
5.1487839849
 20
7.7900799023
 30
0.0
 10
5.1487226816
 20
7.7902342979
 30
0.0
 10
5.1486896257
 20
7.7902987249
 30
0.0
  0
LINE
  5
306
100
AcDbEntity
  8
ALL_ASSEMBLY_MEMBERS
100
AcDbLine
 62
7
  6
CONTINUOUS
 10
5.1461547572
 20
7.7368146739
 11
5.1460965504
 21
7.7369411813
  0
SPLINE
  5
307
100
AcDbEntity
  8
ALL_ASSEMBLY_MEMBERS
100
AcDbSpline
 62
7
  6
CONTINUOUS
 70
0
 71
3
 72
18
 73
14
 74
0
 42
0.0000001
 43
0.0000001
 44
0.0000000001
 40
0.0
 40
0.0
 40
0.0
 40
0.0
 40
0.0221542439
 40
0.0504797118
 40
0.0849711895
 40
0.1255345045
 40
0.1720428656
 40
0.2243078127
 40
0.345132524
 40
0.4858773331
 40
0.6439332209
 40
0.816380468
 40
1.0
 40
1.0
 40
1.0
 40
1.0
 10
5.1460965504
 20
7.7369411813
 30
0.0
 10
5.1460496199
 20
7.7370543429
 30
0.0
 10
5.1459631638
 20
7.737320506
 30
0.0
 10
5.1458532418
 20
7.737777487
 30
0.0
 10
5.1457480056
 20
7.7383396011
 30
0.0
 10
5.1456475389
 20
7.7390043428
 30
0.0
 10
5.1455519695
 20
7.7397689568
 30
0.0
 10
5.1454247603
 20
7.7409766486
 30
0.0
 10
5.1452825347
 20
7.7427064294
 30
0.0
 10
5.1451347128
 20
7.745022197
 30
0.0
 10
5.1450010277
 20
7.7476246943
 30
0.0
 10
5.1448792158
 20
7.7504650663
 30
0.0
 10
5.1448060427
 20
7.7524326699
 30
0.0
 10
5.1447700731
 20
7.7534474003
 30
0.0
  0
SPLINE
  5
308
100
AcDbEntity
  8
ALL_ASSEMBLY_MEMBERS
100
AcDbSpline
 62
7
  6
CONTINUOUS
 70
0
 71
3
 72
40
 73
36
 74
0
 42
0.0000001
 43
0.0000001
 44
0.0000000001
 40
0.0
 40
0.0
 40
0.0
 40
0.0
 40
0.0020325472
 40
0.0032246002
 40
0.0045903972
 40
0.0079399915
 40
0.0122095241
 40
0.0174501461
 40
0.0236843216
 40
0.0309208134
 40
0.0391558152
 40
0.0585671939
 40
0.0817931326
 40
0.1086597152
 40
0.1389376431
 40
0.172381742
 40
0.2087004826
 40
0.2475830445
 40
0.2886968684
 40
0.3761661192
 40
0.4680788081
 40
0.561245221
 40
0.6524287137
 40
0.7384642709
 40
0.8163737537
 40
0.8514301956
 40
0.8834747486
 40
0.9122384558
 40
0.9374846399
 40
0.9590021604
 40
0.9766439583
 40
0.9839759722
 40
0.9903053252
 40
0.9956397229
 40
1.0
 40
1.0
 40
1.0
 40
1.0
 10
5.1557918737
 20
7.7360617251
 30
0.0
 10
5.1557596992
 20
7.7360633783
 30
0.0
 10
5.1557091681
 20
7.7360822058
 30
0.0
 10
5.1556522891
 20
7.7361277268
 30
0.0
 10
5.1555890438
 20
7.7361973123
 30
0.0
 10
5.1555144851
 20
7.7363197722
 30
0.0
 10
5.1554326967
 20
7.7365067479
 30
0.0
 10
5.1553532407
 20
7.736743594
 30
0.0
 10
5.1552760773
 20
7.7370300768
 30
0.0
 10
5.1552012945
 20
7.7373659877
 30
0.0
 10
5.1550991167
 20
7.7379094506
 30
0.0
 10
5.1549814118
 20
7.7387074384
 30
0.0
 10
5.1548551478
 20
7.739801947
 30
0.0
 10
5.1547374647
 20
7.7410704997
 30
0.0
 10
5.1546277426
 20
7.7425022214
 30
0.0
 10
5.1545256891
 20
7.7440846644
 30
0.0
 10
5.15443055
 20
7.7458041406
 30
0.0
 10
5.1543416415
 20
7.7476456653
 30
0.0
 10
5.1542280436
 20
7.7502976644
 30
0.0
 10
5.1541001163
 20
7.7537903263
 30
0.0
 10
5.1539598529
 20
7.7581080892
 30
0.0
 10
5.1538225422
 20
7.7624848469
 30
0.0
 10
5.1536806212
 20
7.7667682622
 30
0.0
 10
5.1535266781
 20
7.7708092757
 30
0.0
 10
5.1533783472
 20
7.7739601626
 30
0.0
 10
5.1532426547
 20
7.7762546783
 30
0.0
 10
5.1531371955
 20
7.7777705595
 30
0.0
 10
5.1530238897
 20
7.7791299041
 30
0.0
 10
5.1529024502
 20
7.7803209918
 30
0.0
 10
5.1527722567
 20
7.7813336272
 30
0.0
 10
5.1526507643
 20
7.7820608396
 30
0.0
 10
5.1525447571
 20
7.7825456589
 30
0.0
 10
5.1524678021
 20
7.7828369
 30
0.0
 10
5.1523885591
 20
7.7830783591
 30
0.0
 10
5.1523283393
 20
7.7832201513
 30
0.0
 10
5.1522966955
 20
7.7832815943
 30
0.0
  0
LINE
  5
309
100
AcDbEntity
  8
ALL_ASSEMBLY_MEMBERS
100
AcDbLine
 62
7
  6
CONTINUOUS
 10
5.1586376232
 20
7.7361604339
 11
5.1584976753
 21
7.7365129387
  0
SPLINE
  5
30A
100
AcDbEntity
  8
ALL_ASSEMBLY_MEMBERS
100
AcDbSpline
 62
7
  6
CONTINUOUS
 70
0
 71
3
 72
37
 73
33
 74
0
 42
0.0000001
 43
0.0000001
 44
0.0000000001
 40
0.0
 40
0.0
 40
0.0
 40
0.0
 40
0.0059022759
 40
0.0127610189
 40
0.0293346479
 40
0.0496353042
 40
0.0735346714
 40
0.1008510481
 40
0.1313663738
 40
0.2010062493
 40
0.2801948278
 40
0.3663395413
 40
0.4566121579
 40
0.5480437633
 40
0.637623535
 40
0.7224045072
 40
0.7621193686
 40
0.7996056122
 40
0.8345633386
 40
0.8667051803
 40
0.8957696782
 40
0.9215336432
 40
0.9437883049
 40
0.9623810333
 40
0.9702679867
 40
0.9771995364
 40
0.9831740879
 40
0.9882013436
 40
0.9923044011
 40
0.995534542
 40
0.9980091878
 40
1.0
 40
1.0
 40
1.0
 40
1.0
 10
5.1584976753
 20
7.7365129387
 30
0.0
 10
5.1584693929
 20
7.7366013312
 30
0.0
 10
5.158414881
 20
7.7367945694
 30
0.0
 10
5.1583103129
 20
7.7372439179
 30
0.0
 10
5.1581904253
 20
7.7379214594
 30
0.0
 10
5.1580617104
 20
7.7388684612
 30
0.0
 10
5.1579413435
 20
7.73998664
 30
0.0
 10
5.1578288187
 20
7.7412668891
 30
0.0
 10
5.1576824071
 20
7.7432659427
 30
0.0
 10
5.1575236249
 20
7.7460816178
 30
0.0
 10
5.1573615046
 20
7.7497727965
 30
0.0
 10
5.1572154543
 20
7.753789295
 30
0.0
 10
5.1570789069
 20
7.7579987182
 30
0.0
 10
5.1569450785
 20
7.7622622676
 30
0.0
 10
5.1568069157
 20
7.7664392844
 30
0.0
 10
5.1566799879
 20
7.7698030287
 30
0.0
 10
5.1565671468
 20
7.772347532
 30
0.0
 10
5.1564789232
 20
7.7741089131
 30
0.0
 10
5.156384627
 20
7.775750725
 30
0.0
 10
5.1562835842
 20
7.7772594524
 30
0.0
 10
5.156175161
 20
7.7786227039
 30
0.0
 10
5.156059103
 20
7.7798292694
 30
0.0
 10
5.1559348165
 20
7.7808693564
 30
0.0
 10
5.1558192126
 20
7.7816271504
 30
0.0
 10
5.1557190405
 20
7.7821429451
 30
0.0
 10
5.1556457882
 20
7.7824616629
 30
0.0
 10
5.1555702908
 20
7.7827334896
 30
0.0
 10
5.1554925806
 20
7.7829581252
 30
0.0
 10
5.155412721
 20
7.783135782
 30
0.0
 10
5.1553301087
 20
7.7832667707
 30
0.0
 10
5.1552429242
 20
7.7833533963
 30
0.0
 10
5.1551737074
 20
7.7833787057
 30
0.0
 10
5.1551424452
 20
7.7833803112
 30
0.0
  0
SPLINE
  5
30B
100
AcDbEntity
  8
ALL_ASSEMBLY_MEMBERS
100
AcDbSpline
 62
7
  6
CONTINUOUS
 70
0
 71
3
 72
40
 73
36
 74
0
 42
0.0000001
 43
0.0000001
 44
0.0000000001
 40
0.0
 40
0.0
 40
0.0
 40
0.0
 40
0.0020328652
 40
0.0032245905
 40
0.0045893333
 40
0.0079371814
 40
0.0122076948
 40
0.0174504223
 40
0.023685632
 40
0.0309200971
 40
0.0391533263
 40
0.0585679626
 40
0.081792914
 40
0.1086592081
 40
0.1389398504
 40
0.1723812569
 40
0.2087025561
 40
0.2475845302
 40
0.2886984329
 40
0.3761682639
 40
0.4680823257
 40
0.561249038
 40
0.6524320005
 40
0.7384678586
 40
0.8163782929
 40
0.8514319381
 40
0.8834791981
 40
0.9122404737
 40
0.9374860107
 40
0.9590044745
 40
0.9766419913
 40
0.9839752526
 40
0.9903072509
 40
0.9956414445
 40
1.0
 40
1.0
 40
1.0
 40
1.0
 10
5.1682747445
 20
7.7354075754
 30
0.0
 10
5.1682425667
 20
7.7354092635
 30
0.0
 10
5.1681920589
 20
7.7354281177
 30
0.0
 10
5.1681351723
 20
7.7354735982
 30
0.0
 10
5.1680718945
 20
7.7355430872
 30
0.0
 10
5.1679973106
 20
7.735665508
 30
0.0
 10
5.1679155579
 20
7.735852523
 30
0.0
 10
5.1678361194
 20
7.7360894435
 30
0.0
 10
5.1677589691
 20
7.7363759479
 30
0.0
 10
5.1676841532
 20
7.7367118067
 30
0.0
 10
5.1675819476
 20
7.7372552573
 30
0.0
 10
5.167464309
 20
7.7380532645
 30
0.0
 10
5.1673380014
 20
7.7391478003
 30
0.0
 10
5.1672203177
 20
7.7404163787
 30
0.0
 10
5.1671106278
 20
7.7418481005
 30
0.0
 10
5.1670085306
 20
7.7434305842
 30
0.0
 10
5.1669134258
 20
7.7451500537
 30
0.0
 10
5.1668244997
 20
7.7469916128
 30
0.0
 10
5.1667109063
 20
7.7496436175
 30
0.0
 10
5.1665829747
 20
7.7531363169
 30
0.0
 10
5.166442717
 20
7.7574541225
 30
0.0
 10
5.1663054035
 20
7.761830905
 30
0.0
 10
5.1661634794
 20
7.766114328
 30
0.0
 10
5.1660095255
 20
7.7701553587
 30
0.0
 10
5.1658612261
 20
7.7733062279
 30
0.0
 10
5.1657254838
 20
7.7756007578
 30
0.0
 10
5.1656200661
 20
7.7771166041
 30
0.0
 10
5.1655067366
 20
7.7784759435
 30
0.0
 10
5.1653852833
 20
7.7796669966
 30
0.0
 10
5.1652551359
 20
7.7806795774
 30
0.0
 10
5.1651335559
 20
7.7814067426
 30
0.0
 10
5.1650275673
 20
7.7818915588
 30
0.0
 10
5.1649506677
 20
7.7821828755
 30
0.0
 10
5.1648714396
 20
7.7824243531
 30
0.0
 10
5.1648112169
 20
7.7825661123
 30
0.0
 10
5.1647795732
 20
7.7826275248
 30
0.0
  0
LINE
  5
30C
100
AcDbEntity
  8
ALL_ASSEMBLY_MEMBERS
100
AcDbLine
 62
7
  6
CONTINUOUS
 10
3.6421587079
 20
2.6567380168
 11
3.6266056721
 21
2.6569449136
  0
LINE
  5
30D
100
AcDbEntity
  8
ALL_ASSEMBLY_MEMBERS
100
AcDbLine
 62
7
  6
CONTINUOUS
 10
3.6266315068
 20
2.6590664305
 11
3.6242064827
 21
2.6588971202
  0
LINE
  5
30E
100
AcDbEntity
  8
ALL_ASSEMBLY_MEMBERS
100
AcDbLine
 62
7
  6
CONTINUOUS
 10
3.6293377993
 20
2.6591549278
 11
3.6266315068
 21
2.6590664305
  0
LINE
  5
30F
100
AcDbEntity
  8
ALL_ASSEMBLY_MEMBERS
100
AcDbLine
 62
7
  6
CONTINUOUS
 10
3.630899652
 20
2.6591543815
 11
3.6306232039
 21
2.6591553955
  0
LINE
  5
310
100
AcDbEntity
  8
ALL_ASSEMBLY_MEMBERS
100
AcDbLine
 62
7
  6
CONTINUOUS
 10
3.6383867094
 20
2.6589563636
 11
3.6368981597
 21
2.6590679439
  0
LINE
  5
311
100
AcDbEntity
  8
ALL_ASSEMBLY_MEMBERS
100
AcDbLine
 62
7
  6
CONTINUOUS
 10
3.6414353117
 20
2.6587564156
 11
3.6383907711
 21
2.6587004866
  0
LINE
  5
312
100
AcDbEntity
  8
ALL_ASSEMBLY_MEMBERS
100
AcDbLine
 62
7
  6
CONTINUOUS
 10
3.6428045996
 20
2.6588799663
 11
3.6417137472
 21
2.6587676748
  0
LINE
  5
313
100
AcDbEntity
  8
ALL_ASSEMBLY_MEMBERS
100
AcDbLine
 62
7
  6
CONTINUOUS
 10
3.6051212082
 20
2.6587448082
 11
3.6036565802
 21
2.658853422
  0
SPLINE
  5
314
100
AcDbEntity
  8
ALL_ASSEMBLY_MEMBERS
100
AcDbSpline
 62
7
  6
CONTINUOUS
 70
0
 71
3
 72
9
 73
5
 74
0
 42
0.0000001
 43
0.0000001
 44
0.0000000001
 40
0.0
 40
0.0
 40
0.0
 40
0.0
 40
0.6413355078
 40
1.0
 40
1.0
 40
1.0
 40
1.0
 10
3.6036565802
 20
2.658853422
 30
0.0
 10
3.603651622
 20
2.6588554314
 30
0.0
 10
3.6036440866
 20
2.6588584806
 30
0.0
 10
3.6036378177
 20
2.6588657632
 30
0.0
 10
3.6036378177
 20
2.6588687551
 30
0.0
  0
LINE
  5
315
100
AcDbEntity
  8
ALL_ASSEMBLY_MEMBERS
100
AcDbLine
 62
7
  6
CONTINUOUS
 10
3.6081319869
 20
2.6586861306
 11
3.6051212082
 21
2.6587448082
  0
LINE
  5
316
100
AcDbEntity
  8
ALL_ASSEMBLY_MEMBERS
100
AcDbLine
 62
7
  6
CONTINUOUS
 10
3.6203474402
 20
2.658762991
 11
3.614979649
 21
2.6586878148
  0
LINE
  5
317
100
AcDbEntity
  8
ALL_ASSEMBLY_MEMBERS
100
AcDbLine
 62
7
  6
CONTINUOUS
 10
3.6206951593
 20
2.6587710042
 11
3.6203474402
 21
2.658762991
  0
LINE
  5
318
100
AcDbEntity
  8
ALL_ASSEMBLY_MEMBERS
100
AcDbLine
 62
7
  6
CONTINUOUS
 10
3.6221361123
 20
2.6569551952
 11
3.6042837079
 21
2.6567606049
  0
LINE
  5
319
100
AcDbEntity
  8
ALL_ASSEMBLY_MEMBERS
100
AcDbLine
 62
7
  6
CONTINUOUS
 10
3.6092394101
 20
2.6590522493
 11
3.6086309163
 21
2.6590212368
  0
LINE
  5
31A
100
AcDbEntity
  8
ALL_ASSEMBLY_MEMBERS
100
AcDbLine
 62
7
  6
CONTINUOUS
 10
3.6086309163
 20
2.6590212368
 11
3.6081467681
 21
2.6589635031
  0
LINE
  5
31B
100
AcDbEntity
  8
ALL_ASSEMBLY_MEMBERS
100
AcDbLine
 62
7
  6
CONTINUOUS
 10
3.6103787128
 20
2.6590899429
 11
3.6092394101
 21
2.6590522493
  0
LINE
  5
31C
100
AcDbEntity
  8
ALL_ASSEMBLY_MEMBERS
100
AcDbLine
 62
7
  6
CONTINUOUS
 10
3.6168656482
 20
2.6591811309
 11
3.6165464559
 21
2.6591787786
  0
LINE
  5
31D
100
AcDbEntity
  8
ALL_ASSEMBLY_MEMBERS
100
AcDbLine
 62
7
  6
CONTINUOUS
 10
3.6217456696
 20
2.6590918976
 11
3.6232212079
 21
2.6591627207
  0
LINE
  5
31E
100
AcDbEntity
  8
ALL_ASSEMBLY_MEMBERS
100
AcDbLine
 62
7
  6
CONTINUOUS
 10
3.6199042463
 20
2.6589598548
 11
3.6204317834
 21
2.6589961317
  0
LINE
  5
31F
100
AcDbEntity
  8
ALL_ASSEMBLY_MEMBERS
100
AcDbLine
 62
7
  6
CONTINUOUS
 10
3.6187270034
 20
2.6589030525
 11
3.6199042463
 21
2.6589598548
  0
LINE
  5
320
100
AcDbEntity
  8
ALL_ASSEMBLY_MEMBERS
100
AcDbLine
 62
7
  6
CONTINUOUS
 10
3.6089901586
 20
2.6588639639
 11
3.6099943119
 21
2.658834008
  0
LINE
  5
321
100
AcDbEntity
  8
ALL_ASSEMBLY_MEMBERS
100
AcDbLine
 62
7
  6
CONTINUOUS
 10
3.6081332134
 20
2.6589510972
 11
3.6089901586
 21
2.6588639639
  0
LINE
  5
322
100
AcDbEntity
  8
ALL_ASSEMBLY_MEMBERS
100
AcDbLine
 62
7
  6
CONTINUOUS
 10
3.6420060153
 20
2.6589751652
 11
3.642788133
 21
2.6588942775
  0
LINE
  5
323
100
AcDbEntity
  8
ALL_ASSEMBLY_MEMBERS
100
AcDbLine
 62
7
  6
CONTINUOUS
 10
3.6386960043
 20
2.6590828088
 11
3.6391653553
 21
2.6590722701
  0
LINE
  5
324
100
AcDbEntity
  8
ALL_ASSEMBLY_MEMBERS
100
AcDbLine
 62
7
  6
CONTINUOUS
 10
3.6400524501
 20
2.6590497217
 11
3.6414480051
 21
2.6590024392
  0
SPLINE
  5
325
100
AcDbEntity
  8
ALL_ASSEMBLY_MEMBERS
100
AcDbSpline
 62
7
  6
CONTINUOUS
 70
0
 71
3
 72
8
 73
4
 74
0
 42
0.0000001
 43
0.0000001
 44
0.0000000001
 40
0.0
 40
0.0
 40
0.0
 40
0.0
 40
1.0
 40
1.0
 40
1.0
 40
1.0
 10
3.6414480051
 20
2.6590024392
 30
0.0
 10
3.6414674676
 20
2.6590016094
 30
0.0
 10
3.6414869297
 20
2.6590007691
 30
0.0
 10
3.6415063913
 20
2.6589999174
 30
0.0
  0
LINE
  5
326
100
AcDbEntity
  8
ALL_ASSEMBLY_MEMBERS
100
AcDbLine
 62
7
  6
CONTINUOUS
 10
3.632367012
 20
2.6591758993
 11
3.6329183406
 21
2.6591704785
  0
LINE
  5
327
100
AcDbEntity
  8
ALL_ASSEMBLY_MEMBERS
100
AcDbLine
 62
7
  6
CONTINUOUS
 10
3.6329183406
 20
2.6591704785
 11
3.6340608096
 21
2.6591578157
  0
LINE
  5
328
100
AcDbEntity
  8
ALL_ASSEMBLY_MEMBERS
100
AcDbLine
 62
7
  6
CONTINUOUS
 10
3.6340608096
 20
2.6591578157
 11
3.6352535028
 21
2.6591424233
  0
LINE
  5
329
100
AcDbEntity
  8
ALL_ASSEMBLY_MEMBERS
100
AcDbLine
 62
7
  6
CONTINUOUS
 10
3.6352535028
 20
2.6591424233
 11
3.6358627044
 21
2.6591336392
  0
LINE
  5
32A
100
AcDbEntity
  8
ALL_ASSEMBLY_MEMBERS
100
AcDbLine
 62
7
  6
CONTINUOUS
 10
3.6298306455
 20
2.659195052
 11
3.6310349852
 21
2.6591871767
  0
LINE
  5
32B
100
AcDbEntity
  8
ALL_ASSEMBLY_MEMBERS
100
AcDbLine
 62
7
  6
CONTINUOUS
 10
3.6310349852
 20
2.6591871767
 11
3.6319077069
 21
2.65918008
  0
LINE
  5
32C
100
AcDbEntity
  8
ALL_ASSEMBLY_MEMBERS
100
AcDbLine
 62
7
  6
CONTINUOUS
 10
3.6319077069
 20
2.65918008
 11
3.632367012
 21
2.6591758993
  0
LINE
  5
32D
100
AcDbEntity
  8
ALL_ASSEMBLY_MEMBERS
100
AcDbLine
 62
7
  6
CONTINUOUS
 10
3.6248530351
 20
2.6591930888
 11
3.6250580818
 21
2.6591950095
  0
LINE
  5
32E
100
AcDbEntity
  8
ALL_ASSEMBLY_MEMBERS
100
AcDbLine
 62
7
  6
CONTINUOUS
 10
3.6273101493
 20
2.6592030354
 11
3.6276390961
 21
2.6592027719
  0
LINE
  5
32F
100
AcDbEntity
  8
ALL_ASSEMBLY_MEMBERS
100
AcDbLine
 62
7
  6
CONTINUOUS
 10
3.6239000814
 20
2.6591797249
 11
3.6240043676
 21
2.6591816686
  0
LINE
  5
330
100
AcDbEntity
  8
ALL_ASSEMBLY_MEMBERS
100
AcDbLine
 62
7
  6
CONTINUOUS
 10
3.6240043676
 20
2.6591816686
 11
3.6241114359
 21
2.659183495
  0
LINE
  5
331
100
AcDbEntity
  8
ALL_ASSEMBLY_MEMBERS
100
AcDbLine
 62
7
  6
CONTINUOUS
 10
3.6096316764
 20
2.6591233472
 11
3.6099703279
 21
2.6591288957
  0
LINE
  5
332
100
AcDbEntity
  8
ALL_ASSEMBLY_MEMBERS
100
AcDbLine
 62
7
  6
CONTINUOUS
 10
3.6099703279
 20
2.6591288957
 11
3.6106639312
 21
2.6591395985
  0
LINE
  5
333
100
AcDbEntity
  8
ALL_ASSEMBLY_MEMBERS
100
AcDbLine
 62
7
  6
CONTINUOUS
 10
3.6132570597
 20
2.6591727815
 11
3.6136458151
 21
2.6591769302
  0
LINE
  5
334
100
AcDbEntity
  8
ALL_ASSEMBLY_MEMBERS
100
AcDbLine
 62
7
  6
CONTINUOUS
 10
3.6152338989
 20
2.6591918566
 11
3.6160441471
 21
2.6591982664
  0
LINE
  5
335
100
AcDbEntity
  8
ALL_ASSEMBLY_MEMBERS
100
AcDbLine
 62
7
  6
CONTINUOUS
 10
3.6160441471
 20
2.6591982664
 11
3.6164522783
 21
2.6592011943
  0
LINE
  5
336
100
AcDbEntity
  8
ALL_ASSEMBLY_MEMBERS
100
AcDbLine
 62
7
  6
CONTINUOUS
 10
3.6077559486
 20
2.6590879007
 11
3.6083356579
 21
2.6590998299
  0
LINE
  5
337
100
AcDbEntity
  8
ALL_ASSEMBLY_MEMBERS
100
AcDbLine
 62
7
  6
CONTINUOUS
 10
3.6083356579
 20
2.6590998299
 11
3.6089611316
 21
2.6591116662
  0
LINE
  5
338
100
AcDbEntity
  8
ALL_ASSEMBLY_MEMBERS
100
AcDbLine
 62
7
  6
CONTINUOUS
 10
3.6092628888
 20
2.6591170431
 11
3.6096316764
 21
2.6591233472
  0
LINE
  5
339
100
AcDbEntity
  8
ALL_ASSEMBLY_MEMBERS
100
AcDbLine
 62
7
  6
CONTINUOUS
 10
3.6036378177
 20
2.6588687551
 11
3.604875093
 21
2.6590020489
  0
LINE
  5
33A
100
AcDbEntity
  8
ALL_ASSEMBLY_MEMBERS
100
AcDbLine
 62
7
  6
CONTINUOUS
 10
3.636544666
 20
2.6588520824
 11
3.6380438218
 21
2.6588996818
  0
LINE
  5
33B
100
AcDbEntity
  8
ALL_ASSEMBLY_MEMBERS
100
AcDbLine
 62
7
  6
CONTINUOUS
 10
3.6380438218
 20
2.6588996818
 11
3.6383663542
 21
2.658941232
  0
SPLINE
  5
33C
100
AcDbEntity
  8
ALL_ASSEMBLY_MEMBERS
100
AcDbSpline
 62
7
  6
CONTINUOUS
 70
0
 71
3
 72
9
 73
5
 74
0
 42
0.0000001
 43
0.0000001
 44
0.0000000001
 40
0.0
 40
0.0
 40
0.0
 40
0.0
 40
0.6557129487
 40
1.0
 40
1.0
 40
1.0
 40
1.0
 10
3.6383663542
 20
2.658941232
 30
0.0
 10
3.6383717414
 20
2.658943178
 30
0.0
 10
3.6383797154
 20
2.6589459562
 30
0.0
 10
3.6383867094
 20
2.6589533561
 30
0.0
 10
3.6383867094
 20
2.6589563636
 30
0.0
  0
LINE
  5
33D
100
AcDbEntity
  8
ALL_ASSEMBLY_MEMBERS
100
AcDbLine
 62
7
  6
CONTINUOUS
 10
3.6311269034
 20
2.6588492177
 11
3.6326014433
 21
2.6588420222
  0
LINE
  5
33E
100
AcDbEntity
  8
ALL_ASSEMBLY_MEMBERS
100
AcDbLine
 62
7
  6
CONTINUOUS
 10
3.6326014433
 20
2.6588420222
 11
3.636544666
 21
2.6588520824
  0
SPLINE
  5
33F
100
AcDbEntity
  8
ALL_ASSEMBLY_MEMBERS
100
AcDbSpline
 62
7
  6
CONTINUOUS
 70
0
 71
3
 72
17
 73
13
 74
0
 42
0.0000001
 43
0.0000001
 44
0.0000000001
 40
0.0
 40
0.0
 40
0.0
 40
0.0
 40
0.3805122675
 40
0.5449121235
 40
0.6875291188
 40
0.8056527583
 40
0.8548383428
 40
0.8971391926
 40
0.9324425282
 40
0.9608774853
 40
0.9829468908
 40
1.0
 40
1.0
 40
1.0
 40
1.0
 10
5.1190606347
 20
7.3823782689
 30
0.0
 10
5.119897112
 20
7.3820924076
 30
0.0
 10
5.1210860614
 20
7.3816549483
 30
0.0
 10
5.1225552203
 20
7.3810274614
 30
0.0
 10
5.1234469259
 20
7.3806021782
 30
0.0
 10
5.1240796215
 20
7.380257086
 30
0.0
 10
5.1244906227
 20
7.3799955818
 30
0.0
 10
5.1247297736
 20
7.3798232597
 30
0.0
 10
5.1249178518
 20
7.3796636279
 30
0.0
 10
5.125054019
 20
7.3795170432
 30
0.0
 10
5.1251392103
 20
7.3793839402
 30
0.0
 10
5.1251614206
 20
7.379292263
 30
0.0
 10
5.1251593473
 20
7.379252701
 30
0.0
  0
SPLINE
  5
340
100
AcDbEntity
  8
ALL_ASSEMBLY_MEMBERS
100
AcDbSpline
 62
7
  6
CONTINUOUS
 70
0
 71
3
 72
22
 73
18
 74
0
 42
0.0000001
 43
0.0000001
 44
0.0000000001
 40
0.0
 40
0.0
 40
0.0
 40
0.0
 40
0.1931689736
 40
0.3797194324
 40
0.552103365
 40
0.7038319707
 40
0.8288112198
 40
0.8795209753
 40
0.9216743271
 40
0.9393990625
 40
0.9548163527
 40
0.9678920872
 40
0.9786259705
 40
0.9870367526
 40
0.9931846286
 40
0.9972626383
 40
1.0
 40
1.0
 40
1.0
 40
1.0
 10
5.1144589957
 20
7.3661510562
 30
0.0
 10
5.1150924367
 20
7.3659812571
 30
0.0
 10
5.1163385731
 20
7.3656510343
 30
0.0
 10
5.118153378
 20
7.3651821862
 30
0.0
 10
5.1198352824
 20
7.3647614898
 30
0.0
 10
5.1213183932
 20
7.3644079091
 30
0.0
 10
5.1224038093
 20
7.3641675801
 30
0.0
 10
5.1231295744
 20
7.3640251838
 30
0.0
 10
5.1234995467
 20
7.3639609906
 30
0.0
 10
5.1237525342
 20
7.3639242053
 30
0.0
 10
5.1239083063
 20
7.3639052921
 30
0.0
 10
5.1240410092
 20
7.3638933869
 30
0.0
 10
5.124150261
 20
7.3638886148
 30
0.0
 10
5.1242364053
 20
7.3638902534
 30
0.0
 10
5.1242988444
 20
7.3638994353
 30
0.0
 10
5.1243417941
 20
7.3639131938
 30
0.0
 10
5.124356571
 20
7.3639348174
 30
0.0
 10
5.1243570574
 20
7.3639440979
 30
0.0
  0
LINE
  5
341
100
AcDbEntity
  8
ALL_ASSEMBLY_MEMBERS
100
AcDbLine
 62
7
  6
CONTINUOUS
 10
5.0798965127
 20
7.3754158858
 11
5.1144589957
 21
7.3661510562
  0
SPLINE
  5
342
100
AcDbEntity
  8
ALL_ASSEMBLY_MEMBERS
100
AcDbSpline
 62
7
  6
CONTINUOUS
 70
0
 71
3
 72
17
 73
13
 74
0
 42
0.0000001
 43
0.0000001
 44
0.0000000001
 40
0.0
 40
0.0
 40
0.0
 40
0.0
 40
0.0166362855
 40
0.0383689337
 40
0.066550538
 40
0.1016725791
 40
0.1438547526
 40
0.1929762009
 40
0.3111139113
 40
0.4539062541
 40
0.6186107425
 40
1.0
 40
1.0
 40
1.0
 40
1.0
 10
5.1245243453
 20
7.3671361419
 30
0.0
 10
5.1245263612
 20
7.3671746076
 30
0.0
 10
5.1245037331
 20
7.3672641595
 30
0.0
 10
5.1244183156
 20
7.3673936419
 30
0.0
 10
5.1242820529
 20
7.3675367472
 30
0.0
 10
5.1240938615
 20
7.3676929411
 30
0.0
 10
5.1238545769
 20
7.3678619073
 30
0.0
 10
5.1234431209
 20
7.3681188781
 30
0.0
 10
5.1228099773
 20
7.3684586049
 30
0.0
 10
5.1219179468
 20
7.3688780984
 30
0.0
 10
5.1204481506
 20
7.3694983715
 30
0.0
 10
5.119259425
 20
7.3699318865
 30
0.0
 10
5.1184232187
 20
7.3702156472
 30
0.0
  0
LINE
  5
343
100
AcDbEntity
  8
0
100
AcDbLine
 62
7
  6
CONTINUOUS
 10
3.6232212079
 20
1.9946032873
 11
3.6107212216
 21
1.7571036016
  0
SPLINE
  5
344
100
AcDbEntity
  8
0
100
AcDbSpline
 62
7
  6
CONTINUOUS
 70
0
 71
3
 72
21
 73
17
 74
0
 42
0.0000001
 43
0.0000001
 44
0.0000000001
 40
0.0
 40
0.0
 40
0.0
 40
0.0
 40
0.0701718623
 40
0.1398678371
 40
0.2089039171
 40
0.2771814792
 40
0.344619525
 40
0.4111192881
 40
0.4766011962
 40
0.5409662695
 40
0.6041130928
 40
0.6659204687
 40
0.7262549042
 40
0.7849694272
 40
0.8968597021
 40
1.0
 40
1.0
 40
1.0
 40
1.0
 10
3.7631151409
 20
2.0133532873
 30
0.0
 10
3.7637300835
 20
2.0179413798
 30
0.0
 10
3.765394318
 20
2.0270323517
 30
0.0
 10
3.7690248752
 20
2.0403406544
 30
0.0
 10
3.7735872269
 20
2.0532234006
 30
0.0
 10
3.7788753306
 20
2.0656599523
 30
0.0
 10
3.7847218829
 20
2.0776556588
 30
0.0
 10
3.7909809432
 20
2.0892303154
 30
0.0
 10
3.7975395332
 20
2.1004022735
 30
0.0
 10
3.8042997561
 20
2.1111924269
 30
0.0
 10
3.8111870681
 20
2.121611983
 30
0.0
 10
3.8181306778
 20
2.1316722736
 30
0.0
 10
3.8250775252
 20
2.141372633
 30
0.0
 10
3.83412419
 20
2.1536309218
 30
0.0
 10
3.8451135812
 20
2.1679626424
 30
0.0
 10
3.8539467514
 20
2.1790627104
 30
0.0
 10
3.8582212079
 20
2.1843564164
 30
0.0
  0
LINE
  5
345
100
AcDbEntity
  8
0
100
AcDbLine
 62
7
  6
CONTINUOUS
 10
3.6232212079
 20
1.9946032873
 11
3.3857215235
 21
1.9821034771
  0
SPLINE
  5
346
100
AcDbEntity
  8
0
100
AcDbSpline
 62
7
  6
CONTINUOUS
 70
0
 71
3
 72
17
 73
13
 74
0
 42
0.0000001
 43
0.0000001
 44
0.0000000001
 40
0.0
 40
0.0
 40
0.0
 40
0.0
 40
0.0624359533
 40
0.125089737
 40
0.1876065474
 40
0.2501091353
 40
0.3750117553
 40
0.4999746579
 40
0.624963924
 40
0.7499654986
 40
0.874986396
 40
1.0
 40
1.0
 40
1.0
 40
1.0
 10
3.7631151409
 20
2.0133532873
 30
0.0
 10
3.763080187
 20
2.0130924956
 30
0.0
 10
3.762928825
 20
2.0125792727
 30
0.0
 10
3.7625283957
 20
2.0118911475
 30
0.0
 10
3.762004258
 20
2.0112938362
 30
0.0
 10
3.7612040652
 20
2.0106052775
 30
0.0
 10
3.760070767
 20
2.009918986
 30
0.0
 10
3.7586099253
 20
2.0093083236
 30
0.0
 10
3.7570900795
 20
2.0088657362
 30
0.0
 10
3.7555365342
 20
2.008565426
 30
0.0
 10
3.7539641453
 20
2.0083912498
 30
0.0
 10
3.7529100148
 20
2.0083532873
 30
0.0
 10
3.7523831701
 20
2.0083532873
 30
0.0
  0
SPLINE
  5
347
100
AcDbEntity
  8
0
100
AcDbSpline
 62
7
  6
CONTINUOUS
 70
0
 71
3
 72
10
 73
6
 74
0
 42
0.0000001
 43
0.0000001
 44
0.0000000001
 40
0.0
 40
0.0
 40
0.0
 40
0.0
 40
0.3046174479
 40
0.5810163281
 40
1.0
 40
1.0
 40
1.0
 40
1.0
 10
3.8582212079
 20
2.1874763025
 30
0.0
 10
3.861457347
 20
2.1954461375
 30
0.0
 10
3.8678497805
 20
2.210558998
 30
0.0
 10
3.8794601774
 20
2.2363014322
 30
0.0
 10
3.8879690436
 20
2.2540016964
 30
0.0
 10
3.8932212079
 20
2.2646032873
 30
0.0
  0
SPLINE
  5
348
100
AcDbEntity
  8
0
100
AcDbSpline
 62
7
  6
CONTINUOUS
 70
0
 71
3
 72
25
 73
21
 74
0
 42
0.0000001
 43
0.0000001
 44
0.0000000001
 40
0.0
 40
0.0
 40
0.0
 40
0.0
 40
0.0379926071
 40
0.1461068977
 40
0.307682742
 40
0.4009795887
 40
0.4979028837
 40
0.5947310824
 40
0.6877835939
 40
0.773579829
 40
0.8127710893
 40
0.8490248566
 40
0.8820332155
 40
0.911521096
 40
0.9372403765
 40
0.9589554722
 40
0.9764138446
 40
0.9893133159
 40
0.9972905204
 40
1.0
 40
1.0
 40
1.0
 40
1.0
 10
5.8344467188
 20
7.5000734018
 30
0.0
 10
5.8282358935
 20
7.5000672913
 30
0.0
 10
5.8043511314
 20
7.5000428571
 30
0.0
 10
5.7540528371
 20
7.499982846
 30
0.0
 10
5.6947137377
 20
7.4998873365
 30
0.0
 10
5.6372041584
 20
7.4997553276
 30
0.0
 10
5.5902792426
 20
7.4996124683
 30
0.0
 10
5.5433944522
 20
7.4994148857
 30
0.0
 10
5.4983290791
 20
7.4991386807
 30
0.0
 10
5.4626864696
 20
7.4988065178
 30
0.0
 10
5.4363300684
 20
7.4984428356
 30
0.0
 10
5.4186034392
 20
7.4981269918
 30
0.0
 10
5.4024645663
 20
7.4977520357
 30
0.0
 10
5.3880501275
 20
7.497311396
 30
0.0
 10
5.3754852718
 20
7.4968038274
 30
0.0
 10
5.3648915976
 20
7.496239636
 30
0.0
 10
5.3563988933
 20
7.4956516299
 30
0.0
 10
5.3501554939
 20
7.4951064139
 30
0.0
 10
5.3463204256
 20
7.4947062567
 30
0.0
 10
5.3445848983
 20
7.4945062957
 30
0.0
 10
5.3441450262
 20
7.4944543194
 30
0.0
  0
SPLINE
  5
349
100
AcDbEntity
  8
0
100
AcDbSpline
 62
7
  6
CONTINUOUS
 70
0
 71
3
 72
84
 73
80
 74
0
 42
0.0000001
 43
0.0000001
 44
0.0000000001
 40
0.0
 40
0.0
 40
0.0
 40
0.0
 40
0.0441990396
 40
0.0714306417
 40
0.1012974966
 40
0.1333170944
 40
0.1670913531
 40
0.2022912975
 40
0.2386448014
 40
0.2571816427
 40
0.2759245754
 40
0.2948505605
 40
0.3139382137
 40
0.3331675762
 40
0.3525198865
 40
0.3719774547
 40
0.3817404356
 40
0.3915234982
 40
0.4013246587
 40
0.4111419703
 40
0.4209735191
 40
0.430817418
 40
0.4357434165
 40
0.4406718061
 40
0.4456023573
 40
0.4505348426
 40
0.4554690318
 40
0.4604047068
 40
0.465341613
 40
0.4678105416
 40
0.4702795876
 40
0.4727488153
 40
0.4752190073
 40
0.4776878154
 40
0.4789221213
 40
0.4801593937
 40
0.4814011913
 40
0.4826382852
 40
0.4838771362
 40
0.4851210403
 40
0.4857415782
 40
0.4863597195
 40
0.4875974943
 40
0.4888404994
 40
0.4900779713
 40
0.4913121775
 40
0.4925462683
 40
0.495016177
 40
0.4999547371
 40
0.5048924976
 40
0.5098291303
 40
0.5147644742
 40
0.5196982833
 40
0.524630334
 40
0.5295603979
 40
0.5344882471
 40
0.5394136518
 40
0.5492562017
 40
0.5590861835
 40
0.5689017062
 40
0.5787008499
 40
0.5884816632
 40
0.5982421578
 40
0.6079803031
 40
0.6273811868
 40
0.6466670526
 40
0.6658196219
 40
0.6848194914
 40
0.703645936
 40
0.7222766749
 40
0.7406876413
 40
0.7767435068
 40
0.8115746973
 40
0.8448946031
 40
0.8763561849
 40
0.9055388713
 40
0.9549562932
 40
0.9881514432
 40
1.0
 40
1.0
 40
1.0
 40
1.0
 10
5.3464039058
 20
1.7485706697
 30
0.0
 10
5.3538315632
 20
1.7559993742
 30
0.0
 10
5.365835421
 20
1.7680050757
 30
0.0
 10
5.382858146
 20
1.7850308794
 30
0.0
 10
5.3978339563
 20
1.8000097939
 30
0.0
 10
5.413908938
 20
1.8160886814
 30
0.0
 10
5.4308796842
 20
1.8330643841
 30
0.0
 10
5.4485780755
 20
1.8507691718
 30
0.0
 10
5.4637153326
 20
1.8659134304
 30
0.0
 10
5.4760867049
 20
1.8782919755
 30
0.0
 10
5.4855295432
 20
1.8877412457
 30
0.0
 10
5.4950642934
 20
1.8972837448
 30
0.0
 10
5.5046799163
 20
1.906908871
 30
0.0
 10
5.514365986
 20
1.9166068474
 30
0.0
 10
5.5241125061
 20
1.9263687084
 30
0.0
 10
5.5322672509
 20
1.9345404632
 30
0.0
 10
5.5388134201
 20
1.9411043356
 30
0.0
 10
5.5437375651
 20
1.94604448
 30
0.0
 10
5.5486690337
 20
1.9509955563
 30
0.0
 10
5.5536061611
 20
1.9559572604
 30
0.0
 10
5.5585468935
 20
1.9609297052
 30
0.0
 10
5.562663789
 20
1.9650818761
 30
0.0
 10
5.5659558397
 20
1.9684107926
 30
0.0
 10
5.5684238784
 20
1.9709122174
 30
0.0
 10
5.5708891412
 20
1.9734185425
 30
0.0
 10
5.5733499966
 20
1.9759311267
 30
0.0
 10
5.5758039314
 20
1.9784521789
 30
0.0
 10
5.5782467109
 20
1.980985507
 30
0.0
 10
5.58026672
 20
1.9831124846
 30
0.0
 10
5.5818654201
 20
1.9848308495
 30
0.0
 10
5.5830517071
 20
1.9861317165
 30
0.0
 10
5.584219148
 20
1.9874500112
 30
0.0
 10
5.5853572456
 20
1.9887937194
 30
0.0
 10
5.5862628789
 20
1.9899490918
 30
0.0
 10
5.5869386866
 20
1.9909097775
 30
0.0
 10
5.5874082451
 20
1.991657632
 30
0.0
 10
5.5878285243
 20
1.9924355349
 30
0.0
 10
5.5881576907
 20
1.9932591893
 30
0.0
 10
5.5883349421
 20
1.9941308501
 30
0.0
 10
5.5883401184
 20
1.9948733842
 30
0.0
 10
5.5882594148
 20
1.9954587172
 30
0.0
 10
5.5881200514
 20
1.9960315373
 30
0.0
 10
5.5878514956
 20
1.9967206448
 30
0.0
 10
5.5874358313
 20
1.9975015935
 30
0.0
 10
5.5869693807
 20
1.9982518042
 30
0.0
 10
5.5864642002
 20
1.9989736707
 30
0.0
 10
5.5857566952
 20
1.9999103474
 30
0.0
 10
5.584456473
 20
2.0015013681
 30
0.0
 10
5.5825041832
 20
2.0036931079
 30
0.0
 10
5.580104716
 20
2.0062695214
 30
0.0
 10
5.5776751307
 20
2.0088165622
 30
0.0
 10
5.5752292436
 20
2.0113465553
 30
0.0
 10
5.5727733854
 20
2.0138653527
 30
0.0
 10
5.5703113166
 20
2.0163763135
 30
0.0
 10
5.567845282
 20
2.0188813912
 30
0.0
 10
5.5653767658
 20
2.021381803
 30
0.0
 10
5.5620843718
 20
2.0247095497
 30
0.0
 10
5.5579674417
 20
2.0288605112
 30
0.0
 10
5.5530270023
 20
2.0338316706
 30
0.0
 10
5.5480904402
 20
2.0387921357
 30
0.0
 10
5.5431597476
 20
2.0437419537
 30
0.0
 10
5.538236558
 20
2.0486807843
 30
0.0
 10
5.5333223108
 20
2.0536080581
 30
0.0
 10
5.5267921118
 20
2.0601529179
 30
0.0
 10
5.5186609348
 20
2.0682985084
 30
0.0
 10
5.508946977
 20
2.0780257345
 30
0.0
 10
5.4992990123
 20
2.0876841648
 30
0.0
 10
5.4897272552
 20
2.0972643811
 30
0.0
 10
5.4802424527
 20
2.1067561528
 30
0.0
 10
5.4708560545
 20
2.1161483847
 30
0.0
 10
5.4585744021
 20
2.1284365859
 30
0.0
 10
5.4435700203
 20
2.1434474199
 30
0.0
 10
5.4260597573
 20
2.1609636265
 30
0.0
 10
5.4093209627
 20
2.1777070522
 30
0.0
 10
5.3935309824
 20
2.193500694
 30
0.0
 10
5.3750356307
 20
2.2119997275
 30
0.0
 10
5.3562486399
 20
2.2307898159
 30
0.0
 10
5.3403744138
 20
2.2466662506
 30
0.0
 10
5.3328047589
 20
2.2542368705
 30
0.0
 10
5.3308135903
 20
2.2562282873
 30
0.0
  0
ELLIPSE
  5
34A
100
AcDbEntity
  8
0
100
AcDbEllipse
 62
7
  6
CONTINUOUS
 10
5.1763344191
 20
7.7586274094
 30
0.0
 11
-0.0098505376
 21
0.4073237173
 31
0.0
 40
0.0060024687
 41
-0.0004603204
 42
3.1411323332
  0
ELLIPSE
  5
34B
100
AcDbEntity
  8
ALL_ASSEMBLY_MEMBERS
100
AcDbEllipse
 62
7
  6
CONTINUOUS
 10
6.0495030168
 20
7.7128665822
 30
0.0
 11
1.4285958885
 21
-0.074869538
 31
0.0
 40
0.3435940908
 41
-2.2976322238
 42
-2.2619465679
  0
ELLIPSE
  5
34C
100
AcDbEntity
  8
ALL_ASSEMBLY_MEMBERS
100
AcDbEllipse
 62
7
  6
CONTINUOUS
 10
6.0711013891
 20
7.7117346595
 30
0.0
 11
1.4696499438
 21
-0.0770210899
 31
0.0
 40
0.3435940908
 41
-2.2924699612
 42
-2.2579171338
  0
ENDSEC
  0
SECTION
  2
OBJECTS
  0
DICTIONARY
  5
C
100
AcDbDictionary
280
0
281
1
  3
ACAD_GROUP
350
D
  3
ACAD_MLINESTYLE
350
17
  3
ACAD_LAYOUT
350
1A
  3
ACAD_PLOTSETTINGS
350
19
  3
ACAD_PLOTSTYLENAME
350
E
  0
DICTIONARY
  5
D
102
{ACAD_REACTORS
330
C
102
}
100
AcDbDictionary
280
0
281
1
  0
ACDBDICTIONARYWDFLT
  5
E
102
{ACAD_REACTORS
330
C
102
}
100
AcDbDictionary
281
1
  3
Normal
350
F
100
AcDbDictionaryWithDefault
340
F
  0
DICTIONARY
  5
17
102
{ACAD_REACTORS
330
C
102
}
100
AcDbDictionary
280
0
281
1
  3
Standard
350
18
  0
DICTIONARY
  5
19
102
{ACAD_REACTORS
330
C
102
}
100
AcDbDictionary
281
1
  0
DICTIONARY
  5
1A
102
{ACAD_REACTORS
330
C
102
}
100
AcDbDictionary
281
1
  3
Model
350
34D
  3
Layout1
350
34E
  0
ACDBPLACEHOLDER
  5
F
102
{ACAD_REACTORS
330
E
102
}
  0
MLINESTYLE
  5
18
102
{ACAD_REACTORS
330
17
102
}
100
AcDbMlineStyle
  2
STANDARD
 70
0
  3

 62
256
 51
90.0
 52
90.0
 71
2
 49
0.5
 62
256
  6
BYLAYER
 49
-0.5
 62
256
  6
BYLAYER
  0
LAYOUT
  5
34D
102
{ACAD_REACTORS
330
1A
102
}
100
AcDbPlotSettings
  1

  2
none_device
  4
ANSI_A_(11.00_x_8.50_Inches)
  6

 40
0.0
 41
0.0
 42
0.0
 43
0.0
 44
279.4
 45
215.9
 46
0.0
 47
0.0
 48
0.0
 49
0.0
140
0.0
141
0.0
142
1.0
143
1.0
 70
1024
 72
0
 73
0
 74
0
  7

 75
0
147
1.0
148
0.0
149
0.0
100
AcDbLayout
  1
Model
 70
0
 71
0
 10
0.0
 20
0.0
 11
11.0
 21
8.5
 12
0.0
 22
0.0
 32
0.0
 14
0.0
 24
0.0
 34
0.0
 15
0.0
 25
0.0
 35
0.0
146
0.0
 13
0.0
 23
0.0
 33
0.0
 16
1.0
 26
0.0
 36
0.0
 17
0.0
 27
1.0
 37
0.0
 76
0
330
211
345
0
346
0
  0
LAYOUT
  5
34E
102
{ACAD_REACTORS
330
1A
102
}
100
AcDbPlotSettings
  1

  2
none_device
  4
ANSI_A_(11.00_x_8.50_Inches)
  6

 40
0.0
 41
0.0
 42
0.0
 43
0.0
 44
279.4
 45
215.9
 46
0.0
 47
0.0
 48
0.0
 49
0.0
140
0.0
141
0.0
142
1.0
143
1.0
 70
0
 72
0
 73
0
 74
0
  7

 75
0
147
1.0
148
0.0
149
0.0
100
AcDbLayout
  1
Layout1
 70
0
 71
1
 10
0.0
 20
0.0
 11
11.0
 21
8.5
 12
0.0
 22
0.0
 32
0.0
 14
0.0
 24
0.0
 34
0.0
 15
0.0
 25
0.0
 35
0.0
146
0.0
 13
0.0
 23
0.0
 33
0.0
 16
1.0
 26
0.0
 36
0.0
 17
0.0
 27
1.0
 37
0.0
 76
0
330
212
345
0
346
0
  0
ENDSEC
  0
EOF
