999
DXF file: 2570-2400_front.dxf
999
Pro/ENGINEER 2019352 by Parametric Technology Corporation
  0
SECTION
  2
HEADER
  9
$ACADVER
  1
AC1032
  9
$DWGCODEPAGE
  3
ANSI_1252
  9
$EXTMAX
 10
11.0
 20
8.5
 30
0.0
  9
$EXTMIN
 10
0.0
 20
0.0
 30
0.0
  9
$LIMMIN
 10
0.0
 20
0.0
  9
$LIMMAX
 10
11.0
 20
8.5
  9
$VIEWCTR
 10
5.5
 20
4.25
  9
$VIEWSIZE
 40
8.5
  9
$CLAYER
  8
0
  9
$LTSCALE
 40
0.605
  9
$CELTYPE
  6
BYLAYER
  9
$DIMSCALE
 40
1.0
  9
$DIMASZ
 40
0.1
  9
$DIMEXO
 40
0.0625
  9
$DIMDLI
 40
0.418
  9
$DIMEXE
 40
0.125
  9
$DIMCEN
 40
0.099
  9
$DIMLFAC
 40
1.0
  9
$DIMBLK
  1
_FILLED
  9
$DIMALT
 70
1
  9
$DIMALTD
 70
2
  9
$DIMALTTD
 70
2
  9
$DIMALTF
 40
25.4
  9
$DIMTXT
 40
0.08
  9
$DIMTOL
 70
1
  9
$DIMLIM
 70
0
  9
$DIMTFAC
 40
1.0
  9
$DIMTP
 40
0.001
  9
$DIMTM
 40
0.001
  9
$DIMGAP
 40
0.09
  9
$DIMDSEP
 70
46
  9
$AUNITS
 70
0
  9
$PDMODE
 70
3
  9
$PDSIZE
 40
0.3125
  9
$HANDSEED
  5
2F3
  9
$TILEMODE
 70
1
  9
$MEASUREMENT
 70
0
  9
$INSUNITS
 70
1
  0
ENDSEC
  0
SECTION
  2
CLASSES
  0
CLASS
  1
ACDBDICTIONARYWDFLT
  2
AcDbDictionaryWithDefault
  3
AutoCAD 2000
 90
0
 91
1
280
0
281
0
  0
CLASS
  1
ACDBPLACEHOLDER
  2
AcDbPlaceHolder
  3
AutoCAD 2000
 90
0
 91
1
280
0
281
0
  0
CLASS
  1
LAYOUT
  2
AcDbLayout
  3
AutoCAD 2000
 90
0
 91
0
280
0
281
0
  0
ENDSEC
  0
SECTION
  2
TABLES
  0
TABLE
  2
VPORT
  5
8
100
AcDbSymbolTable
 70
2
  0
VPORT
  5
1F4
100
AcDbSymbolTableRecord
100
AcDbViewportTableRecord
  2
*ACTIVE
 70
0
 10
0.0
 20
0.0
 11
1.0
 21
1.0
 12
5.5
 22
4.25
 13
0.0
 23
0.0
 14
1.0
 24
1.0
 15
0.0
 25
0.0
 16
0.0
 26
0.0
 36
1.0
 17
0.0
 27
0.0
 37
0.0
 40
8.5
 41
1.2941176471
 42
50.0
 43
0.0
 44
0.0
 50
0.0
 51
0.0
 71
0
 72
100
 73
1
 74
1
 75
0
 76
0
 77
0
 78
0
  0
ENDTAB
  0
TABLE
  2
LTYPE
  5
5
100
AcDbSymbolTable
 70
6
  0
LTYPE
  5
14
100
AcDbSymbolTableRecord
100
AcDbLinetypeTableRecord
  2
BYBLOCK
 70
0
  3

 72
65
 73
0
 40
0.0
  0
LTYPE
  5
15
100
AcDbSymbolTableRecord
100
AcDbLinetypeTableRecord
  2
BYLAYER
 70
0
  3

 72
65
 73
0
 40
0.0
  0
LTYPE
  5
16
100
AcDbSymbolTableRecord
100
AcDbLinetypeTableRecord
  2
CONTINUOUS
 70
64
  3
Solid line
 72
65
 73
0
 40
0.0
  0
LTYPE
  5
1F5
100
AcDbSymbolTableRecord
100
AcDbLinetypeTableRecord
  2
CENTER
 70
64
  3
____ _ ____ _ ____ _ ____ _ ____ _ ____ _ ____
 72
65
 73
4
 40
0.6
 49
0.375
 74
0
 49
-0.075
 74
0
 49
0.075
 74
0
 49
-0.075
 74
0
  0
LTYPE
  5
1F6
100
AcDbSymbolTableRecord
100
AcDbLinetypeTableRecord
  2
HIDDEN
 70
64
  3
- - - - - - - - - - - - - - - - - - - -
 72
65
 73
2
 40
0.2
 49
0.1
 74
0
 49
-0.1
 74
0
  0
LTYPE
  5
1F7
100
AcDbSymbolTableRecord
100
AcDbLinetypeTableRecord
  2
PHANTOM
 70
64
  3
_____ _ _ _____ _ _ _____ _ _ _____
 72
65
 73
6
 40
0.8
 49
0.45
 74
0
 49
-0.05
 74
0
 49
0.1
 74
0
 49
-0.05
 74
0
 49
0.1
 74
0
 49
-0.05
 74
0
  0
LTYPE
  5
1F8
100
AcDbSymbolTableRecord
100
AcDbLinetypeTableRecord
  2
DOT
 70
64
  3
. . . . . . . . . . . . . . . . . . . .
 72
65
 73
2
 40
0.2
 49
0.1
 74
0
 49
-0.1
 74
0
  0
LTYPE
  5
1F9
100
AcDbSymbolTableRecord
100
AcDbLinetypeTableRecord
  2
DASHED
 70
64
  3
- - - - - - - - - - - - - - - - - - - -
 72
65
 73
2
 40
0.2
 49
0.1
 74
0
 49
-0.1
 74
0
  0
ENDTAB
  0
TABLE
  2
LAYER
  5
2
100
AcDbSymbolTable
 70
36
  0
LAYER
  5
10
100
AcDbSymbolTableRecord
100
AcDbLayerTableRecord
  2
0
 70
0
 62
7
  6
CONTINUOUS
370
-3
390
F
  0
LAYER
  5
1FA
100
AcDbSymbolTableRecord
100
AcDbLayerTableRecord
  2
DEFAULT_1
 70
0
 62
7
  6
CENTER
370
-3
390
F
  0
LAYER
  5
1FB
100
AcDbSymbolTableRecord
100
AcDbLayerTableRecord
  2
DEFAULT_2
 70
0
 62
8
  6
HIDDEN
370
-3
390
F
  0
LAYER
  5
1FC
100
AcDbSymbolTableRecord
100
AcDbLayerTableRecord
  2
DEFAULT_3
 70
0
 62
7
  6
PHANTOM
370
-3
390
F
  0
LAYER
  5
1FD
100
AcDbSymbolTableRecord
100
AcDbLayerTableRecord
  2
06___PRT_ALL_SURFS
 70
0
 62
7
  6
CONTINUOUS
370
-3
390
F
  0
LAYER
  5
1FE
100
AcDbSymbolTableRecord
100
AcDbLayerTableRecord
  2
ALL_FEATURES
 70
0
 62
7
  6
CONTINUOUS
370
-3
390
F
  0
LAYER
  5
1FF
100
AcDbSymbolTableRecord
100
AcDbLayerTableRecord
  2
AXES_FEATURES
 70
0
 62
7
  6
CONTINUOUS
370
-3
390
F
  0
LAYER
  5
200
100
AcDbSymbolTableRecord
100
AcDbLayerTableRecord
  2
DEFAULT_COORDINATE_SYSTEM
 70
0
 62
7
  6
CONTINUOUS
370
-3
390
F
  0
LAYER
  5
201
100
AcDbSymbolTableRecord
100
AcDbLayerTableRecord
  2
DEFAULT_DATUM_AXES
 70
0
 62
7
  6
CONTINUOUS
370
-3
390
F
  0
LAYER
  5
202
100
AcDbSymbolTableRecord
100
AcDbLayerTableRecord
  2
DEFAULT_DATUM_CURVES
 70
0
 62
7
  6
CONTINUOUS
370
-3
390
F
  0
LAYER
  5
203
100
AcDbSymbolTableRecord
100
AcDbLayerTableRecord
  2
DEFAULT_DATUM_PLANES
 70
0
 62
7
  6
CONTINUOUS
370
-3
390
F
  0
LAYER
  5
204
100
AcDbSymbolTableRecord
100
AcDbLayerTableRecord
  2
DEFAULT_SURFACES
 70
0
 62
7
  6
CONTINUOUS
370
-3
390
F
  0
LAYER
  5
205
100
AcDbSymbolTableRecord
100
AcDbLayerTableRecord
  2
DIMENSIONS
 70
0
 62
7
  6
CONTINUOUS
370
-3
390
F
  0
LAYER
  5
206
100
AcDbSymbolTableRecord
100
AcDbLayerTableRecord
  2
INTF_BLANK
 70
0
 62
7
  6
CONTINUOUS
370
-3
390
F
  0
LAYER
  5
207
100
AcDbSymbolTableRecord
100
AcDbLayerTableRecord
  2
PLATED_SURFACE_AREA
 70
0
 62
7
  6
CONTINUOUS
370
-3
390
F
  0
LAYER
  5
208
100
AcDbSymbolTableRecord
100
AcDbLayerTableRecord
  2
SHELL
 70
0
 62
7
  6
CONTINUOUS
370
-3
390
F
  0
LAYER
  5
209
100
AcDbSymbolTableRecord
100
AcDbLayerTableRecord
  2
___SHELL
 70
0
 62
7
  6
CONTINUOUS
370
-3
390
F
  0
ENDTAB
  0
TABLE
  2
STYLE
  5
3
100
AcDbSymbolTable
 70
1
  0
STYLE
  5
11
100
AcDbSymbolTableRecord
100
AcDbTextStyleTableRecord
  2
STANDARD
 70
0
 40
0.0
 41
0.8
 50
0.0
 71
0
 42
0.2
  3
txt
  4

  0
STYLE
  5
20A
100
AcDbSymbolTableRecord
100
AcDbTextStyleTableRecord
  2
TEXTSTYLE_1
 70
0
 40
0.0
 41
0.8
 50
0.0
 71
0
 42
0.2
  3
gdt
  4

  0
ENDTAB
  0
TABLE
  2
VIEW
  5
6
100
AcDbSymbolTable
 70
0
  0
ENDTAB
  0
TABLE
  2
UCS
  5
7
100
AcDbSymbolTable
 70
0
  0
ENDTAB
  0
TABLE
  2
APPID
  5
9
100
AcDbSymbolTable
 70
1
  0
APPID
  5
20B
100
AcDbSymbolTableRecord
100
AcDbRegAppTableRecord
  2
ACAD
 70
0
  0
ENDTAB
  0
TABLE
  2
BLOCK_RECORD
  5
1
100
AcDbSymbolTable
 70
0
  0
BLOCK_RECORD
  5
20C
100
AcDbSymbolTableRecord
100
AcDbBlockTableRecord
  2
*Model_Space
  0
BLOCK_RECORD
  5
20D
100
AcDbSymbolTableRecord
100
AcDbBlockTableRecord
  2
*Paper_Space
  0
BLOCK_RECORD
  5
20E
100
AcDbSymbolTableRecord
100
AcDbBlockTableRecord
  2
_FILLED
  0
ENDTAB
  0
TABLE
  2
DIMSTYLE
  5
A
100
AcDbSymbolTable
 70
1
100
AcDbDimStyleTable
 71
0
  0
DIMSTYLE
105
20F
100
AcDbSymbolTableRecord
100
AcDbDimStyleTableRecord
  2
STANDARD
 70
0
  3

  4

 40
1.0
 41
0.1
 42
0.0625
 43
0.38
 44
0.125
 45
0.0
 46
0.0
 47
0.001
 48
0.001
140
0.08
141
0.09
142
0.0
143
25.4
144
1.0
145
0.0
146
1.0
147
0.09
 71
1.0
 72
0.0
 73
1
 74
1
 75
0
 76
0
 77
0
 78
4
 79
1
170
1
171
2
172
0
173
0
174
0
175
0
176
0
177
0
178
0
270
2
179
3
271
3
272
3
273
2
274
2
275
0
280
0
281
0
282
0
283
1
284
4
285
0
286
0
287
3
288
0
340
11
278
46
341
20E
342
20E
343
20E
344
20E
  0
ENDTAB
  0
ENDSEC
  0
SECTION
  2
BLOCKS
  0
BLOCK
  5
20
100
AcDbEntity
  8
0
100
AcDbBlockBegin
  2
*Model_Space
 70
0
 10
0.0
 20
0.0
 30
0.0
  3
*Model_Space
  1

  0
ENDBLK
  5
21
100
AcDbEntity
  8
0
100
AcDbBlockEnd
  0
BLOCK
  5
1C
100
AcDbEntity
  8
0
100
AcDbBlockBegin
  2
*Paper_Space
 70
0
 10
0.0
 20
0.0
 30
0.0
  3
*Paper_Space
  1

  0
ENDBLK
  5
1D
100
AcDbEntity
  8
0
100
AcDbBlockEnd
  0
BLOCK
  5
210
100
AcDbEntity
  8
0
100
AcDbBlockBegin
  2
_FILLED
 70
64
 10
0.0
 20
0.0
  3
_FILLED
  1

  0
SOLID
  5
211
100
AcDbEntity
  8
0
  6
BYBLOCK
 62
0
100
AcDbTrace
 10
0.0
 20
0.0
 11
-1.0
 21
0.2
 12
-1.0
 22
-0.2
 13
-1.0
 23
-0.2
  0
ENDBLK
  5
212
100
AcDbEntity
  8
0
  6
BYBLOCK
 62
0
100
AcDbBlockEnd
  0
ENDSEC
  0
SECTION
  2
ENTITIES
  0
MTEXT
  5
213
100
AcDbEntity
  8
0
100
AcDbMText
 62
2
  6
CONTINUOUS
  7
STANDARD
 71
3
 72
1
 10
5.5873392409
 20
2.8005654015
 30
0.0
 11
1.0
 21
0.0
 31
0.0
 73
2
 44
0.9
  1
SCALE 1.000
 40
0.08
 41
0.704
  0
LINE
  5
214
100
AcDbEntity
  8
0
100
AcDbLine
 62
7
  6
CONTINUOUS
 10
0.0
 20
0.0
 11
0.0
 21
8.5
  0
LINE
  5
215
100
AcDbEntity
  8
0
100
AcDbLine
 62
7
  6
CONTINUOUS
 10
0.0
 20
0.0
 11
11.0
 21
0.0
  0
LINE
  5
216
100
AcDbEntity
  8
0
100
AcDbLine
 62
7
  6
CONTINUOUS
 10
0.0
 20
8.5
 11
11.0
 21
8.5
  0
LINE
  5
217
100
AcDbEntity
  8
0
100
AcDbLine
 62
7
  6
CONTINUOUS
 10
11.0
 20
0.0
 11
11.0
 21
8.5
  0
LINE
  5
218
100
AcDbEntity
  8
0
100
AcDbLine
 62
7
  6
CONTINUOUS
 10
1.0873405922
 20
5.8355757702
 11
1.0873394438
 21
2.9555638415
  0
LINE
  5
219
100
AcDbEntity
  8
0
100
AcDbLine
 62
7
  6
CONTINUOUS
 10
1.1167227804
 20
5.820285961
 11
1.1167227804
 21
2.970844842
  0
LINE
  5
21A
100
AcDbEntity
  8
0
100
AcDbLine
 62
7
  6
CONTINUOUS
 10
1.3516655143
 20
5.574901735
 11
1.3516655219
 21
3.2162290735
  0
LINE
  5
21B
100
AcDbEntity
  8
0
100
AcDbLine
 62
7
  6
CONTINUOUS
 10
1.4080029754
 20
5.6312390614
 11
1.4080029097
 21
3.1598916749
  0
LINE
  5
21C
100
AcDbEntity
  8
0
100
AcDbLine
 62
7
  6
CONTINUOUS
 10
1.1473396551
 20
2.8955654015
 11
1.1474367305
 21
2.8957570799
  0
LINE
  5
21D
100
AcDbEntity
  8
0
100
AcDbLine
 62
7
  6
CONTINUOUS
 10
1.1600173808
 20
2.9199130305
 11
1.1626186814
 21
2.924948941
  0
LINE
  5
21E
100
AcDbEntity
  8
0
100
AcDbLine
 62
7
  6
CONTINUOUS
 10
1.1473396551
 20
2.8955654015
 11
1.1626186814
 21
2.924948941
  0
LINE
  5
21F
100
AcDbEntity
  8
0
100
AcDbLine
 62
7
  6
CONTINUOUS
 10
1.1489397717
 20
2.8986501249
 11
1.1498435061
 21
2.9003878054
  0
LINE
  5
220
100
AcDbEntity
  8
0
100
AcDbLine
 62
7
  6
CONTINUOUS
 10
1.1556047593
 20
2.9114580941
 11
1.1600173808
 21
2.9199130305
  0
LWPOLYLINE
  5
221
100
AcDbEntity
  8
0
100
AcDbPolyline
 62
7
  6
CONTINUOUS
 90
3
 70
0
 10
1.1576769953
 20
5.8757090444
 10
1.1600158976
 20
5.8712175482
 10
1.1626186814
 20
5.866181862
  0
LINE
  5
222
100
AcDbEntity
  8
0
100
AcDbLine
 62
7
  6
CONTINUOUS
 10
1.1473396629
 20
5.8955654015
 11
1.1626186814
 21
5.866181862
  0
LINE
  5
223
100
AcDbEntity
  8
0
100
AcDbLine
 62
7
  6
CONTINUOUS
 10
1.1473396629
 20
5.8955654015
 11
1.1474379753
 21
5.8953737287
  0
LINE
  5
224
100
AcDbEntity
  8
0
100
AcDbLine
 62
7
  6
CONTINUOUS
 10
1.1167227804
 20
2.970844842
 11
1.3516655219
 21
3.2162290735
  0
LINE
  5
225
100
AcDbEntity
  8
0
100
AcDbLine
 62
7
  6
CONTINUOUS
 10
1.2128037518
 20
3.0712127894
 11
1.2337444196
 21
3.0930827186
  0
LINE
  5
226
100
AcDbEntity
  8
0
100
AcDbLine
 62
7
  6
CONTINUOUS
 10
1.3232066722
 20
3.186499878
 11
1.3379649603
 21
3.2019130348
  0
LINE
  5
227
100
AcDbEntity
  8
0
100
AcDbLine
 62
7
  6
CONTINUOUS
 10
1.2536673593
 20
3.1138760696
 11
1.272617301
 21
3.1336640056
  0
LWPOLYLINE
  5
228
100
AcDbEntity
  8
0
100
AcDbPolyline
 62
7
  6
CONTINUOUS
 90
3
 70
0
 10
1.1167227804
 20
2.970844842
 10
1.1426047037
 20
2.9978572001
 10
1.1906649819
 20
3.0480733321
  0
LINE
  5
229
100
AcDbEntity
  8
0
100
AcDbLine
 62
7
  6
CONTINUOUS
 10
1.1167227804
 20
5.820285961
 11
1.1426047005
 21
5.7932736004
  0
LINE
  5
22A
100
AcDbEntity
  8
0
100
AcDbLine
 62
7
  6
CONTINUOUS
 10
1.2726172845
 20
5.6574667723
 11
1.2905285342
 21
5.6387554188
  0
LINE
  5
22B
100
AcDbEntity
  8
0
100
AcDbLine
 62
7
  6
CONTINUOUS
 10
1.1167227804
 20
5.820285961
 11
1.3516655143
 21
5.574901735
  0
LINE
  5
22C
100
AcDbEntity
  8
0
100
AcDbLine
 62
7
  6
CONTINUOUS
 10
1.2128037396
 20
5.7199179979
 11
1.2337444047
 21
5.6980480618
  0
LINE
  5
22D
100
AcDbEntity
  8
0
100
AcDbLine
 62
7
  6
CONTINUOUS
 10
1.32320666
 20
5.6046309155
 11
1.3379649503
 21
5.5892177656
  0
LINE
  5
22E
100
AcDbEntity
  8
0
100
AcDbLine
 62
7
  6
CONTINUOUS
 10
1.1426047005
 20
5.7932736004
 11
1.1906649727
 21
5.7430574612
  0
LINE
  5
22F
100
AcDbEntity
  8
0
100
AcDbLine
 62
7
  6
CONTINUOUS
 10
4.0273388267
 20
5.8955654015
 11
4.0272417513
 21
5.8953737231
  0
LINE
  5
230
100
AcDbEntity
  8
0
100
AcDbLine
 62
7
  6
CONTINUOUS
 10
4.014661101
 20
5.8712177725
 11
4.0120598004
 21
5.866181862
  0
LINE
  5
231
100
AcDbEntity
  8
0
100
AcDbLine
 62
7
  6
CONTINUOUS
 10
4.0273388267
 20
5.8955654015
 11
4.0120598004
 21
5.866181862
  0
LINE
  5
232
100
AcDbEntity
  8
0
100
AcDbLine
 62
7
  6
CONTINUOUS
 10
4.0190737225
 20
5.8796727089
 11
4.014661101
 21
5.8712177725
  0
LINE
  5
233
100
AcDbEntity
  8
0
100
AcDbLine
 62
7
  6
CONTINUOUS
 10
4.0579557014
 20
5.820285961
 11
3.8230129599
 21
5.5749017296
  0
LWPOLYLINE
  5
234
100
AcDbEntity
  8
0
100
AcDbPolyline
 62
7
  6
CONTINUOUS
 90
3
 70
0
 10
4.0579557014
 20
5.820285961
 10
4.0320737781
 20
5.7932736029
 10
3.9618747301
 20
5.7199180137
  0
LWPOLYLINE
  5
235
100
AcDbEntity
  8
0
100
AcDbPolyline
 62
7
  6
CONTINUOUS
 90
3
 70
0
 10
4.0120598004
 20
5.866181862
 10
3.9850474399
 20
5.8402999419
 10
3.9593046066
 20
5.8156557171
  0
LWPOLYLINE
  5
236
100
AcDbEntity
  8
0
100
AcDbPolyline
 62
7
  6
CONTINUOUS
 90
3
 70
0
 10
1.1626186814
 20
2.924948941
 10
1.189631042
 20
2.9508308611
 10
1.2153738753
 20
2.9754750859
  0
LINE
  5
237
100
AcDbEntity
  8
0
100
AcDbLine
 62
7
  6
CONTINUOUS
 10
4.0120598004
 20
5.866181862
 11
3.7666755744
 21
5.6312391281
  0
LINE
  5
238
100
AcDbEntity
  8
0
100
AcDbLine
 62
7
  6
CONTINUOUS
 10
3.8492406116
 20
5.7102873579
 11
3.8305292582
 21
5.6923761082
  0
LINE
  5
239
100
AcDbEntity
  8
0
100
AcDbLine
 62
7
  6
CONTINUOUS
 10
1.2629866446
 20
3.0210299003
 11
1.3254378702
 21
3.0808434452
  0
LINE
  5
23A
100
AcDbEntity
  8
0
100
AcDbLine
 62
7
  6
CONTINUOUS
 10
1.1626186814
 20
2.924948941
 11
1.4080029074
 21
3.1598916749
  0
LINE
  5
23B
100
AcDbEntity
  8
0
100
AcDbLine
 62
7
  6
CONTINUOUS
 10
1.3254378702
 20
3.0808434452
 11
1.3441492237
 21
3.0987546948
  0
LWPOLYLINE
  5
23C
100
AcDbEntity
  8
0
100
AcDbPolyline
 62
7
  6
CONTINUOUS
 90
3
 70
0
 10
4.0674828838
 20
5.8252276471
 10
4.0629913876
 20
5.8228887448
 10
4.0579557014
 20
5.820285961
  0
LINE
  5
23D
100
AcDbEntity
  8
0
100
AcDbLine
 62
7
  6
CONTINUOUS
 10
4.0873392409
 20
5.8355649795
 11
4.0579557014
 21
5.820285961
  0
LINE
  5
23E
100
AcDbEntity
  8
0
100
AcDbLine
 62
7
  6
CONTINUOUS
 10
4.0873392409
 20
5.8355649795
 11
4.0871475681
 21
5.8354666671
  0
LWPOLYLINE
  5
23F
100
AcDbEntity
  8
0
100
AcDbPolyline
 62
7
  6
CONTINUOUS
 90
4
 70
0
 10
3.7666760215
 20
3.159891538
 10
3.7809126129
 20
3.1463504486
 10
3.7958317829
 20
3.1320476732
 10
3.8114335317
 20
3.1170381498
  0
LWPOLYLINE
  5
240
100
AcDbEntity
  8
0
100
AcDbPolyline
 62
7
  6
CONTINUOUS
 90
6
 70
0
 10
3.932881117
 20
3.0007307652
 10
3.9501264206
 20
2.9842759307
 10
3.9667126255
 20
2.9683664519
 10
3.982487449
 20
2.9531541348
 10
3.997603174
 20
2.9386573808
 10
4.0120598004
 20
2.924948941
  0
LWPOLYLINE
  5
241
100
AcDbEntity
  8
0
100
AcDbPolyline
 62
7
  6
CONTINUOUS
 90
6
 70
0
 10
3.827863956
 20
3.1013049815
 10
3.8449769591
 20
3.0849643916
 10
3.8623342504
 20
3.0683031151
 10
3.8799385792
 20
3.0514273786
 10
3.8977871964
 20
3.0343937025
 10
3.932881117
 20
3.0007307652
  0
LINE
  5
242
100
AcDbEntity
  8
0
100
AcDbLine
 62
7
  6
CONTINUOUS
 10
3.7666760215
 20
3.159891538
 11
4.0120598004
 21
2.924948941
  0
LINE
  5
243
100
AcDbEntity
  8
0
100
AcDbLine
 62
7
  6
CONTINUOUS
 10
1.3056499089
 20
5.7292372832
 11
1.3441492027
 21
5.6923760927
  0
LINE
  5
244
100
AcDbEntity
  8
0
100
AcDbLine
 62
7
  6
CONTINUOUS
 10
1.1626186814
 20
5.866181862
 11
1.4080029128
 21
5.6312391205
  0
LWPOLYLINE
  5
245
100
AcDbEntity
  8
0
100
AcDbPolyline
 62
7
  6
CONTINUOUS
 90
3
 70
0
 10
1.1626186814
 20
5.866181862
 10
1.1896310395
 20
5.8402999387
 10
1.2629866287
 20
5.7701008907
  0
LWPOLYLINE
  5
246
100
AcDbEntity
  8
0
100
AcDbPolyline
 62
7
  6
CONTINUOUS
 90
7
 70
0
 10
3.9485109321
 20
3.0851174203
 10
3.982173871
 20
3.0500235148
 10
3.9986287066
 20
3.0327782191
 10
4.0145381867
 20
3.0161920194
 10
4.0297505049
 20
3.0004171976
 10
4.0442472603
 20
2.9853014718
 10
4.0579557014
 20
2.970844842
  0
LINE
  5
247
100
AcDbEntity
  8
0
100
AcDbLine
 62
7
  6
CONTINUOUS
 10
3.8230131099
 20
3.2162286307
 11
4.0579557014
 21
2.970844842
  0
LWPOLYLINE
  5
248
100
AcDbEntity
  8
0
100
AcDbPolyline
 62
7
  6
CONTINUOUS
 90
5
 70
0
 10
3.8815996563
 20
3.1550406569
 10
3.8979402443
 20
3.1379276485
 10
3.9146015195
 20
3.1205703554
 10
3.9314772557
 20
3.1029660302
 10
3.9485109321
 20
3.0851174203
  0
LWPOLYLINE
  5
249
100
AcDbEntity
  8
0
100
AcDbPolyline
 62
7
  6
CONTINUOUS
 90
4
 70
0
 10
3.8230131099
 20
3.2162286307
 10
3.8365541966
 20
3.2019920268
 10
3.8508569693
 20
3.1870728461
 10
3.8658664902
 20
3.1714710886
  0
LINE
  5
24A
100
AcDbEntity
  8
0
100
AcDbLine
 62
7
  6
CONTINUOUS
 10
4.0232095235
 20
2.9035066085
 11
4.0254177719
 21
2.8992889609
  0
LINE
  5
24B
100
AcDbEntity
  8
0
100
AcDbLine
 62
7
  6
CONTINUOUS
 10
4.0120598004
 20
2.924948941
 11
4.0273383426
 21
2.8955653971
  0
LWPOLYLINE
  5
24C
100
AcDbEntity
  8
0
100
AcDbPolyline
 62
7
  6
CONTINUOUS
 90
5
 70
0
 10
4.0254177719
 20
2.8992889609
 10
4.0262199055
 20
2.8977231404
 10
4.0268029346
 20
2.8965497619
 10
4.0271757481
 20
2.8958177756
 10
4.0273383458
 20
2.8955654015
  0
LINE
  5
24D
100
AcDbEntity
  8
0
100
AcDbLine
 62
7
  6
CONTINUOUS
 10
3.766676111
 20
3.1598914537
 11
3.7666755721
 21
5.6312391281
  0
LINE
  5
24E
100
AcDbEntity
  8
0
100
AcDbLine
 62
7
  6
CONTINUOUS
 10
3.8230131099
 20
3.2162286307
 11
3.8230129599
 21
5.5749017296
  0
LINE
  5
24F
100
AcDbEntity
  8
0
100
AcDbLine
 62
7
  6
CONTINUOUS
 10
4.0579557014
 20
2.970844842
 11
4.0579557014
 21
5.820285961
  0
LINE
  5
250
100
AcDbEntity
  8
0
100
AcDbLine
 62
7
  6
CONTINUOUS
 10
4.0873387936
 20
2.955561964
 11
4.087339038
 21
5.8355669616
  0
LINE
  5
251
100
AcDbEntity
  8
0
100
AcDbLine
 62
7
  6
CONTINUOUS
 10
10.0273632223
 20
2.895568538
 11
7.1473288723
 21
2.8955667528
  0
LINE
  5
252
100
AcDbEntity
  8
0
100
AcDbLine
 62
7
  6
CONTINUOUS
 10
4.0273632223
 20
2.895568538
 11
1.1473288723
 21
2.8955667528
  0
LINE
  5
253
100
AcDbEntity
  8
0
100
AcDbLine
 62
7
  6
CONTINUOUS
 10
1.1626186814
 20
2.924948941
 11
4.0120598004
 21
2.924948941
  0
LINE
  5
254
100
AcDbEntity
  8
0
100
AcDbLine
 62
7
  6
CONTINUOUS
 10
7.1626186814
 20
2.924948941
 11
10.0120598004
 21
2.924948941
  0
LINE
  5
255
100
AcDbEntity
  8
0
100
AcDbLine
 62
7
  6
CONTINUOUS
 10
1.4080029074
 20
3.1598916749
 11
3.7666760215
 21
3.159891538
  0
LINE
  5
256
100
AcDbEntity
  8
0
100
AcDbLine
 62
7
  6
CONTINUOUS
 10
7.4080029074
 20
3.1598916749
 11
9.7666760215
 21
3.159891538
  0
LINE
  5
257
100
AcDbEntity
  8
0
100
AcDbLine
 62
7
  6
CONTINUOUS
 10
1.351665581
 20
3.216229136
 11
3.8230131099
 21
3.2162286271
  0
LINE
  5
258
100
AcDbEntity
  8
0
100
AcDbLine
 62
7
  6
CONTINUOUS
 10
7.351665581
 20
3.216229136
 11
9.8230131099
 21
3.2162286271
  0
LWPOLYLINE
  5
259
100
AcDbEntity
  8
0
100
AcDbPolyline
 62
7
  6
CONTINUOUS
 90
3
 70
0
 10
1.1071955981
 20
2.9659031559
 10
1.1116870942
 20
2.9682420582
 10
1.1167227804
 20
2.970844842
  0
LINE
  5
25A
100
AcDbEntity
  8
0
100
AcDbLine
 62
7
  6
CONTINUOUS
 10
1.0873392409
 20
2.9555658235
 11
1.1167227804
 21
2.970844842
  0
LINE
  5
25B
100
AcDbEntity
  8
0
100
AcDbLine
 62
7
  6
CONTINUOUS
 10
1.0873392409
 20
2.9555658235
 11
1.0875309137
 21
2.9556641359
  0
LINE
  5
25C
100
AcDbEntity
  8
0
100
AcDbLine
 62
7
  6
CONTINUOUS
 10
1.0873392409
 20
5.8355649873
 11
1.0875309193
 21
5.8354679119
  0
LINE
  5
25D
100
AcDbEntity
  8
0
100
AcDbLine
 62
7
  6
CONTINUOUS
 10
1.1116868699
 20
5.8228872616
 11
1.1167227804
 21
5.820285961
  0
LINE
  5
25E
100
AcDbEntity
  8
0
100
AcDbLine
 62
7
  6
CONTINUOUS
 10
1.0873392409
 20
5.8355649873
 11
1.1167227804
 21
5.820285961
  0
LINE
  5
25F
100
AcDbEntity
  8
0
100
AcDbLine
 62
7
  6
CONTINUOUS
 10
1.1032319335
 20
5.8272998831
 11
1.1116868699
 21
5.8228872616
  0
LWPOLYLINE
  5
260
100
AcDbEntity
  8
0
100
AcDbPolyline
 62
7
  6
CONTINUOUS
 90
3
 70
0
 10
10.0674828838
 20
5.8252276471
 10
10.0629913876
 20
5.8228887448
 10
10.0579557014
 20
5.820285961
  0
LINE
  5
261
100
AcDbEntity
  8
0
100
AcDbLine
 62
7
  6
CONTINUOUS
 10
10.0873392409
 20
5.8355649795
 11
10.0579557014
 21
5.820285961
  0
LINE
  5
262
100
AcDbEntity
  8
0
100
AcDbLine
 62
7
  6
CONTINUOUS
 10
10.0873392409
 20
5.8355649795
 11
10.0871475681
 21
5.8354666671
  0
LINE
  5
263
100
AcDbEntity
  8
0
100
AcDbLine
 62
7
  6
CONTINUOUS
 10
3.8230129008
 20
5.574901667
 11
1.3516655143
 21
5.5749017327
  0
LINE
  5
264
100
AcDbEntity
  8
0
100
AcDbLine
 62
7
  6
CONTINUOUS
 10
7.3516655143
 20
5.5749017327
 11
9.8230129008
 21
5.574901667
  0
LINE
  5
265
100
AcDbEntity
  8
0
100
AcDbLine
 62
7
  6
CONTINUOUS
 10
9.7666755744
 20
5.6312391281
 11
7.4080029128
 21
5.6312391205
  0
LINE
  5
266
100
AcDbEntity
  8
0
100
AcDbLine
 62
7
  6
CONTINUOUS
 10
3.7666755744
 20
5.6312391281
 11
1.4080029128
 21
5.6312391205
  0
LINE
  5
267
100
AcDbEntity
  8
0
100
AcDbLine
 62
7
  6
CONTINUOUS
 10
7.0873405922
 20
5.8355757702
 11
7.0873394438
 21
2.9555638415
  0
LINE
  5
268
100
AcDbEntity
  8
0
100
AcDbLine
 62
7
  6
CONTINUOUS
 10
7.1167227804
 20
5.820285961
 11
7.1167227804
 21
2.970844842
  0
LINE
  5
269
100
AcDbEntity
  8
0
100
AcDbLine
 62
7
  6
CONTINUOUS
 10
10.0120598004
 20
5.866181862
 11
7.1626186814
 21
5.866181862
  0
LINE
  5
26A
100
AcDbEntity
  8
0
100
AcDbLine
 62
7
  6
CONTINUOUS
 10
4.0120598004
 20
5.866181862
 11
1.1626186814
 21
5.866181862
  0
LINE
  5
26B
100
AcDbEntity
  8
0
100
AcDbLine
 62
7
  6
CONTINUOUS
 10
4.0273496096
 20
5.8955640502
 11
1.1473376809
 21
5.8955651986
  0
LINE
  5
26C
100
AcDbEntity
  8
0
100
AcDbLine
 62
7
  6
CONTINUOUS
 10
10.0273496096
 20
5.8955640502
 11
7.1473376809
 21
5.8955651986
  0
LINE
  5
26D
100
AcDbEntity
  8
0
100
AcDbLine
 62
7
  6
CONTINUOUS
 10
7.3516655143
 20
5.574901735
 11
7.3516655219
 21
3.2162290735
  0
LINE
  5
26E
100
AcDbEntity
  8
0
100
AcDbLine
 62
7
  6
CONTINUOUS
 10
7.4080029754
 20
5.6312390614
 11
7.4080029097
 21
3.1598916749
  0
LINE
  5
26F
100
AcDbEntity
  8
0
100
AcDbLine
 62
7
  6
CONTINUOUS
 10
7.1473396551
 20
2.8955654015
 11
7.1474367305
 21
2.8957570799
  0
LINE
  5
270
100
AcDbEntity
  8
0
100
AcDbLine
 62
7
  6
CONTINUOUS
 10
7.1600173808
 20
2.9199130305
 11
7.1626186814
 21
2.924948941
  0
LINE
  5
271
100
AcDbEntity
  8
0
100
AcDbLine
 62
7
  6
CONTINUOUS
 10
7.1473396551
 20
2.8955654015
 11
7.1626186814
 21
2.924948941
  0
LINE
  5
272
100
AcDbEntity
  8
0
100
AcDbLine
 62
7
  6
CONTINUOUS
 10
7.1489397717
 20
2.8986501249
 11
7.1498435061
 21
2.9003878054
  0
LINE
  5
273
100
AcDbEntity
  8
0
100
AcDbLine
 62
7
  6
CONTINUOUS
 10
7.1556047593
 20
2.9114580941
 11
7.1600173808
 21
2.9199130305
  0
LINE
  5
274
100
AcDbEntity
  8
0
100
AcDbLine
 62
7
  6
CONTINUOUS
 10
7.1167227804
 20
2.970844842
 11
7.3516655219
 21
3.2162290735
  0
LINE
  5
275
100
AcDbEntity
  8
0
100
AcDbLine
 62
7
  6
CONTINUOUS
 10
9.9210111226
 20
5.6772547335
 11
9.8841499321
 21
5.6387554397
  0
LINE
  5
276
100
AcDbEntity
  8
0
100
AcDbLine
 62
7
  6
CONTINUOUS
 10
10.0579557014
 20
5.820285961
 11
9.8230129599
 21
5.5749017296
  0
LWPOLYLINE
  5
277
100
AcDbEntity
  8
0
100
AcDbPolyline
 62
7
  6
CONTINUOUS
 90
3
 70
0
 10
7.1167227804
 20
2.970844842
 10
7.1426047037
 20
2.9978572001
 10
7.2128037518
 20
3.0712127894
  0
LWPOLYLINE
  5
278
100
AcDbEntity
  8
0
100
AcDbPolyline
 62
7
  6
CONTINUOUS
 90
3
 70
0
 10
10.0579557014
 20
5.820285961
 10
10.0320737781
 20
5.7932736029
 10
9.9618747301
 20
5.7199180137
  0
LINE
  5
279
100
AcDbEntity
  8
0
100
AcDbLine
 62
7
  6
CONTINUOUS
 10
10.0120598004
 20
5.866181862
 11
9.9850474399
 21
5.8402999419
  0
LINE
  5
27A
100
AcDbEntity
  8
0
100
AcDbLine
 62
7
  6
CONTINUOUS
 10
7.1626186814
 20
2.924948941
 11
7.189631042
 21
2.9508308611
  0
LINE
  5
27B
100
AcDbEntity
  8
0
100
AcDbLine
 62
7
  6
CONTINUOUS
 10
9.8492406116
 20
5.7102873579
 11
9.8305292582
 21
5.6923761082
  0
LINE
  5
27C
100
AcDbEntity
  8
0
100
AcDbLine
 62
7
  6
CONTINUOUS
 10
10.0120598004
 20
5.866181862
 11
9.7666755744
 21
5.6312391281
  0
LINE
  5
27D
100
AcDbEntity
  8
0
100
AcDbLine
 62
7
  6
CONTINUOUS
 10
9.9116918373
 20
5.7701009028
 11
9.8898219012
 21
5.7491602377
  0
LINE
  5
27E
100
AcDbEntity
  8
0
100
AcDbLine
 62
7
  6
CONTINUOUS
 10
9.7964047548
 20
5.6596979824
 11
9.780991605
 21
5.6449396921
  0
LINE
  5
27F
100
AcDbEntity
  8
0
100
AcDbLine
 62
7
  6
CONTINUOUS
 10
7.3254378702
 20
3.0808434452
 11
7.3441492237
 21
3.0987546948
  0
LINE
  5
280
100
AcDbEntity
  8
0
100
AcDbLine
 62
7
  6
CONTINUOUS
 10
7.1626186814
 20
2.924948941
 11
7.4080029074
 21
3.1598916749
  0
LINE
  5
281
100
AcDbEntity
  8
0
100
AcDbLine
 62
7
  6
CONTINUOUS
 10
9.9850474399
 20
5.8402999419
 11
9.9348313006
 21
5.7922396697
  0
LINE
  5
282
100
AcDbEntity
  8
0
100
AcDbLine
 62
7
  6
CONTINUOUS
 10
7.189631042
 20
2.9508308611
 11
7.2398471813
 21
2.9988911334
  0
LWPOLYLINE
  5
283
100
AcDbEntity
  8
0
100
AcDbPolyline
 62
7
  6
CONTINUOUS
 90
3
 70
0
 10
7.1071955981
 20
2.9659031559
 10
7.1116870942
 20
2.9682420582
 10
7.1167227804
 20
2.970844842
  0
LINE
  5
284
100
AcDbEntity
  8
0
100
AcDbLine
 62
7
  6
CONTINUOUS
 10
7.0873392409
 20
2.9555658235
 11
7.1167227804
 21
2.970844842
  0
LINE
  5
285
100
AcDbEntity
  8
0
100
AcDbLine
 62
7
  6
CONTINUOUS
 10
7.0873392409
 20
2.9555658235
 11
7.0875309137
 21
2.9556641359
  0
LINE
  5
286
100
AcDbEntity
  8
0
100
AcDbLine
 62
7
  6
CONTINUOUS
 10
7.0873392409
 20
5.8355649873
 11
7.0875309193
 21
5.8354679119
  0
LINE
  5
287
100
AcDbEntity
  8
0
100
AcDbLine
 62
7
  6
CONTINUOUS
 10
7.1116868699
 20
5.8228872616
 11
7.1167227804
 21
5.820285961
  0
LINE
  5
288
100
AcDbEntity
  8
0
100
AcDbLine
 62
7
  6
CONTINUOUS
 10
7.0873392409
 20
5.8355649873
 11
7.1167227804
 21
5.820285961
  0
LINE
  5
289
100
AcDbEntity
  8
0
100
AcDbLine
 62
7
  6
CONTINUOUS
 10
7.0904239643
 20
5.8339648707
 11
7.0921616448
 21
5.8330611363
  0
LINE
  5
28A
100
AcDbEntity
  8
0
100
AcDbLine
 62
7
  6
CONTINUOUS
 10
7.1032319335
 20
5.8272998831
 11
7.1116868699
 21
5.8228872616
  0
LWPOLYLINE
  5
28B
100
AcDbEntity
  8
0
100
AcDbPolyline
 62
7
  6
CONTINUOUS
 90
10
 70
0
 10
9.7666760215
 20
3.159891538
 10
9.7809126129
 20
3.1463504486
 10
9.7958317829
 20
3.1320476732
 10
9.8114335317
 20
3.1170381498
 10
9.827863956
 20
3.1013049815
 10
9.8449769591
 20
3.0849643916
 10
9.8623342504
 20
3.0683031151
 10
9.8799385792
 20
3.0514273786
 10
9.8977871964
 20
3.0343937025
 10
9.932881117
 20
3.0007307652
  0
LWPOLYLINE
  5
28C
100
AcDbEntity
  8
0
100
AcDbPolyline
 62
7
  6
CONTINUOUS
 90
6
 70
0
 10
9.932881117
 20
3.0007307652
 10
9.9501264206
 20
2.9842759307
 10
9.9667126255
 20
2.9683664519
 10
9.982487449
 20
2.9531541348
 10
9.997603174
 20
2.9386573808
 10
10.0120598004
 20
2.924948941
  0
LINE
  5
28D
100
AcDbEntity
  8
0
100
AcDbLine
 62
7
  6
CONTINUOUS
 10
9.7666760215
 20
3.159891538
 11
10.0120598004
 21
2.924948941
  0
LINE
  5
28E
100
AcDbEntity
  8
0
100
AcDbLine
 62
7
  6
CONTINUOUS
 10
7.1626186814
 20
5.866181862
 11
7.4080029128
 21
5.6312391205
  0
LWPOLYLINE
  5
28F
100
AcDbEntity
  8
0
100
AcDbPolyline
 62
7
  6
CONTINUOUS
 90
3
 70
0
 10
7.1626186814
 20
5.866181862
 10
7.1896310395
 20
5.8402999387
 10
7.2629866287
 20
5.7701008907
  0
LWPOLYLINE
  5
290
100
AcDbEntity
  8
0
100
AcDbPolyline
 62
7
  6
CONTINUOUS
 90
7
 70
0
 10
9.9485109321
 20
3.0851174203
 10
9.982173871
 20
3.0500235148
 10
9.9986287066
 20
3.0327782191
 10
10.0145381867
 20
3.0161920194
 10
10.0297505049
 20
3.0004171976
 10
10.0442472603
 20
2.9853014718
 10
10.0579557014
 20
2.970844842
  0
LWPOLYLINE
  5
291
100
AcDbEntity
  8
0
100
AcDbPolyline
 62
7
  6
CONTINUOUS
 90
3
 70
0
 10
7.1167227804
 20
5.820285961
 10
7.1426047005
 20
5.7932736004
 10
7.1672489253
 20
5.7675307672
  0
LINE
  5
292
100
AcDbEntity
  8
0
100
AcDbLine
 62
7
  6
CONTINUOUS
 10
7.1167227804
 20
5.820285961
 11
7.3516655143
 21
5.574901735
  0
LINE
  5
293
100
AcDbEntity
  8
0
100
AcDbLine
 62
7
  6
CONTINUOUS
 10
9.8230131099
 20
3.2162286307
 11
10.0579557014
 21
2.970844842
  0
LWPOLYLINE
  5
294
100
AcDbEntity
  8
0
100
AcDbPolyline
 62
7
  6
CONTINUOUS
 90
5
 70
0
 10
9.8815996563
 20
3.1550406569
 10
9.8979402443
 20
3.1379276485
 10
9.9146015195
 20
3.1205703554
 10
9.9314772557
 20
3.1029660302
 10
9.9485109321
 20
3.0851174203
  0
LWPOLYLINE
  5
295
100
AcDbEntity
  8
0
100
AcDbPolyline
 62
7
  6
CONTINUOUS
 90
3
 70
0
 10
7.1576769953
 20
5.8757090444
 10
7.1600158976
 20
5.8712175482
 10
7.1626186814
 20
5.866181862
  0
LINE
  5
296
100
AcDbEntity
  8
0
100
AcDbLine
 62
7
  6
CONTINUOUS
 10
7.1473396629
 20
5.8955654015
 11
7.1626186814
 21
5.866181862
  0
LINE
  5
297
100
AcDbEntity
  8
0
100
AcDbLine
 62
7
  6
CONTINUOUS
 10
7.1473396629
 20
5.8955654015
 11
7.1474379753
 21
5.8953737287
  0
LWPOLYLINE
  5
298
100
AcDbEntity
  8
0
100
AcDbPolyline
 62
7
  6
CONTINUOUS
 90
4
 70
0
 10
9.8230131099
 20
3.2162286307
 10
9.8365541966
 20
3.2019920268
 10
9.8508569693
 20
3.1870728461
 10
9.8658664902
 20
3.1714710886
  0
LINE
  5
299
100
AcDbEntity
  8
0
100
AcDbLine
 62
7
  6
CONTINUOUS
 10
10.0273388267
 20
5.8955654015
 11
10.0272417513
 21
5.8953737231
  0
LINE
  5
29A
100
AcDbEntity
  8
0
100
AcDbLine
 62
7
  6
CONTINUOUS
 10
10.014661101
 20
5.8712177725
 11
10.0120598004
 21
5.866181862
  0
LINE
  5
29B
100
AcDbEntity
  8
0
100
AcDbLine
 62
7
  6
CONTINUOUS
 10
10.0273388267
 20
5.8955654015
 11
10.0120598004
 21
5.866181862
  0
LINE
  5
29C
100
AcDbEntity
  8
0
100
AcDbLine
 62
7
  6
CONTINUOUS
 10
10.0190737225
 20
5.8796727089
 11
10.014661101
 21
5.8712177725
  0
LINE
  5
29D
100
AcDbEntity
  8
0
100
AcDbLine
 62
7
  6
CONTINUOUS
 10
10.0232095235
 20
2.9035066085
 11
10.0254177719
 21
2.8992889609
  0
LINE
  5
29E
100
AcDbEntity
  8
0
100
AcDbLine
 62
7
  6
CONTINUOUS
 10
10.0120598004
 20
2.924948941
 11
10.0273383426
 21
2.8955653971
  0
LINE
  5
29F
100
AcDbEntity
  8
0
100
AcDbLine
 62
7
  6
CONTINUOUS
 10
10.0120598004
 20
2.924948941
 11
10.0144250493
 21
2.9203999692
  0
LWPOLYLINE
  5
2A0
100
AcDbEntity
  8
0
100
AcDbPolyline
 62
7
  6
CONTINUOUS
 90
5
 70
0
 10
10.0254177719
 20
2.8992889609
 10
10.0262199055
 20
2.8977231404
 10
10.0268029346
 20
2.8965497619
 10
10.0271757481
 20
2.8958177756
 10
10.0273383458
 20
2.8955654015
  0
LINE
  5
2A1
100
AcDbEntity
  8
0
100
AcDbLine
 62
7
  6
CONTINUOUS
 10
9.766676111
 20
3.1598914537
 11
9.7666755721
 21
5.6312391281
  0
LINE
  5
2A2
100
AcDbEntity
  8
0
100
AcDbLine
 62
7
  6
CONTINUOUS
 10
9.8230131099
 20
3.2162286307
 11
9.8230129599
 21
5.5749017296
  0
LINE
  5
2A3
100
AcDbEntity
  8
0
100
AcDbLine
 62
7
  6
CONTINUOUS
 10
10.0579557014
 20
2.970844842
 11
10.0579557014
 21
5.820285961
  0
LINE
  5
2A4
100
AcDbEntity
  8
0
100
AcDbLine
 62
7
  6
CONTINUOUS
 10
10.0873387936
 20
2.955561964
 11
10.087339038
 21
5.8355669616
  0
ARC
  5
2A5
100
AcDbEntity
  8
0
100
AcDbCircle
 62
7
  6
CONTINUOUS
 10
2.5873392409
 20
3.3080654015
 40
0.2055
100
AcDbArc
 50
81.8073990936
 51
98.1926013172
  0
ARC
  5
2A6
100
AcDbEntity
  8
0
100
AcDbCircle
 62
7
  6
CONTINUOUS
 10
1.1473396629
 20
2.9555658235
 40
0.0599996104
100
AcDbArc
 50
180.0018927476
 51
269.9896954952
  0
ARC
  5
2A7
100
AcDbEntity
  8
0
100
AcDbCircle
 62
7
  6
CONTINUOUS
 10
4.0273383104
 20
2.955566332
 40
0.059999141
100
AcDbArc
 50
270.0237900334
 51
359.9958288969
  0
CIRCLE
  5
2A8
100
AcDbEntity
  8
0
100
AcDbCircle
 62
7
  6
CONTINUOUS
 10
2.5873392409
 20
4.3955654015
 40
0.885
  0
CIRCLE
  5
2A9
100
AcDbEntity
  8
0
100
AcDbCircle
 62
7
  6
CONTINUOUS
 10
2.5873392409
 20
4.3955654015
 40
0.875
  0
CIRCLE
  5
2AA
100
AcDbEntity
  8
0
100
AcDbCircle
 62
7
  6
CONTINUOUS
 10
2.5873392409
 20
4.3955654015
 40
0.8149999989
  0
CIRCLE
  5
2AB
100
AcDbEntity
  8
0
100
AcDbCircle
 62
7
  6
CONTINUOUS
 10
2.5873392409
 20
4.3955654015
 40
0.63
  0
ARC
  5
2AC
100
AcDbEntity
  8
0
100
AcDbCircle
 62
7
  6
CONTINUOUS
 10
2.5873370322
 20
4.3955674042
 40
0.6251023144
100
AcDbArc
 50
266.4844993939
 51
356.3760724484
  0
CIRCLE
  5
2AD
100
AcDbEntity
  8
0
100
AcDbCircle
 62
7
  6
CONTINUOUS
 10
2.5873392409
 20
4.3955654015
 40
0.58
  0
ARC
  5
2AE
100
AcDbEntity
  8
0
100
AcDbCircle
 62
7
  6
CONTINUOUS
 10
2.8993145556
 20
4.7173006998
 40
0.4271907306
100
AcDbArc
 50
43.4430698096
 51
44.5958506923
  0
ARC
  5
2AF
100
AcDbEntity
  8
0
100
AcDbCircle
 62
7
  6
CONTINUOUS
 10
2.9539727026
 20
4.771127496
 40
0.3504780565
100
AcDbArc
 50
44.6034930921
 51
45.7895888401
  0
ARC
  5
2B0
100
AcDbEntity
  8
0
100
AcDbCircle
 62
7
  6
CONTINUOUS
 10
3.6748392409
 20
4.3955654015
 40
0.2055
100
AcDbArc
 50
171.8210796236
 51
188.1789207993
  0
ARC
  5
2B1
100
AcDbEntity
  8
0
100
AcDbCircle
 62
7
  6
CONTINUOUS
 10
2.5873392409
 20
5.4830654015
 40
0.2055
100
AcDbArc
 50
261.8073990936
 51
278.1926013172
  0
ARC
  5
2B2
100
AcDbEntity
  8
0
100
AcDbCircle
 62
7
  6
CONTINUOUS
 10
1.4998392409
 20
4.3955654015
 40
0.2055
100
AcDbArc
 50
351.8210796236
 51
8.1789207993
  0
ARC
  5
2B3
100
AcDbEntity
  8
0
100
AcDbCircle
 62
7
  6
CONTINUOUS
 10
4.0273388189
 20
5.8355649795
 40
0.0599996104
100
AcDbArc
 50
0.0018927522
 51
89.9896954147
  0
ARC
  5
2B4
100
AcDbEntity
  8
0
100
AcDbCircle
 62
7
  6
CONTINUOUS
 10
1.1473396629
 20
5.8355649795
 40
0.0599996104
100
AcDbArc
 50
90.0018927476
 51
179.9896954147
  0
ARC
  5
2B5
100
AcDbEntity
  8
0
100
AcDbCircle
 62
7
  6
CONTINUOUS
 10
8.5873392409
 20
3.3080654015
 40
0.2055
100
AcDbArc
 50
81.8073990936
 51
98.1926013172
  0
ARC
  5
2B6
100
AcDbEntity
  8
0
100
AcDbCircle
 62
7
  6
CONTINUOUS
 10
7.1473396629
 20
2.9555658235
 40
0.0599996104
100
AcDbArc
 50
180.0018927476
 51
269.9896954952
  0
ARC
  5
2B7
100
AcDbEntity
  8
0
100
AcDbCircle
 62
7
  6
CONTINUOUS
 10
10.0273383104
 20
2.955566332
 40
0.059999141
100
AcDbArc
 50
270.0237900334
 51
359.9958288969
  0
CIRCLE
  5
2B8
100
AcDbEntity
  8
0
100
AcDbCircle
 62
7
  6
CONTINUOUS
 10
8.5873392409
 20
4.3955654015
 40
0.885
  0
CIRCLE
  5
2B9
100
AcDbEntity
  8
0
100
AcDbCircle
 62
7
  6
CONTINUOUS
 10
8.5873392409
 20
4.3955654015
 40
0.875
  0
CIRCLE
  5
2BA
100
AcDbEntity
  8
0
100
AcDbCircle
 62
7
  6
CONTINUOUS
 10
8.5873392409
 20
4.3955654015
 40
0.8149999989
  0
CIRCLE
  5
2BB
100
AcDbEntity
  8
0
100
AcDbCircle
 62
7
  6
CONTINUOUS
 10
8.5873392409
 20
4.3955654015
 40
0.63
  0
ARC
  5
2BC
100
AcDbEntity
  8
0
100
AcDbCircle
 62
7
  6
CONTINUOUS
 10
8.5873370322
 20
4.3955674042
 40
0.6251023144
100
AcDbArc
 50
266.4844993939
 51
356.3760724484
  0
CIRCLE
  5
2BD
100
AcDbEntity
  8
0
100
AcDbCircle
 62
7
  6
CONTINUOUS
 10
8.5873392409
 20
4.3955654015
 40
0.58
  0
ARC
  5
2BE
100
AcDbEntity
  8
0
100
AcDbCircle
 62
7
  6
CONTINUOUS
 10
8.8993145556
 20
4.7173006998
 40
0.4271907305
100
AcDbArc
 50
43.4430698095
 51
44.5958506923
  0
ARC
  5
2BF
100
AcDbEntity
  8
0
100
AcDbCircle
 62
7
  6
CONTINUOUS
 10
8.9539727026
 20
4.771127496
 40
0.3504780565
100
AcDbArc
 50
44.6034930921
 51
45.7895888401
  0
ARC
  5
2C0
100
AcDbEntity
  8
0
100
AcDbCircle
 62
7
  6
CONTINUOUS
 10
9.6748392409
 20
4.3955654015
 40
0.2055
100
AcDbArc
 50
171.8210796236
 51
188.1789207993
  0
ARC
  5
2C1
100
AcDbEntity
  8
0
100
AcDbCircle
 62
7
  6
CONTINUOUS
 10
8.5873392409
 20
5.4830654015
 40
0.2055
100
AcDbArc
 50
261.8073990936
 51
278.1926013172
  0
ARC
  5
2C2
100
AcDbEntity
  8
0
100
AcDbCircle
 62
7
  6
CONTINUOUS
 10
7.4998392409
 20
4.3955654015
 40
0.2055
100
AcDbArc
 50
351.8210796236
 51
8.1789207993
  0
ARC
  5
2C3
100
AcDbEntity
  8
0
100
AcDbCircle
 62
7
  6
CONTINUOUS
 10
10.0273388189
 20
5.8355649795
 40
0.0599996104
100
AcDbArc
 50
0.0018927522
 51
89.9896954147
  0
ARC
  5
2C4
100
AcDbEntity
  8
0
100
AcDbCircle
 62
7
  6
CONTINUOUS
 10
7.1473396629
 20
5.8355649795
 40
0.0599996104
100
AcDbArc
 50
90.0018927476
 51
179.9896954147
  0
SPLINE
  5
2C5
100
AcDbEntity
  8
0
100
AcDbSpline
 62
7
  6
CONTINUOUS
 70
0
 71
3
 72
33
 73
29
 74
0
 42
0.0000001
 43
0.0000001
 44
0.0000000001
 40
0.0
 40
0.0
 40
0.0
 40
0.0
 40
0.0312457672
 40
0.0625034809
 40
0.093757131
 40
0.1250074867
 40
0.1874835999
 40
0.2499600496
 40
0.2812124677
 40
0.3124647161
 40
0.3437165919
 40
0.3749684395
 40
0.4374459645
 40
0.4999316675
 40
0.5311934837
 40
0.562457929
 40
0.5937231257
 40
0.624988037
 40
0.6562515359
 40
0.6875127068
 40
0.7187715158
 40
0.7500280364
 40
0.8125064577
 40
0.874982428
 40
0.9062346332
 40
0.9374911816
 40
0.9687527792
 40
1.0
 40
1.0
 40
1.0
 40
1.0
 10
8.5490066802
 20
3.7716418286
 30
0.0
 10
8.536735349
 20
3.7728492621
 30
0.0
 10
8.5122534515
 20
3.7759938633
 30
0.0
 10
8.4758788746
 20
3.7828767566
 30
0.0
 10
8.4399741638
 20
3.7919139931
 30
0.0
 10
8.3929235345
 20
3.8067872816
 30
0.0
 10
8.3359013126
 20
3.8306133763
 30
0.0
 10
8.28214309
 20
3.8611025584
 30
0.0
 10
8.2415937029
 20
3.8892245391
 30
0.0
 10
8.2124995338
 20
3.9121200909
 30
0.0
 10
8.1848462298
 20
3.9367364812
 30
0.0
 10
8.1500439116
 20
3.9717211077
 30
0.0
 10
8.110626897
 20
4.019332292
 30
0.0
 10
8.0773125597
 20
4.071403502
 30
0.0
 10
8.0546487389
 20
4.1152526103
 30
0.0
 10
8.0397002485
 20
4.1491395339
 30
0.0
 10
8.0268674469
 20
4.1838830196
 30
0.0
 10
8.0162118477
 20
4.2193548913
 30
0.0
 10
8.0077727764
 20
4.2554168079
 30
0.0
 10
8.0015914183
 20
4.2919309589
 30
0.0
 10
7.9976973894
 20
4.3287579609
 30
0.0
 10
7.9955779443
 20
4.3780657667
 30
0.0
 10
7.9987262683
 20
4.4398038878
 30
0.0
 10
8.0096022289
 20
4.500658456
 30
0.0
 10
8.0228443033
 20
4.5481991146
 30
0.0
 10
8.0350188322
 20
4.5831717237
 30
0.0
 10
8.0493904244
 20
4.6172950648
 30
0.0
 10
8.0603988273
 20
4.6393926604
 30
0.0
 10
8.0662475878
 20
4.6502485166
 30
0.0
  0
SPLINE
  5
2C6
100
AcDbEntity
  8
0
100
AcDbSpline
 62
7
  6
CONTINUOUS
 70
0
 71
3
 72
39
 73
35
 74
0
 42
0.0000001
 43
0.0000001
 44
0.0000000001
 40
0.0
 40
0.0
 40
0.0
 40
0.0
 40
0.0312342528
 40
0.0624926902
 40
0.0937524063
 40
0.1250035806
 40
0.1562513185
 40
0.1875003002
 40
0.2187513037
 40
0.2500023642
 40
0.2812523882
 40
0.3125022338
 40
0.3437521481
 40
0.3750025883
 40
0.406253256
 40
0.437503545
 40
0.4687538474
 40
0.5000038658
 40
0.5312535914
 40
0.5625034235
 40
0.593753044
 40
0.6250027707
 40
0.6562525482
 40
0.6875020189
 40
0.7187518356
 40
0.7500020841
 40
0.7812526365
 40
0.812502577
 40
0.8437500978
 40
0.8749970464
 40
0.906248781
 40
0.9375088605
 40
0.9687660463
 40
1.0
 40
1.0
 40
1.0
 40
1.0
 10
8.3993947079
 20
4.9442701058
 30
0.0
 10
8.4108905559
 20
4.9487232316
 30
0.0
 10
8.434183415
 20
4.9568981513
 30
0.0
 10
8.4698300112
 20
4.9669172267
 30
0.0
 10
8.5060487857
 20
4.9746554206
 30
0.0
 10
8.5426808846
 20
4.9800784429
 30
0.0
 10
8.5795779368
 20
4.9831787283
 30
0.0
 10
8.6165969345
 20
4.9839437783
 30
0.0
 10
8.6535919572
 20
4.9823824082
 30
0.0
 10
8.6904169262
 20
4.9785062191
 30
0.0
 10
8.7269258264
 20
4.9723290484
 30
0.0
 10
8.7629782522
 20
4.9638890995
 30
0.0
 10
8.7984348635
 20
4.9532189526
 30
0.0
 10
8.8331599121
 20
4.9403659643
 30
0.0
 10
8.8670235373
 20
4.9253896043
 30
0.0
 10
8.8998944044
 20
4.9083445517
 30
0.0
 10
8.9316520712
 20
4.8893066749
 30
0.0
 10
8.9621789099
 20
4.8683522447
 30
0.0
 10
8.9913592064
 20
4.8455605825
 30
0.0
 10
9.0190914054
 20
4.821027919
 30
0.0
 10
9.0452715406
 20
4.7948453204
 30
0.0
 10
9.0698058306
 20
4.7671148854
 30
0.0
 10
9.0926112368
 20
4.7379461629
 30
0.0
 10
9.1136014139
 20
4.7074451478
 30
0.0
 10
9.1327080357
 20
4.6757302747
 30
0.0
 10
9.1498654865
 20
4.6429194164
 30
0.0
 10
9.1650102822
 20
4.6091324725
 30
0.0
 10
9.1780995517
 20
4.5744986744
 30
0.0
 10
9.1890869346
 20
4.5391432899
 30
0.0
 10
9.197936261
 20
4.5031925467
 30
0.0
 10
9.2046255999
 20
4.4667730874
 30
0.0
 10
9.2091275636
 20
4.4300147155
 30
0.0
 10
9.2114376029
 20
4.393062471
 30
0.0
 10
9.2115164258
 20
4.3683801287
 30
0.0
 10
9.2111894204
 20
4.3560563708
 30
0.0
  0
SPLINE
  5
2C7
100
AcDbEntity
  8
0
100
AcDbSpline
 62
7
  6
CONTINUOUS
 70
0
 71
3
 72
15
 73
11
 74
0
 42
0.0000001
 43
0.0000001
 44
0.0000000001
 40
0.0
 40
0.0
 40
0.0
 40
0.0
 40
0.1316138752
 40
0.2612069567
 40
0.3884110256
 40
0.5130313128
 40
0.6352018141
 40
0.7555961771
 40
0.8758268891
 40
1.0
 40
1.0
 40
1.0
 40
1.0
 10
9.4712529727
 20
4.3548274732
 30
0.0
 10
9.4706741734
 20
4.3564030279
 30
0.0
 10
9.4695295823
 20
4.3595314779
 30
0.0
 10
9.4678774911
 20
4.3642015528
 30
0.0
 10
9.4663504979
 20
4.3688205585
 30
0.0
 10
9.4650024068
 20
4.3733969892
 30
0.0
 10
9.4638866041
 20
4.3779471333
 30
0.0
 10
9.4630505587
 20
4.3825010298
 30
0.0
 10
9.4625265396
 20
4.3871278783
 30
0.0
 10
9.4623999632
 20
4.3902445815
 30
0.0
 10
9.4623721106
 20
4.3918279483
 30
0.0
  0
SPLINE
  5
2C8
100
AcDbEntity
  8
0
100
AcDbSpline
 62
7
  6
CONTINUOUS
 70
0
 71
3
 72
15
 73
11
 74
0
 42
0.0000001
 43
0.0000001
 44
0.0000000001
 40
0.0
 40
0.0
 40
0.0
 40
0.0
 40
0.124161196
 40
0.2443822019
 40
0.3647758554
 40
0.4869474057
 40
0.611571882
 40
0.7387819659
 40
0.8683812483
 40
1.0
 40
1.0
 40
1.0
 40
1.0
 10
8.5910766941
 20
3.5205325318
 30
0.0
 10
8.5926611468
 20
3.5205046601
 30
0.0
 10
8.5957800127
 20
3.5203779306
 30
0.0
 10
8.6004101572
 20
3.5198531536
 30
0.0
 10
8.6049674066
 20
3.5190159706
 30
0.0
 10
8.6095210102
 20
3.5178986502
 30
0.0
 10
8.6141009854
 20
3.5165488851
 30
0.0
 10
8.618723614
 20
3.5150200707
 30
0.0
 10
8.6233974492
 20
3.5133663442
 30
0.0
 10
8.6265284031
 20
3.5122206057
 30
0.0
 10
8.6281052643
 20
3.5116413763
 30
0.0
  0
SPLINE
  5
2C9
100
AcDbEntity
  8
0
100
AcDbSpline
 62
7
  6
CONTINUOUS
 70
0
 71
3
 72
15
 73
11
 74
0
 42
0.0000001
 43
0.0000001
 44
0.0000000001
 40
0.0
 40
0.0
 40
0.0
 40
0.0
 40
0.1316182459
 40
0.2612165218
 40
0.3884254779
 40
0.5130490205
 40
0.6352199111
 40
0.7556110996
 40
0.8758349516
 40
1.0
 40
1.0
 40
1.0
 40
1.0
 10
8.5465717761
 20
3.5116408188
 30
0.0
 10
8.5481486695
 20
3.5122201388
 30
0.0
 10
8.5512797601
 20
3.5133658393
 30
0.0
 10
8.5559537188
 20
3.5150197159
 30
0.0
 10
8.5605765055
 20
3.5165485545
 30
0.0
 10
8.565156614
 20
3.5178984255
 30
0.0
 10
8.569710343
 20
3.5190158118
 30
0.0
 10
8.5742677592
 20
3.5198531034
 30
0.0
 10
8.5788981444
 20
3.5203779217
 30
0.0
 10
8.5820172218
 20
3.5205046581
 30
0.0
 10
8.5836017877
 20
3.5205325318
 30
0.0
  0
SPLINE
  5
2CA
100
AcDbEntity
  8
0
100
AcDbSpline
 62
7
  6
CONTINUOUS
 70
0
 71
3
 72
15
 73
11
 74
0
 42
0.0000001
 43
0.0000001
 44
0.0000000001
 40
0.0
 40
0.0
 40
0.0
 40
0.0
 40
0.1241692081
 40
0.2443970075
 40
0.3647938332
 40
0.4869649889
 40
0.6115862387
 40
0.7387914728
 40
0.8683855905
 40
1.0
 40
1.0
 40
1.0
 40
1.0
 10
7.7123063712
 20
4.3918279483
 30
0.0
 10
7.7122785204
 20
4.3902446871
 30
0.0
 10
7.7121519504
 20
4.3871281807
 30
0.0
 10
7.7116279668
 20
4.3825015507
 30
0.0
 10
7.7107920227
 20
4.377947799
 30
0.0
 10
7.7096762757
 20
4.3733977575
 30
0.0
 10
7.7083282792
 20
4.3688214369
 30
0.0
 10
7.7068012981
 20
4.3642025656
 30
0.0
 10
7.7051493487
 20
4.3595325887
 30
0.0
 10
7.7040047071
 20
4.3564042609
 30
0.0
 10
7.7034259969
 20
4.3548287291
 30
0.0
  0
SPLINE
  5
2CB
100
AcDbEntity
  8
0
100
AcDbSpline
 62
7
  6
CONTINUOUS
 70
0
 71
3
 72
15
 73
11
 74
0
 42
0.0000001
 43
0.0000001
 44
0.0000000001
 40
0.0
 40
0.0
 40
0.0
 40
0.0
 40
0.1316138752
 40
0.2612069567
 40
0.3884110256
 40
0.5130313128
 40
0.6352018141
 40
0.7555961771
 40
0.8758268891
 40
1.0
 40
1.0
 40
1.0
 40
1.0
 10
7.7034255091
 20
4.4363033299
 30
0.0
 10
7.7040043084
 20
4.4347277751
 30
0.0
 10
7.7051488995
 20
4.4315993251
 30
0.0
 10
7.7068009907
 20
4.4269292502
 30
0.0
 10
7.708327984
 20
4.4223102445
 30
0.0
 10
7.709676075
 20
4.4177338138
 30
0.0
 10
7.7107918777
 20
4.4131836697
 30
0.0
 10
7.7116279231
 20
4.4086297732
 30
0.0
 10
7.7121519422
 20
4.4040029247
 30
0.0
 10
7.7122785186
 20
4.4008862215
 30
0.0
 10
7.7123063712
 20
4.3993028547
 30
0.0
  0
SPLINE
  5
2CC
100
AcDbEntity
  8
0
100
AcDbSpline
 62
7
  6
CONTINUOUS
 70
0
 71
3
 72
15
 73
11
 74
0
 42
0.0000001
 43
0.0000001
 44
0.0000000001
 40
0.0
 40
0.0
 40
0.0
 40
0.0
 40
0.124161196
 40
0.244382202
 40
0.3647758554
 40
0.4869474057
 40
0.6115718821
 40
0.738781966
 40
0.8683812483
 40
1.0
 40
1.0
 40
1.0
 40
1.0
 10
8.5836017877
 20
5.2705982712
 30
0.0
 10
8.582017335
 20
5.2706261429
 30
0.0
 10
8.5788984691
 20
5.2707528724
 30
0.0
 10
8.5742683246
 20
5.2712776494
 30
0.0
 10
8.5697110752
 20
5.2721148324
 30
0.0
 10
8.5651574716
 20
5.2732321529
 30
0.0
 10
8.5605774964
 20
5.2745819179
 30
0.0
 10
8.5559548678
 20
5.2761107323
 30
0.0
 10
8.5512810326
 20
5.2777644588
 30
0.0
 10
8.5481500787
 20
5.2789101973
 30
0.0
 10
8.5465732175
 20
5.2794894267
 30
0.0
  0
SPLINE
  5
2CD
100
AcDbEntity
  8
0
100
AcDbSpline
 62
7
  6
CONTINUOUS
 70
0
 71
3
 72
15
 73
11
 74
0
 42
0.0000001
 43
0.0000001
 44
0.0000000001
 40
0.0
 40
0.0
 40
0.0
 40
0.0
 40
0.1316182459
 40
0.2612165217
 40
0.3884254779
 40
0.5130490205
 40
0.6352199111
 40
0.7556110995
 40
0.8758349515
 40
1.0
 40
1.0
 40
1.0
 40
1.0
 10
8.6281067057
 20
5.2794899842
 30
0.0
 10
8.6265298123
 20
5.2789106642
 30
0.0
 10
8.6233987217
 20
5.2777649637
 30
0.0
 10
8.618724763
 20
5.2761110871
 30
0.0
 10
8.6141019763
 20
5.2745822485
 30
0.0
 10
8.6095218678
 20
5.2732323775
 30
0.0
 10
8.6049681388
 20
5.2721149912
 30
0.0
 10
8.6004107226
 20
5.2712776996
 30
0.0
 10
8.5957803374
 20
5.2707528813
 30
0.0
 10
8.59266126
 20
5.2706261449
 30
0.0
 10
8.5910766941
 20
5.2705982712
 30
0.0
  0
SPLINE
  5
2CE
100
AcDbEntity
  8
0
100
AcDbSpline
 62
7
  6
CONTINUOUS
 70
0
 71
3
 72
15
 73
11
 74
0
 42
0.0000001
 43
0.0000001
 44
0.0000000001
 40
0.0
 40
0.0
 40
0.0
 40
0.0
 40
0.1241692081
 40
0.2443970075
 40
0.3647938332
 40
0.4869649889
 40
0.6115862387
 40
0.7387914728
 40
0.8683855905
 40
1.0
 40
1.0
 40
1.0
 40
1.0
 10
9.4623721106
 20
4.3993028547
 30
0.0
 10
9.4623999614
 20
4.4008861159
 30
0.0
 10
9.4625265314
 20
4.4040026223
 30
0.0
 10
9.463050515
 20
4.4086292523
 30
0.0
 10
9.4638864591
 20
4.413183004
 30
0.0
 10
9.4650022061
 20
4.4177330455
 30
0.0
 10
9.4663502026
 20
4.4223093661
 30
0.0
 10
9.4678771837
 20
4.4269282374
 30
0.0
 10
9.4695291331
 20
4.4315982143
 30
0.0
 10
9.4706737747
 20
4.4347265421
 30
0.0
 10
9.4712524849
 20
4.4363020739
 30
0.0
  0
LINE
  5
2CF
100
AcDbEntity
  8
0
100
AcDbLine
 62
7
  6
CONTINUOUS
 10
9.2094797924
 20
5.0110513528
 11
9.2155184159
 21
5.0046781029
  0
SPLINE
  5
2D0
100
AcDbEntity
  8
0
100
AcDbSpline
 62
7
  6
CONTINUOUS
 70
0
 71
3
 72
33
 73
29
 74
0
 42
0.0000001
 43
0.0000001
 44
0.0000000001
 40
0.0
 40
0.0
 40
0.0
 40
0.0
 40
0.0312457672
 40
0.0625034809
 40
0.093757131
 40
0.1250074867
 40
0.1874835999
 40
0.2499600496
 40
0.2812124677
 40
0.3124647161
 40
0.3437165919
 40
0.3749684395
 40
0.4374459645
 40
0.4999316675
 40
0.5311934837
 40
0.562457929
 40
0.5937231257
 40
0.624988037
 40
0.6562515359
 40
0.6875127068
 40
0.7187715158
 40
0.7500280364
 40
0.8125064577
 40
0.874982428
 40
0.9062346332
 40
0.9374911816
 40
0.9687527792
 40
1.0
 40
1.0
 40
1.0
 40
1.0
 10
2.5490066802
 20
3.7716418286
 30
0.0
 10
2.536735349
 20
3.7728492621
 30
0.0
 10
2.5122534515
 20
3.7759938633
 30
0.0
 10
2.4758788746
 20
3.7828767566
 30
0.0
 10
2.4399741638
 20
3.7919139931
 30
0.0
 10
2.3929235345
 20
3.8067872816
 30
0.0
 10
2.3359013126
 20
3.8306133763
 30
0.0
 10
2.28214309
 20
3.8611025584
 30
0.0
 10
2.2415937029
 20
3.8892245391
 30
0.0
 10
2.2124995338
 20
3.9121200909
 30
0.0
 10
2.1848462298
 20
3.9367364812
 30
0.0
 10
2.1500439116
 20
3.9717211077
 30
0.0
 10
2.110626897
 20
4.019332292
 30
0.0
 10
2.0773125597
 20
4.071403502
 30
0.0
 10
2.0546487389
 20
4.1152526103
 30
0.0
 10
2.0397002485
 20
4.1491395339
 30
0.0
 10
2.0268674469
 20
4.1838830196
 30
0.0
 10
2.0162118477
 20
4.2193548913
 30
0.0
 10
2.0077727764
 20
4.2554168079
 30
0.0
 10
2.0015914183
 20
4.2919309589
 30
0.0
 10
1.9976973894
 20
4.3287579609
 30
0.0
 10
1.9955779443
 20
4.3780657667
 30
0.0
 10
1.9987262683
 20
4.4398038878
 30
0.0
 10
2.0096022289
 20
4.500658456
 30
0.0
 10
2.0228443033
 20
4.5481991146
 30
0.0
 10
2.0350188322
 20
4.5831717237
 30
0.0
 10
2.0493904244
 20
4.6172950648
 30
0.0
 10
2.0603988273
 20
4.6393926604
 30
0.0
 10
2.0662475878
 20
4.6502485166
 30
0.0
  0
SPLINE
  5
2D1
100
AcDbEntity
  8
0
100
AcDbSpline
 62
7
  6
CONTINUOUS
 70
0
 71
3
 72
39
 73
35
 74
0
 42
0.0000001
 43
0.0000001
 44
0.0000000001
 40
0.0
 40
0.0
 40
0.0
 40
0.0
 40
0.0312342528
 40
0.0624926902
 40
0.0937524063
 40
0.1250035806
 40
0.1562513185
 40
0.1875003002
 40
0.2187513037
 40
0.2500023642
 40
0.2812523882
 40
0.3125022338
 40
0.3437521481
 40
0.3750025883
 40
0.406253256
 40
0.437503545
 40
0.4687538474
 40
0.5000038658
 40
0.5312535914
 40
0.5625034235
 40
0.593753044
 40
0.6250027707
 40
0.6562525482
 40
0.6875020189
 40
0.7187518356
 40
0.7500020841
 40
0.7812526365
 40
0.812502577
 40
0.8437500978
 40
0.8749970464
 40
0.906248781
 40
0.9375088605
 40
0.9687660463
 40
1.0
 40
1.0
 40
1.0
 40
1.0
 10
2.3993947079
 20
4.9442701058
 30
0.0
 10
2.4108905559
 20
4.9487232316
 30
0.0
 10
2.434183415
 20
4.9568981513
 30
0.0
 10
2.4698300112
 20
4.9669172267
 30
0.0
 10
2.5060487857
 20
4.9746554206
 30
0.0
 10
2.5426808846
 20
4.9800784429
 30
0.0
 10
2.5795779368
 20
4.9831787283
 30
0.0
 10
2.6165969345
 20
4.9839437783
 30
0.0
 10
2.6535919572
 20
4.9823824082
 30
0.0
 10
2.6904169262
 20
4.9785062191
 30
0.0
 10
2.7269258264
 20
4.9723290484
 30
0.0
 10
2.7629782522
 20
4.9638890995
 30
0.0
 10
2.7984348635
 20
4.9532189526
 30
0.0
 10
2.8331599121
 20
4.9403659643
 30
0.0
 10
2.8670235373
 20
4.9253896043
 30
0.0
 10
2.8998944044
 20
4.9083445517
 30
0.0
 10
2.9316520712
 20
4.8893066749
 30
0.0
 10
2.9621789099
 20
4.8683522447
 30
0.0
 10
2.9913592064
 20
4.8455605825
 30
0.0
 10
3.0190914054
 20
4.821027919
 30
0.0
 10
3.0452715406
 20
4.7948453204
 30
0.0
 10
3.0698058306
 20
4.7671148854
 30
0.0
 10
3.0926112368
 20
4.7379461629
 30
0.0
 10
3.1136014139
 20
4.7074451478
 30
0.0
 10
3.1327080357
 20
4.6757302747
 30
0.0
 10
3.1498654865
 20
4.6429194164
 30
0.0
 10
3.1650102822
 20
4.6091324725
 30
0.0
 10
3.1780995517
 20
4.5744986744
 30
0.0
 10
3.1890869346
 20
4.5391432899
 30
0.0
 10
3.197936261
 20
4.5031925467
 30
0.0
 10
3.2046255999
 20
4.4667730874
 30
0.0
 10
3.2091275636
 20
4.4300147155
 30
0.0
 10
3.2114376029
 20
4.393062471
 30
0.0
 10
3.2115164258
 20
4.3683801287
 30
0.0
 10
3.2111894204
 20
4.3560563708
 30
0.0
  0
SPLINE
  5
2D2
100
AcDbEntity
  8
0
100
AcDbSpline
 62
7
  6
CONTINUOUS
 70
0
 71
3
 72
15
 73
11
 74
0
 42
0.0000001
 43
0.0000001
 44
0.0000000001
 40
0.0
 40
0.0
 40
0.0
 40
0.0
 40
0.1316138752
 40
0.2612069567
 40
0.3884110256
 40
0.5130313128
 40
0.6352018141
 40
0.7555961771
 40
0.8758268891
 40
1.0
 40
1.0
 40
1.0
 40
1.0
 10
3.4712529727
 20
4.3548274732
 30
0.0
 10
3.4706741734
 20
4.3564030279
 30
0.0
 10
3.4695295823
 20
4.3595314779
 30
0.0
 10
3.4678774911
 20
4.3642015528
 30
0.0
 10
3.4663504979
 20
4.3688205585
 30
0.0
 10
3.4650024068
 20
4.3733969892
 30
0.0
 10
3.4638866041
 20
4.3779471333
 30
0.0
 10
3.4630505587
 20
4.3825010298
 30
0.0
 10
3.4625265396
 20
4.3871278783
 30
0.0
 10
3.4623999632
 20
4.3902445815
 30
0.0
 10
3.4623721106
 20
4.3918279483
 30
0.0
  0
SPLINE
  5
2D3
100
AcDbEntity
  8
0
100
AcDbSpline
 62
7
  6
CONTINUOUS
 70
0
 71
3
 72
15
 73
11
 74
0
 42
0.0000001
 43
0.0000001
 44
0.0000000001
 40
0.0
 40
0.0
 40
0.0
 40
0.0
 40
0.124161196
 40
0.2443822019
 40
0.3647758554
 40
0.4869474057
 40
0.611571882
 40
0.7387819659
 40
0.8683812483
 40
1.0
 40
1.0
 40
1.0
 40
1.0
 10
2.5910766941
 20
3.5205325318
 30
0.0
 10
2.5926611468
 20
3.5205046601
 30
0.0
 10
2.5957800127
 20
3.5203779306
 30
0.0
 10
2.6004101572
 20
3.5198531536
 30
0.0
 10
2.6049674066
 20
3.5190159706
 30
0.0
 10
2.6095210102
 20
3.5178986502
 30
0.0
 10
2.6141009854
 20
3.5165488851
 30
0.0
 10
2.618723614
 20
3.5150200707
 30
0.0
 10
2.6233974492
 20
3.5133663442
 30
0.0
 10
2.6265284031
 20
3.5122206057
 30
0.0
 10
2.6281052643
 20
3.5116413763
 30
0.0
  0
SPLINE
  5
2D4
100
AcDbEntity
  8
0
100
AcDbSpline
 62
7
  6
CONTINUOUS
 70
0
 71
3
 72
15
 73
11
 74
0
 42
0.0000001
 43
0.0000001
 44
0.0000000001
 40
0.0
 40
0.0
 40
0.0
 40
0.0
 40
0.1316182459
 40
0.2612165218
 40
0.3884254779
 40
0.5130490205
 40
0.6352199111
 40
0.7556110996
 40
0.8758349516
 40
1.0
 40
1.0
 40
1.0
 40
1.0
 10
2.5465717761
 20
3.5116408188
 30
0.0
 10
2.5481486695
 20
3.5122201388
 30
0.0
 10
2.5512797601
 20
3.5133658393
 30
0.0
 10
2.5559537188
 20
3.5150197159
 30
0.0
 10
2.5605765055
 20
3.5165485545
 30
0.0
 10
2.565156614
 20
3.5178984255
 30
0.0
 10
2.569710343
 20
3.5190158118
 30
0.0
 10
2.5742677592
 20
3.5198531034
 30
0.0
 10
2.5788981444
 20
3.5203779217
 30
0.0
 10
2.5820172218
 20
3.5205046581
 30
0.0
 10
2.5836017877
 20
3.5205325318
 30
0.0
  0
SPLINE
  5
2D5
100
AcDbEntity
  8
0
100
AcDbSpline
 62
7
  6
CONTINUOUS
 70
0
 71
3
 72
15
 73
11
 74
0
 42
0.0000001
 43
0.0000001
 44
0.0000000001
 40
0.0
 40
0.0
 40
0.0
 40
0.0
 40
0.1241692081
 40
0.2443970075
 40
0.3647938332
 40
0.4869649889
 40
0.6115862387
 40
0.7387914728
 40
0.8683855905
 40
1.0
 40
1.0
 40
1.0
 40
1.0
 10
1.7123063712
 20
4.3918279483
 30
0.0
 10
1.7122785204
 20
4.3902446871
 30
0.0
 10
1.7121519504
 20
4.3871281807
 30
0.0
 10
1.7116279668
 20
4.3825015507
 30
0.0
 10
1.7107920227
 20
4.377947799
 30
0.0
 10
1.7096762757
 20
4.3733977575
 30
0.0
 10
1.7083282792
 20
4.3688214369
 30
0.0
 10
1.7068012981
 20
4.3642025656
 30
0.0
 10
1.7051493487
 20
4.3595325887
 30
0.0
 10
1.7040047071
 20
4.3564042609
 30
0.0
 10
1.7034259969
 20
4.3548287291
 30
0.0
  0
SPLINE
  5
2D6
100
AcDbEntity
  8
0
100
AcDbSpline
 62
7
  6
CONTINUOUS
 70
0
 71
3
 72
15
 73
11
 74
0
 42
0.0000001
 43
0.0000001
 44
0.0000000001
 40
0.0
 40
0.0
 40
0.0
 40
0.0
 40
0.1316138752
 40
0.2612069567
 40
0.3884110256
 40
0.5130313128
 40
0.6352018141
 40
0.7555961771
 40
0.8758268891
 40
1.0
 40
1.0
 40
1.0
 40
1.0
 10
1.7034255091
 20
4.4363033299
 30
0.0
 10
1.7040043084
 20
4.4347277751
 30
0.0
 10
1.7051488995
 20
4.4315993251
 30
0.0
 10
1.7068009907
 20
4.4269292502
 30
0.0
 10
1.708327984
 20
4.4223102445
 30
0.0
 10
1.709676075
 20
4.4177338138
 30
0.0
 10
1.7107918777
 20
4.4131836697
 30
0.0
 10
1.7116279231
 20
4.4086297732
 30
0.0
 10
1.7121519422
 20
4.4040029247
 30
0.0
 10
1.7122785186
 20
4.4008862215
 30
0.0
 10
1.7123063712
 20
4.3993028547
 30
0.0
  0
SPLINE
  5
2D7
100
AcDbEntity
  8
0
100
AcDbSpline
 62
7
  6
CONTINUOUS
 70
0
 71
3
 72
15
 73
11
 74
0
 42
0.0000001
 43
0.0000001
 44
0.0000000001
 40
0.0
 40
0.0
 40
0.0
 40
0.0
 40
0.124161196
 40
0.244382202
 40
0.3647758554
 40
0.4869474057
 40
0.6115718821
 40
0.738781966
 40
0.8683812483
 40
1.0
 40
1.0
 40
1.0
 40
1.0
 10
2.5836017877
 20
5.2705982712
 30
0.0
 10
2.582017335
 20
5.2706261429
 30
0.0
 10
2.5788984691
 20
5.2707528724
 30
0.0
 10
2.5742683246
 20
5.2712776494
 30
0.0
 10
2.5697110752
 20
5.2721148324
 30
0.0
 10
2.5651574716
 20
5.2732321529
 30
0.0
 10
2.5605774964
 20
5.2745819179
 30
0.0
 10
2.5559548678
 20
5.2761107323
 30
0.0
 10
2.5512810326
 20
5.2777644588
 30
0.0
 10
2.5481500787
 20
5.2789101973
 30
0.0
 10
2.5465732175
 20
5.2794894267
 30
0.0
  0
SPLINE
  5
2D8
100
AcDbEntity
  8
0
100
AcDbSpline
 62
7
  6
CONTINUOUS
 70
0
 71
3
 72
15
 73
11
 74
0
 42
0.0000001
 43
0.0000001
 44
0.0000000001
 40
0.0
 40
0.0
 40
0.0
 40
0.0
 40
0.1316182459
 40
0.2612165217
 40
0.3884254779
 40
0.5130490205
 40
0.6352199111
 40
0.7556110995
 40
0.8758349515
 40
1.0
 40
1.0
 40
1.0
 40
1.0
 10
2.6281067057
 20
5.2794899842
 30
0.0
 10
2.6265298123
 20
5.2789106642
 30
0.0
 10
2.6233987217
 20
5.2777649637
 30
0.0
 10
2.618724763
 20
5.2761110871
 30
0.0
 10
2.6141019763
 20
5.2745822485
 30
0.0
 10
2.6095218678
 20
5.2732323775
 30
0.0
 10
2.6049681388
 20
5.2721149912
 30
0.0
 10
2.6004107226
 20
5.2712776996
 30
0.0
 10
2.5957803374
 20
5.2707528813
 30
0.0
 10
2.59266126
 20
5.2706261449
 30
0.0
 10
2.5910766941
 20
5.2705982712
 30
0.0
  0
SPLINE
  5
2D9
100
AcDbEntity
  8
0
100
AcDbSpline
 62
7
  6
CONTINUOUS
 70
0
 71
3
 72
15
 73
11
 74
0
 42
0.0000001
 43
0.0000001
 44
0.0000000001
 40
0.0
 40
0.0
 40
0.0
 40
0.0
 40
0.1241692081
 40
0.2443970075
 40
0.3647938332
 40
0.4869649889
 40
0.6115862387
 40
0.7387914728
 40
0.8683855905
 40
1.0
 40
1.0
 40
1.0
 40
1.0
 10
3.4623721106
 20
4.3993028547
 30
0.0
 10
3.4623999614
 20
4.4008861159
 30
0.0
 10
3.4625265314
 20
4.4040026223
 30
0.0
 10
3.463050515
 20
4.4086292523
 30
0.0
 10
3.4638864591
 20
4.413183004
 30
0.0
 10
3.4650022061
 20
4.4177330455
 30
0.0
 10
3.4663502026
 20
4.4223093661
 30
0.0
 10
3.4678771837
 20
4.4269282374
 30
0.0
 10
3.4695291331
 20
4.4315982143
 30
0.0
 10
3.4706737747
 20
4.4347265421
 30
0.0
 10
3.4712524849
 20
4.4363020739
 30
0.0
  0
LINE
  5
2DA
100
AcDbEntity
  8
0
100
AcDbLine
 62
7
  6
CONTINUOUS
 10
3.2094797924
 20
5.0110513528
 11
3.2155184159
 21
5.0046781029
  0
SPLINE
  5
2DB
100
AcDbEntity
  8
0
100
AcDbSpline
 62
7
  6
CONTINUOUS
 70
0
 71
3
 72
45
 73
41
 74
0
 42
0.0000001
 43
0.0000001
 44
0.0000000001
 40
0.0
 40
0.0
 40
0.0
 40
0.0
 40
0.0093468817
 40
0.018702091
 40
0.0281384072
 40
0.0377282882
 40
0.0475423959
 40
0.0576483833
 40
0.0789671577
 40
0.0903053224
 40
0.1021520416
 40
0.1275066784
 40
0.1552427437
 40
0.1854576512
 40
0.2181630118
 40
0.2532560488
 40
0.2905827567
 40
0.3298915761
 40
0.3708760643
 40
0.4131744999
 40
0.4999992062
 40
0.5868241975
 40
0.6291228849
 40
0.6701074004
 40
0.7094161891
 40
0.7467428237
 40
0.7818360631
 40
0.8145416738
 40
0.8447566142
 40
0.8724926509
 40
0.8978471774
 40
0.9096939087
 40
0.9210321404
 40
0.9423511296
 40
0.9524572398
 40
0.9622714655
 40
0.9718614488
 40
0.9812978435
 40
0.9906531019
 40
1.0
 40
1.0
 40
1.0
 40
1.0
 10
8.4858392409
 20
3.1113175657
 30
0.0
 10
8.4858392409
 20
3.1120599908
 30
0.0
 10
8.4859119148
 20
3.1135465688
 30
0.0
 10
8.4862419228
 20
3.1157606364
 30
0.0
 10
8.486793398
 20
3.1179502693
 30
0.0
 10
8.4875668714
 20
3.1201102149
 30
0.0
 10
8.488562853
 20
3.1222358892
 30
0.0
 10
8.4902170188
 20
3.1250674133
 30
0.0
 10
8.4923083128
 20
3.1277659152
 30
0.0
 10
8.4947658088
 20
3.1303093089
 30
0.0
 10
8.4976305092
 20
3.1328940635
 30
0.0
 10
8.5017871077
 20
3.1359699863
 30
0.0
 10
8.5075008216
 20
3.1393267838
 30
0.0
 10
8.5140192067
 20
3.1424064568
 30
0.0
 10
8.5212993938
 20
3.1451830516
 30
0.0
 10
8.5292852358
 20
3.1476404952
 30
0.0
 10
8.5379090606
 20
3.149754032
 30
0.0
 10
8.5470889293
 20
3.1515097388
 30
0.0
 10
8.5567313194
 20
3.1528911767
 30
0.0
 10
8.5701800808
 20
3.154228875
 30
0.0
 10
8.5873390722
 20
3.1548840299
 30
0.0
 10
8.6044980833
 20
3.154228887
 30
0.0
 10
8.6179468922
 20
3.1528912116
 30
0.0
 10
8.6275893027
 20
3.1515097779
 30
0.0
 10
8.6367691711
 20
3.1497541012
 30
0.0
 10
8.6453930019
 20
3.1476405546
 30
0.0
 10
8.6533788749
 20
3.1451831121
 30
0.0
 10
8.6606591093
 20
3.1424065318
 30
0.0
 10
8.6671775155
 20
3.1393268574
 30
0.0
 10
8.6728912416
 20
3.1359700965
 30
0.0
 10
8.6770478301
 20
3.1328941766
 30
0.0
 10
8.6799125362
 20
3.1303094325
 30
0.0
 10
8.6823700627
 20
3.1277660363
 30
0.0
 10
8.6844613971
 20
3.1250675233
 30
0.0
 10
8.6861155782
 20
3.1222359659
 30
0.0
 10
8.6871115729
 20
3.1201102678
 30
0.0
 10
8.68788506
 20
3.1179503019
 30
0.0
 10
8.6884365474
 20
3.1157606532
 30
0.0
 10
8.6887665643
 20
3.1135465753
 30
0.0
 10
8.6888392409
 20
3.1120599921
 30
0.0
 10
8.6888392409
 20
3.1113175657
 30
0.0
  0
LINE
  5
2DC
100
AcDbEntity
  8
0
100
AcDbLine
 62
7
  6
CONTINUOUS
 10
10.0579557014
 20
2.970844842
 11
10.0873392409
 21
2.9555663385
  0
SPLINE
  5
2DD
100
AcDbEntity
  8
0
100
AcDbSpline
 62
7
  6
CONTINUOUS
 70
0
 71
3
 72
38
 73
34
 74
0
 42
0.0000001
 43
0.0000001
 44
0.0000000001
 40
0.0
 40
0.0
 40
0.0
 40
0.0
 40
0.0185955248
 40
0.0380615593
 40
0.0588224939
 40
0.0812049683
 40
0.1054484051
 40
0.1317187178
 40
0.1601009515
 40
0.1906356037
 40
0.2233196102
 40
0.258082642
 40
0.2948350506
 40
0.3333961046
 40
0.4149196205
 40
0.4572252394
 40
0.4999987221
 40
0.5427738133
 40
0.5850786936
 40
0.6264987924
 40
0.6666415457
 40
0.7051961048
 40
0.7419447799
 40
0.7767033597
 40
0.8093821209
 40
0.8399145435
 40
0.8682933915
 40
0.8945614023
 40
0.9188027316
 40
0.9411824357
 40
0.9619407846
 40
0.9814050797
 40
1.0
 40
1.0
 40
1.0
 40
1.0
 10
8.6888392409
 20
3.1113175657
 30
0.0
 10
8.6888392409
 20
3.1097814813
 30
0.0
 10
8.6885187194
 20
3.1066303411
 30
0.0
 10
8.6871354284
 20
3.101947882
 30
0.0
 10
8.6848667466
 20
3.0972770244
 30
0.0
 10
8.6817335577
 20
3.0926562767
 30
0.0
 10
8.6777545749
 20
3.0881188741
 30
0.0
 10
8.6729478917
 20
3.0837015054
 30
0.0
 10
8.6673311326
 20
3.0794467733
 30
0.0
 10
8.6609251206
 20
3.0754040136
 30
0.0
 10
8.6537587196
 20
3.0716258989
 30
0.0
 10
8.6458684533
 20
3.0681687758
 30
0.0
 10
8.6373028256
 20
3.0650964494
 30
0.0
 10
8.6248419541
 20
3.0615245035
 30
0.0
 10
8.6116081274
 20
3.0590881868
 30
0.0
 10
8.5978981138
 20
3.0578238492
 30
0.0
 10
8.5873343459
 20
3.0575060619
 30
0.0
 10
8.5767714462
 20
3.0578249723
 30
0.0
 10
8.5663593088
 20
3.0587843261
 30
0.0
 10
8.55624071
 20
3.0603468574
 30
0.0
 10
8.5465410849
 20
3.0624683067
 30
0.0
 10
8.5373678088
 20
3.0650989696
 30
0.0
 10
8.5288038623
 20
3.068171379
 30
0.0
 10
8.5209146123
 20
3.0716282632
 30
0.0
 10
8.5137493689
 20
3.0754064219
 30
0.0
 10
8.5073442566
 20
3.0794489194
 30
0.0
 10
8.5017281611
 20
3.0837034525
 30
0.0
 10
8.4969222576
 20
3.0881207186
 30
0.0
 10
8.4929438636
 20
3.0926578372
 30
0.0
 10
8.4898111136
 20
3.0972781289
 30
0.0
 10
8.4875427228
 20
3.1019484755
 30
0.0
 10
8.4861596722
 20
3.1066305837
 30
0.0
 10
8.4858392409
 20
3.1097815312
 30
0.0
 10
8.4858392409
 20
3.1113175657
 30
0.0
  0
SPLINE
  5
2DE
100
AcDbEntity
  8
0
100
AcDbSpline
 62
7
  6
CONTINUOUS
 70
0
 71
3
 72
19
 73
15
 74
0
 42
0.0000001
 43
0.0000001
 44
0.0000000001
 40
0.0
 40
0.0
 40
0.0
 40
0.0
 40
0.1221667747
 40
0.1842794256
 40
0.2468496291
 40
0.309793454
 40
0.373039683
 40
0.5000002485
 40
0.6269607971
 40
0.6902070152
 40
0.7531508178
 40
0.8157209568
 40
0.8778334766
 40
1.0
 40
1.0
 40
1.0
 40
1.0
 10
9.8230132971
 20
5.574901667
 30
0.0
 10
9.8226036663
 20
5.5783628162
 30
0.0
 10
9.821509842
 20
5.5835406831
 30
0.0
 10
9.819197267
 20
5.5901980572
 30
0.0
 10
9.817017799
 20
5.5950946134
 30
0.0
 10
9.8144247985
 20
5.5998213506
 30
0.0
 10
9.8104434992
 20
5.6058552296
 30
0.0
 10
9.8045497457
 20
5.612775912
 30
0.0
 10
9.7976290712
 20
5.6186696753
 30
0.0
 10
9.7915951931
 20
5.6226509736
 30
0.0
 10
9.7868684603
 20
5.625243976
 30
0.0
 10
9.781971916
 20
5.6274234544
 30
0.0
 10
9.7753145666
 20
5.6297360599
 30
0.0
 10
9.770136714
 20
5.6308299073
 30
0.0
 10
9.7666755721
 20
5.6312395394
 30
0.0
  0
SPLINE
  5
2DF
100
AcDbEntity
  8
0
100
AcDbSpline
 62
7
  6
CONTINUOUS
 70
0
 71
3
 72
15
 73
11
 74
0
 42
0.0000001
 43
0.0000001
 44
0.0000000001
 40
0.0
 40
0.0
 40
0.0
 40
0.0
 40
0.1197795326
 40
0.2441004773
 40
0.3713270977
 40
0.5000000002
 40
0.6286729027
 40
0.7558995229
 40
0.8802204674
 40
1.0
 40
1.0
 40
1.0
 40
1.0
 10
10.0579557014
 20
5.8202859609
 30
0.0
 10
10.0569390947
 20
5.8227363269
 30
0.0
 10
10.054581692
 20
5.8276149937
 30
0.0
 10
10.0502707391
 20
5.8346333099
 30
0.0
 10
10.0451842366
 20
5.8413606747
 30
0.0
 10
10.0394356969
 20
5.8476618575
 30
0.0
 10
10.0331345141
 20
5.8534103972
 30
0.0
 10
10.0264071493
 20
5.8584968998
 30
0.0
 10
10.0193888332
 20
5.8628078527
 30
0.0
 10
10.0145101664
 20
5.8651652554
 30
0.0
 10
10.0120598004
 20
5.866181862
 30
0.0
  0
SPLINE
  5
2E0
100
AcDbEntity
  8
0
100
AcDbSpline
 62
7
  6
CONTINUOUS
 70
0
 71
3
 72
15
 73
11
 74
0
 42
0.0000001
 43
0.0000001
 44
0.0000000001
 40
0.0
 40
0.0
 40
0.0
 40
0.0
 40
0.1197795836
 40
0.2441005457
 40
0.3713271555
 40
0.5000000308
 40
0.6286729021
 40
0.7558994973
 40
0.8802204358
 40
1.0
 40
1.0
 40
1.0
 40
1.0
 10
10.0579557013
 20
2.9708448421
 30
0.0
 10
10.056939099
 20
2.9683944723
 30
0.0
 10
10.054581704
 20
2.9635157985
 30
0.0
 10
10.0502707586
 20
2.9564974736
 30
0.0
 10
10.0451842596
 20
2.9497701039
 30
0.0
 10
10.0394357202
 20
2.9434689199
 30
0.0
 10
10.0331345349
 20
2.9377203823
 30
0.0
 10
10.0264071652
 20
2.9326338848
 30
0.0
 10
10.0193888419
 20
2.9283229395
 30
0.0
 10
10.0145101694
 20
2.9259655439
 30
0.0
 10
10.0120598004
 20
2.924948941
 30
0.0
  0
SPLINE
  5
2E1
100
AcDbEntity
  8
0
100
AcDbSpline
 62
7
  6
CONTINUOUS
 70
0
 71
3
 72
19
 73
15
 74
0
 42
0.0000001
 43
0.0000001
 44
0.0000000001
 40
0.0
 40
0.0
 40
0.0
 40
0.0
 40
0.1221674127
 40
0.1842802739
 40
0.2468503924
 40
0.3097939239
 40
0.3730397783
 40
0.4999996047
 40
0.626959434
 40
0.6902052765
 40
0.7531488172
 40
0.8157190336
 40
0.8778321295
 40
1.0
 40
1.0
 40
1.0
 40
1.0
 10
9.766676111
 20
3.1598908537
 30
0.0
 10
9.770137296
 20
3.1603004597
 30
0.0
 10
9.7753152255
 20
3.1613941888
 30
0.0
 10
9.7819726955
 20
3.1637066485
 30
0.0
 10
9.7868692932
 20
3.1658860688
 30
0.0
 10
9.7915960411
 20
3.1684790534
 30
0.0
 10
9.7976299084
 20
3.1724603528
 30
0.0
 10
9.8045505652
 20
3.178354112
 30
0.0
 10
9.8104443324
 20
3.1852747599
 30
0.0
 10
9.8144256542
 20
3.1913086124
 30
0.0
 10
9.8170186505
 20
3.1960353574
 30
0.0
 10
9.8191980668
 20
3.2009319684
 30
0.0
 10
9.8215104905
 20
3.2075894758
 30
0.0
 10
9.8226041896
 20
3.2127674292
 30
0.0
 10
9.8230137973
 20
3.2162286272
 30
0.0
  0
SPLINE
  5
2E2
100
AcDbEntity
  8
0
100
AcDbSpline
 62
7
  6
CONTINUOUS
 70
0
 71
3
 72
19
 73
15
 74
0
 42
0.0000001
 43
0.0000001
 44
0.0000000001
 40
0.0
 40
0.0
 40
0.0
 40
0.0
 40
0.1221667747
 40
0.1842794256
 40
0.2468496291
 40
0.309793454
 40
0.373039683
 40
0.5000002485
 40
0.6269607971
 40
0.6902070152
 40
0.7531508178
 40
0.8157209568
 40
0.8778334766
 40
1.0
 40
1.0
 40
1.0
 40
1.0
 10
7.4080029754
 20
5.6312394577
 30
0.0
 10
7.4045418262
 20
5.6308298269
 30
0.0
 10
7.3993639594
 20
5.6297360026
 30
0.0
 10
7.3927065852
 20
5.6274234276
 30
0.0
 10
7.387810029
 20
5.6252439596
 30
0.0
 10
7.3830832918
 20
5.6226509591
 30
0.0
 10
7.3770494128
 20
5.6186696598
 30
0.0
 10
7.3701287304
 20
5.6127759063
 30
0.0
 10
7.3642349671
 20
5.6058552318
 30
0.0
 10
7.3602536688
 20
5.5998213537
 30
0.0
 10
7.3576606664
 20
5.595094621
 30
0.0
 10
7.3554811881
 20
5.5901980766
 30
0.0
 10
7.3531685825
 20
5.5835407272
 30
0.0
 10
7.3520747351
 20
5.5783628746
 30
0.0
 10
7.3516651031
 20
5.5749017327
 30
0.0
  0
SPLINE
  5
2E3
100
AcDbEntity
  8
0
100
AcDbSpline
 62
7
  6
CONTINUOUS
 70
0
 71
3
 72
15
 73
11
 74
0
 42
0.0000001
 43
0.0000001
 44
0.0000000001
 40
0.0
 40
0.0
 40
0.0
 40
0.0
 40
0.1197795326
 40
0.2441004773
 40
0.3713270977
 40
0.5000000002
 40
0.6286729027
 40
0.7558995229
 40
0.8802204674
 40
1.0
 40
1.0
 40
1.0
 40
1.0
 10
7.1626186815
 20
5.866181862
 30
0.0
 10
7.1601683155
 20
5.8651652553
 30
0.0
 10
7.1552896487
 20
5.8628078526
 30
0.0
 10
7.1482713326
 20
5.8584968997
 30
0.0
 10
7.1415439677
 20
5.8534103972
 30
0.0
 10
7.1352427849
 20
5.8476618575
 30
0.0
 10
7.1294942452
 20
5.8413606747
 30
0.0
 10
7.1244077427
 20
5.8346333099
 30
0.0
 10
7.1200967897
 20
5.8276149938
 30
0.0
 10
7.117739387
 20
5.822736327
 30
0.0
 10
7.1167227804
 20
5.820285961
 30
0.0
  0
SPLINE
  5
2E4
100
AcDbEntity
  8
0
100
AcDbSpline
 62
7
  6
CONTINUOUS
 70
0
 71
3
 72
19
 73
15
 74
0
 42
0.0000001
 43
0.0000001
 44
0.0000000001
 40
0.0
 40
0.0
 40
0.0
 40
0.0
 40
0.1221667747
 40
0.1842794256
 40
0.2468496291
 40
0.309793454
 40
0.373039683
 40
0.5000002485
 40
0.6269607971
 40
0.6902070152
 40
0.7531508178
 40
0.8157209568
 40
0.8778334766
 40
1.0
 40
1.0
 40
1.0
 40
1.0
 10
7.3516651847
 20
3.216229136
 30
0.0
 10
7.3520748155
 20
3.2127679868
 30
0.0
 10
7.3531686398
 20
3.20759012
 30
0.0
 10
7.3554812148
 20
3.2009327458
 30
0.0
 10
7.3576606828
 20
3.1960361896
 30
0.0
 10
7.3602536833
 20
3.1913094524
 30
0.0
 10
7.3642349826
 20
3.1852755734
 30
0.0
 10
7.3701287361
 20
3.1783548911
 30
0.0
 10
7.3770494106
 20
3.1724611277
 30
0.0
 10
7.3830832887
 20
3.1684798294
 30
0.0
 10
7.3878100215
 20
3.165886827
 30
0.0
 10
7.3927065658
 20
3.1637073487
 30
0.0
 10
7.3993639152
 20
3.1613947431
 30
0.0
 10
7.4045417678
 20
3.1603008957
 30
0.0
 10
7.4080029097
 20
3.1598912637
 30
0.0
  0
SPLINE
  5
2E5
100
AcDbEntity
  8
0
100
AcDbSpline
 62
7
  6
CONTINUOUS
 70
0
 71
3
 72
15
 73
11
 74
0
 42
0.0000001
 43
0.0000001
 44
0.0000000001
 40
0.0
 40
0.0
 40
0.0
 40
0.0
 40
0.1197795326
 40
0.2441004773
 40
0.3713270977
 40
0.5000000002
 40
0.6286729027
 40
0.7558995229
 40
0.8802204674
 40
1.0
 40
1.0
 40
1.0
 40
1.0
 10
7.1167227804
 20
2.9708448421
 30
0.0
 10
7.1177393871
 20
2.9683944761
 30
0.0
 10
7.1200967898
 20
2.9635158093
 30
0.0
 10
7.1244077427
 20
2.9564974932
 30
0.0
 10
7.1294942452
 20
2.9497701283
 30
0.0
 10
7.1352427849
 20
2.9434689455
 30
0.0
 10
7.1415439677
 20
2.9377204058
 30
0.0
 10
7.1482713325
 20
2.9326339033
 30
0.0
 10
7.1552896486
 20
2.9283229503
 30
0.0
 10
7.1601683154
 20
2.9259655476
 30
0.0
 10
7.1626186814
 20
2.924948941
 30
0.0
  0
SPLINE
  5
2E6
100
AcDbEntity
  8
0
100
AcDbSpline
 62
7
  6
CONTINUOUS
 70
0
 71
3
 72
45
 73
41
 74
0
 42
0.0000001
 43
0.0000001
 44
0.0000000001
 40
0.0
 40
0.0
 40
0.0
 40
0.0
 40
0.0093468817
 40
0.018702091
 40
0.0281384072
 40
0.0377282882
 40
0.0475423959
 40
0.0576483833
 40
0.0789671577
 40
0.0903053224
 40
0.1021520416
 40
0.1275066784
 40
0.1552427437
 40
0.1854576512
 40
0.2181630118
 40
0.2532560488
 40
0.2905827567
 40
0.3298915761
 40
0.3708760643
 40
0.4131744999
 40
0.4999992062
 40
0.5868241975
 40
0.6291228849
 40
0.6701074004
 40
0.7094161891
 40
0.7467428237
 40
0.7818360631
 40
0.8145416738
 40
0.8447566142
 40
0.8724926509
 40
0.8978471774
 40
0.9096939087
 40
0.9210321404
 40
0.9423511296
 40
0.9524572398
 40
0.9622714655
 40
0.9718614488
 40
0.9812978435
 40
0.9906531019
 40
1.0
 40
1.0
 40
1.0
 40
1.0
 10
2.4858392409
 20
3.1113175657
 30
0.0
 10
2.4858392409
 20
3.1120599908
 30
0.0
 10
2.4859119148
 20
3.1135465688
 30
0.0
 10
2.4862419228
 20
3.1157606364
 30
0.0
 10
2.486793398
 20
3.1179502693
 30
0.0
 10
2.4875668714
 20
3.1201102149
 30
0.0
 10
2.488562853
 20
3.1222358892
 30
0.0
 10
2.4902170188
 20
3.1250674133
 30
0.0
 10
2.4923083128
 20
3.1277659152
 30
0.0
 10
2.4947658088
 20
3.1303093089
 30
0.0
 10
2.4976305092
 20
3.1328940635
 30
0.0
 10
2.5017871077
 20
3.1359699863
 30
0.0
 10
2.5075008216
 20
3.1393267838
 30
0.0
 10
2.5140192067
 20
3.1424064568
 30
0.0
 10
2.5212993938
 20
3.1451830516
 30
0.0
 10
2.5292852358
 20
3.1476404952
 30
0.0
 10
2.5379090606
 20
3.149754032
 30
0.0
 10
2.5470889293
 20
3.1515097388
 30
0.0
 10
2.5567313194
 20
3.1528911767
 30
0.0
 10
2.5701800808
 20
3.154228875
 30
0.0
 10
2.5873390722
 20
3.1548840299
 30
0.0
 10
2.6044980833
 20
3.154228887
 30
0.0
 10
2.6179468922
 20
3.1528912116
 30
0.0
 10
2.6275893027
 20
3.1515097779
 30
0.0
 10
2.6367691711
 20
3.1497541012
 30
0.0
 10
2.6453930019
 20
3.1476405546
 30
0.0
 10
2.6533788749
 20
3.1451831121
 30
0.0
 10
2.6606591093
 20
3.1424065318
 30
0.0
 10
2.6671775155
 20
3.1393268574
 30
0.0
 10
2.6728912416
 20
3.1359700965
 30
0.0
 10
2.6770478301
 20
3.1328941766
 30
0.0
 10
2.6799125362
 20
3.1303094325
 30
0.0
 10
2.6823700627
 20
3.1277660363
 30
0.0
 10
2.6844613971
 20
3.1250675233
 30
0.0
 10
2.6861155782
 20
3.1222359659
 30
0.0
 10
2.6871115729
 20
3.1201102678
 30
0.0
 10
2.68788506
 20
3.1179503019
 30
0.0
 10
2.6884365474
 20
3.1157606532
 30
0.0
 10
2.6887665643
 20
3.1135465753
 30
0.0
 10
2.6888392409
 20
3.1120599921
 30
0.0
 10
2.6888392409
 20
3.1113175657
 30
0.0
  0
LINE
  5
2E7
100
AcDbEntity
  8
0
100
AcDbLine
 62
7
  6
CONTINUOUS
 10
4.0579557014
 20
2.970844842
 11
4.0873392409
 21
2.9555663385
  0
SPLINE
  5
2E8
100
AcDbEntity
  8
0
100
AcDbSpline
 62
7
  6
CONTINUOUS
 70
0
 71
3
 72
38
 73
34
 74
0
 42
0.0000001
 43
0.0000001
 44
0.0000000001
 40
0.0
 40
0.0
 40
0.0
 40
0.0
 40
0.0185955248
 40
0.0380615593
 40
0.0588224939
 40
0.0812049683
 40
0.1054484051
 40
0.1317187178
 40
0.1601009515
 40
0.1906356037
 40
0.2233196102
 40
0.258082642
 40
0.2948350506
 40
0.3333961046
 40
0.4149196205
 40
0.4572252394
 40
0.4999987221
 40
0.5427738133
 40
0.5850786936
 40
0.6264987924
 40
0.6666415457
 40
0.7051961048
 40
0.7419447799
 40
0.7767033597
 40
0.8093821209
 40
0.8399145435
 40
0.8682933915
 40
0.8945614023
 40
0.9188027316
 40
0.9411824357
 40
0.9619407846
 40
0.9814050797
 40
1.0
 40
1.0
 40
1.0
 40
1.0
 10
2.6888392409
 20
3.1113175657
 30
0.0
 10
2.6888392409
 20
3.1097814813
 30
0.0
 10
2.6885187194
 20
3.1066303411
 30
0.0
 10
2.6871354284
 20
3.101947882
 30
0.0
 10
2.6848667466
 20
3.0972770244
 30
0.0
 10
2.6817335577
 20
3.0926562767
 30
0.0
 10
2.6777545749
 20
3.0881188741
 30
0.0
 10
2.6729478917
 20
3.0837015054
 30
0.0
 10
2.6673311326
 20
3.0794467733
 30
0.0
 10
2.6609251206
 20
3.0754040136
 30
0.0
 10
2.6537587196
 20
3.0716258989
 30
0.0
 10
2.6458684533
 20
3.0681687758
 30
0.0
 10
2.6373028256
 20
3.0650964494
 30
0.0
 10
2.6248419541
 20
3.0615245035
 30
0.0
 10
2.6116081274
 20
3.0590881868
 30
0.0
 10
2.5978981138
 20
3.0578238492
 30
0.0
 10
2.5873343459
 20
3.0575060619
 30
0.0
 10
2.5767714462
 20
3.0578249723
 30
0.0
 10
2.5663593088
 20
3.0587843261
 30
0.0
 10
2.55624071
 20
3.0603468574
 30
0.0
 10
2.5465410849
 20
3.0624683067
 30
0.0
 10
2.5373678088
 20
3.0650989696
 30
0.0
 10
2.5288038623
 20
3.068171379
 30
0.0
 10
2.5209146123
 20
3.0716282632
 30
0.0
 10
2.5137493689
 20
3.0754064219
 30
0.0
 10
2.5073442566
 20
3.0794489194
 30
0.0
 10
2.5017281611
 20
3.0837034525
 30
0.0
 10
2.4969222576
 20
3.0881207186
 30
0.0
 10
2.4929438636
 20
3.0926578372
 30
0.0
 10
2.4898111136
 20
3.0972781289
 30
0.0
 10
2.4875427228
 20
3.1019484755
 30
0.0
 10
2.4861596722
 20
3.1066305837
 30
0.0
 10
2.4858392409
 20
3.1097815312
 30
0.0
 10
2.4858392409
 20
3.1113175657
 30
0.0
  0
SPLINE
  5
2E9
100
AcDbEntity
  8
0
100
AcDbSpline
 62
7
  6
CONTINUOUS
 70
0
 71
3
 72
19
 73
15
 74
0
 42
0.0000001
 43
0.0000001
 44
0.0000000001
 40
0.0
 40
0.0
 40
0.0
 40
0.0
 40
0.1221667747
 40
0.1842794256
 40
0.2468496291
 40
0.309793454
 40
0.373039683
 40
0.5000002485
 40
0.6269607971
 40
0.6902070152
 40
0.7531508178
 40
0.8157209568
 40
0.8778334766
 40
1.0
 40
1.0
 40
1.0
 40
1.0
 10
3.8230132971
 20
5.574901667
 30
0.0
 10
3.8226036663
 20
5.5783628162
 30
0.0
 10
3.821509842
 20
5.5835406831
 30
0.0
 10
3.819197267
 20
5.5901980572
 30
0.0
 10
3.817017799
 20
5.5950946134
 30
0.0
 10
3.8144247985
 20
5.5998213506
 30
0.0
 10
3.8104434992
 20
5.6058552296
 30
0.0
 10
3.8045497457
 20
5.612775912
 30
0.0
 10
3.7976290712
 20
5.6186696753
 30
0.0
 10
3.7915951931
 20
5.6226509736
 30
0.0
 10
3.7868684603
 20
5.625243976
 30
0.0
 10
3.781971916
 20
5.6274234544
 30
0.0
 10
3.7753145666
 20
5.6297360599
 30
0.0
 10
3.770136714
 20
5.6308299073
 30
0.0
 10
3.7666755721
 20
5.6312395394
 30
0.0
  0
SPLINE
  5
2EA
100
AcDbEntity
  8
0
100
AcDbSpline
 62
7
  6
CONTINUOUS
 70
0
 71
3
 72
15
 73
11
 74
0
 42
0.0000001
 43
0.0000001
 44
0.0000000001
 40
0.0
 40
0.0
 40
0.0
 40
0.0
 40
0.1197795326
 40
0.2441004773
 40
0.3713270977
 40
0.5000000002
 40
0.6286729027
 40
0.7558995229
 40
0.8802204674
 40
1.0
 40
1.0
 40
1.0
 40
1.0
 10
4.0579557014
 20
5.8202859609
 30
0.0
 10
4.0569390947
 20
5.8227363269
 30
0.0
 10
4.054581692
 20
5.8276149937
 30
0.0
 10
4.0502707391
 20
5.8346333099
 30
0.0
 10
4.0451842366
 20
5.8413606747
 30
0.0
 10
4.0394356969
 20
5.8476618575
 30
0.0
 10
4.0331345141
 20
5.8534103972
 30
0.0
 10
4.0264071493
 20
5.8584968998
 30
0.0
 10
4.0193888332
 20
5.8628078527
 30
0.0
 10
4.0145101664
 20
5.8651652554
 30
0.0
 10
4.0120598004
 20
5.866181862
 30
0.0
  0
SPLINE
  5
2EB
100
AcDbEntity
  8
0
100
AcDbSpline
 62
7
  6
CONTINUOUS
 70
0
 71
3
 72
15
 73
11
 74
0
 42
0.0000001
 43
0.0000001
 44
0.0000000001
 40
0.0
 40
0.0
 40
0.0
 40
0.0
 40
0.1197795836
 40
0.2441005457
 40
0.3713271555
 40
0.5000000308
 40
0.6286729021
 40
0.7558994973
 40
0.8802204358
 40
1.0
 40
1.0
 40
1.0
 40
1.0
 10
4.0579557013
 20
2.9708448421
 30
0.0
 10
4.056939099
 20
2.9683944723
 30
0.0
 10
4.054581704
 20
2.9635157985
 30
0.0
 10
4.0502707586
 20
2.9564974736
 30
0.0
 10
4.0451842596
 20
2.9497701039
 30
0.0
 10
4.0394357202
 20
2.9434689199
 30
0.0
 10
4.0331345349
 20
2.9377203823
 30
0.0
 10
4.0264071652
 20
2.9326338848
 30
0.0
 10
4.0193888419
 20
2.9283229395
 30
0.0
 10
4.0145101694
 20
2.9259655439
 30
0.0
 10
4.0120598004
 20
2.924948941
 30
0.0
  0
SPLINE
  5
2EC
100
AcDbEntity
  8
0
100
AcDbSpline
 62
7
  6
CONTINUOUS
 70
0
 71
3
 72
19
 73
15
 74
0
 42
0.0000001
 43
0.0000001
 44
0.0000000001
 40
0.0
 40
0.0
 40
0.0
 40
0.0
 40
0.1221674127
 40
0.1842802739
 40
0.2468503924
 40
0.3097939239
 40
0.3730397783
 40
0.4999996047
 40
0.626959434
 40
0.6902052765
 40
0.7531488172
 40
0.8157190336
 40
0.8778321295
 40
1.0
 40
1.0
 40
1.0
 40
1.0
 10
3.766676111
 20
3.1598908537
 30
0.0
 10
3.770137296
 20
3.1603004597
 30
0.0
 10
3.7753152255
 20
3.1613941888
 30
0.0
 10
3.7819726955
 20
3.1637066485
 30
0.0
 10
3.7868692932
 20
3.1658860688
 30
0.0
 10
3.7915960411
 20
3.1684790534
 30
0.0
 10
3.7976299084
 20
3.1724603528
 30
0.0
 10
3.8045505652
 20
3.178354112
 30
0.0
 10
3.8104443324
 20
3.1852747599
 30
0.0
 10
3.8144256542
 20
3.1913086124
 30
0.0
 10
3.8170186505
 20
3.1960353574
 30
0.0
 10
3.8191980668
 20
3.2009319684
 30
0.0
 10
3.8215104905
 20
3.2075894758
 30
0.0
 10
3.8226041896
 20
3.2127674292
 30
0.0
 10
3.8230137973
 20
3.2162286272
 30
0.0
  0
SPLINE
  5
2ED
100
AcDbEntity
  8
0
100
AcDbSpline
 62
7
  6
CONTINUOUS
 70
0
 71
3
 72
19
 73
15
 74
0
 42
0.0000001
 43
0.0000001
 44
0.0000000001
 40
0.0
 40
0.0
 40
0.0
 40
0.0
 40
0.1221667747
 40
0.1842794256
 40
0.2468496291
 40
0.309793454
 40
0.373039683
 40
0.5000002485
 40
0.6269607971
 40
0.6902070152
 40
0.7531508178
 40
0.8157209568
 40
0.8778334766
 40
1.0
 40
1.0
 40
1.0
 40
1.0
 10
1.4080029754
 20
5.6312394577
 30
0.0
 10
1.4045418262
 20
5.6308298269
 30
0.0
 10
1.3993639594
 20
5.6297360026
 30
0.0
 10
1.3927065852
 20
5.6274234276
 30
0.0
 10
1.387810029
 20
5.6252439596
 30
0.0
 10
1.3830832918
 20
5.6226509591
 30
0.0
 10
1.3770494128
 20
5.6186696598
 30
0.0
 10
1.3701287304
 20
5.6127759063
 30
0.0
 10
1.3642349671
 20
5.6058552318
 30
0.0
 10
1.3602536688
 20
5.5998213537
 30
0.0
 10
1.3576606664
 20
5.595094621
 30
0.0
 10
1.3554811881
 20
5.5901980766
 30
0.0
 10
1.3531685825
 20
5.5835407272
 30
0.0
 10
1.3520747351
 20
5.5783628746
 30
0.0
 10
1.3516651031
 20
5.5749017327
 30
0.0
  0
SPLINE
  5
2EE
100
AcDbEntity
  8
0
100
AcDbSpline
 62
7
  6
CONTINUOUS
 70
0
 71
3
 72
15
 73
11
 74
0
 42
0.0000001
 43
0.0000001
 44
0.0000000001
 40
0.0
 40
0.0
 40
0.0
 40
0.0
 40
0.1197795326
 40
0.2441004773
 40
0.3713270977
 40
0.5000000002
 40
0.6286729027
 40
0.7558995229
 40
0.8802204674
 40
1.0
 40
1.0
 40
1.0
 40
1.0
 10
1.1626186815
 20
5.866181862
 30
0.0
 10
1.1601683155
 20
5.8651652553
 30
0.0
 10
1.1552896487
 20
5.8628078526
 30
0.0
 10
1.1482713326
 20
5.8584968997
 30
0.0
 10
1.1415439677
 20
5.8534103972
 30
0.0
 10
1.1352427849
 20
5.8476618575
 30
0.0
 10
1.1294942452
 20
5.8413606747
 30
0.0
 10
1.1244077427
 20
5.8346333099
 30
0.0
 10
1.1200967897
 20
5.8276149938
 30
0.0
 10
1.117739387
 20
5.822736327
 30
0.0
 10
1.1167227804
 20
5.820285961
 30
0.0
  0
SPLINE
  5
2EF
100
AcDbEntity
  8
0
100
AcDbSpline
 62
7
  6
CONTINUOUS
 70
0
 71
3
 72
19
 73
15
 74
0
 42
0.0000001
 43
0.0000001
 44
0.0000000001
 40
0.0
 40
0.0
 40
0.0
 40
0.0
 40
0.1221667747
 40
0.1842794256
 40
0.2468496291
 40
0.309793454
 40
0.373039683
 40
0.5000002485
 40
0.6269607971
 40
0.6902070152
 40
0.7531508178
 40
0.8157209568
 40
0.8778334766
 40
1.0
 40
1.0
 40
1.0
 40
1.0
 10
1.3516651847
 20
3.216229136
 30
0.0
 10
1.3520748155
 20
3.2127679868
 30
0.0
 10
1.3531686398
 20
3.20759012
 30
0.0
 10
1.3554812148
 20
3.2009327458
 30
0.0
 10
1.3576606828
 20
3.1960361896
 30
0.0
 10
1.3602536833
 20
3.1913094524
 30
0.0
 10
1.3642349826
 20
3.1852755734
 30
0.0
 10
1.3701287361
 20
3.1783548911
 30
0.0
 10
1.3770494106
 20
3.1724611277
 30
0.0
 10
1.3830832887
 20
3.1684798294
 30
0.0
 10
1.3878100215
 20
3.165886827
 30
0.0
 10
1.3927065658
 20
3.1637073487
 30
0.0
 10
1.3993639152
 20
3.1613947431
 30
0.0
 10
1.4045417678
 20
3.1603008957
 30
0.0
 10
1.4080029097
 20
3.1598912637
 30
0.0
  0
SPLINE
  5
2F0
100
AcDbEntity
  8
0
100
AcDbSpline
 62
7
  6
CONTINUOUS
 70
0
 71
3
 72
15
 73
11
 74
0
 42
0.0000001
 43
0.0000001
 44
0.0000000001
 40
0.0
 40
0.0
 40
0.0
 40
0.0
 40
0.1197795326
 40
0.2441004773
 40
0.3713270977
 40
0.5000000002
 40
0.6286729027
 40
0.7558995229
 40
0.8802204674
 40
1.0
 40
1.0
 40
1.0
 40
1.0
 10
1.1167227804
 20
2.9708448421
 30
0.0
 10
1.1177393871
 20
2.9683944761
 30
0.0
 10
1.1200967898
 20
2.9635158093
 30
0.0
 10
1.1244077427
 20
2.9564974932
 30
0.0
 10
1.1294942452
 20
2.9497701283
 30
0.0
 10
1.1352427849
 20
2.9434689455
 30
0.0
 10
1.1415439677
 20
2.9377204058
 30
0.0
 10
1.1482713325
 20
2.9326339033
 30
0.0
 10
1.1552896486
 20
2.9283229503
 30
0.0
 10
1.1601683154
 20
2.9259655476
 30
0.0
 10
1.1626186814
 20
2.924948941
 30
0.0
  0
ENDSEC
  0
SECTION
  2
OBJECTS
  0
DICTIONARY
  5
C
100
AcDbDictionary
280
0
281
1
  3
ACAD_GROUP
350
D
  3
ACAD_MLINESTYLE
350
17
  3
ACAD_LAYOUT
350
1A
  3
ACAD_PLOTSETTINGS
350
19
  3
ACAD_PLOTSTYLENAME
350
E
  0
DICTIONARY
  5
D
102
{ACAD_REACTORS
330
C
102
}
100
AcDbDictionary
280
0
281
1
  0
ACDBDICTIONARYWDFLT
  5
E
102
{ACAD_REACTORS
330
C
102
}
100
AcDbDictionary
281
1
  3
Normal
350
F
100
AcDbDictionaryWithDefault
340
F
  0
DICTIONARY
  5
17
102
{ACAD_REACTORS
330
C
102
}
100
AcDbDictionary
280
0
281
1
  3
Standard
350
18
  0
DICTIONARY
  5
19
102
{ACAD_REACTORS
330
C
102
}
100
AcDbDictionary
281
1
  0
DICTIONARY
  5
1A
102
{ACAD_REACTORS
330
C
102
}
100
AcDbDictionary
281
1
  3
Model
350
2F1
  3
Layout1
350
2F2
  0
ACDBPLACEHOLDER
  5
F
102
{ACAD_REACTORS
330
E
102
}
  0
MLINESTYLE
  5
18
102
{ACAD_REACTORS
330
17
102
}
100
AcDbMlineStyle
  2
STANDARD
 70
0
  3

 62
256
 51
90.0
 52
90.0
 71
2
 49
0.5
 62
256
  6
BYLAYER
 49
-0.5
 62
256
  6
BYLAYER
  0
LAYOUT
  5
2F1
102
{ACAD_REACTORS
330
1A
102
}
100
AcDbPlotSettings
  1

  2
none_device
  4
ANSI_A_(11.00_x_8.50_Inches)
  6

 40
0.0
 41
0.0
 42
0.0
 43
0.0
 44
279.4
 45
215.9
 46
0.0
 47
0.0
 48
0.0
 49
0.0
140
0.0
141
0.0
142
1.0
143
1.0
 70
1024
 72
0
 73
0
 74
0
  7

 75
0
147
1.0
148
0.0
149
0.0
100
AcDbLayout
  1
Model
 70
0
 71
0
 10
0.0
 20
0.0
 11
11.0
 21
8.5
 12
0.0
 22
0.0
 32
0.0
 14
0.0
 24
0.0
 34
0.0
 15
0.0
 25
0.0
 35
0.0
146
0.0
 13
0.0
 23
0.0
 33
0.0
 16
1.0
 26
0.0
 36
0.0
 17
0.0
 27
1.0
 37
0.0
 76
0
330
20C
345
0
346
0
  0
LAYOUT
  5
2F2
102
{ACAD_REACTORS
330
1A
102
}
100
AcDbPlotSettings
  1

  2
none_device
  4
ANSI_A_(11.00_x_8.50_Inches)
  6

 40
0.0
 41
0.0
 42
0.0
 43
0.0
 44
279.4
 45
215.9
 46
0.0
 47
0.0
 48
0.0
 49
0.0
140
0.0
141
0.0
142
1.0
143
1.0
 70
0
 72
0
 73
0
 74
0
  7

 75
0
147
1.0
148
0.0
149
0.0
100
AcDbLayout
  1
Layout1
 70
0
 71
1
 10
0.0
 20
0.0
 11
11.0
 21
8.5
 12
0.0
 22
0.0
 32
0.0
 14
0.0
 24
0.0
 34
0.0
 15
0.0
 25
0.0
 35
0.0
146
0.0
 13
0.0
 23
0.0
 33
0.0
 16
1.0
 26
0.0
 36
0.0
 17
0.0
 27
1.0
 37
0.0
 76
0
330
20D
345
0
346
0
  0
ENDSEC
  0
EOF
