999
DXF file: 2570-2400_top.dxf
999
Pro/ENGINEER 2019352 by Parametric Technology Corporation
  0
SECTION
  2
HEADER
  9
$ACADVER
  1
AC1032
  9
$DWGCODEPAGE
  3
ANSI_1252
  9
$EXTMAX
 10
11.0
 20
8.5
 30
0.0
  9
$EXTMIN
 10
0.0
 20
0.0
 30
0.0
  9
$LIMMIN
 10
0.0
 20
0.0
  9
$LIMMAX
 10
11.0
 20
8.5
  9
$VIEWCTR
 10
5.5
 20
4.25
  9
$VIEWSIZE
 40
8.5
  9
$CLAYER
  8
0
  9
$LTSCALE
 40
0.605
  9
$CELTYPE
  6
BYLAYER
  9
$DIMSCALE
 40
1.0
  9
$DIMASZ
 40
0.1
  9
$DIMEXO
 40
0.0625
  9
$DIMDLI
 40
0.418
  9
$DIMEXE
 40
0.125
  9
$DIMCEN
 40
0.099
  9
$DIMLFAC
 40
1.0
  9
$DIMBLK
  1
_FILLED
  9
$DIMALT
 70
1
  9
$DIMALTD
 70
2
  9
$DIMALTTD
 70
2
  9
$DIMALTF
 40
25.4
  9
$DIMTXT
 40
0.08
  9
$DIMTOL
 70
1
  9
$DIMLIM
 70
0
  9
$DIMTFAC
 40
1.0
  9
$DIMTP
 40
0.001
  9
$DIMTM
 40
0.001
  9
$DIMGAP
 40
0.09
  9
$DIMDSEP
 70
46
  9
$AUNITS
 70
0
  9
$PDMODE
 70
3
  9
$PDSIZE
 40
0.3125
  9
$HANDSEED
  5
24E
  9
$TILEMODE
 70
1
  9
$MEASUREMENT
 70
0
  9
$INSUNITS
 70
1
  0
ENDSEC
  0
SECTION
  2
CLASSES
  0
CLASS
  1
ACDBDICTIONARYWDFLT
  2
AcDbDictionaryWithDefault
  3
AutoCAD 2000
 90
0
 91
1
280
0
281
0
  0
CLASS
  1
ACDBPLACEHOLDER
  2
AcDbPlaceHolder
  3
AutoCAD 2000
 90
0
 91
1
280
0
281
0
  0
CLASS
  1
LAYOUT
  2
AcDbLayout
  3
AutoCAD 2000
 90
0
 91
0
280
0
281
0
  0
ENDSEC
  0
SECTION
  2
TABLES
  0
TABLE
  2
VPORT
  5
8
100
AcDbSymbolTable
 70
2
  0
VPORT
  5
1F4
100
AcDbSymbolTableRecord
100
AcDbViewportTableRecord
  2
*ACTIVE
 70
0
 10
0.0
 20
0.0
 11
1.0
 21
1.0
 12
5.5
 22
4.25
 13
0.0
 23
0.0
 14
1.0
 24
1.0
 15
0.0
 25
0.0
 16
0.0
 26
0.0
 36
1.0
 17
0.0
 27
0.0
 37
0.0
 40
8.5
 41
1.2941176471
 42
50.0
 43
0.0
 44
0.0
 50
0.0
 51
0.0
 71
0
 72
100
 73
1
 74
1
 75
0
 76
0
 77
0
 78
0
  0
ENDTAB
  0
TABLE
  2
LTYPE
  5
5
100
AcDbSymbolTable
 70
6
  0
LTYPE
  5
14
100
AcDbSymbolTableRecord
100
AcDbLinetypeTableRecord
  2
BYBLOCK
 70
0
  3

 72
65
 73
0
 40
0.0
  0
LTYPE
  5
15
100
AcDbSymbolTableRecord
100
AcDbLinetypeTableRecord
  2
BYLAYER
 70
0
  3

 72
65
 73
0
 40
0.0
  0
LTYPE
  5
16
100
AcDbSymbolTableRecord
100
AcDbLinetypeTableRecord
  2
CONTINUOUS
 70
64
  3
Solid line
 72
65
 73
0
 40
0.0
  0
LTYPE
  5
1F5
100
AcDbSymbolTableRecord
100
AcDbLinetypeTableRecord
  2
CENTER
 70
64
  3
____ _ ____ _ ____ _ ____ _ ____ _ ____ _ ____
 72
65
 73
4
 40
0.6
 49
0.375
 74
0
 49
-0.075
 74
0
 49
0.075
 74
0
 49
-0.075
 74
0
  0
LTYPE
  5
1F6
100
AcDbSymbolTableRecord
100
AcDbLinetypeTableRecord
  2
HIDDEN
 70
64
  3
- - - - - - - - - - - - - - - - - - - -
 72
65
 73
2
 40
0.2
 49
0.1
 74
0
 49
-0.1
 74
0
  0
LTYPE
  5
1F7
100
AcDbSymbolTableRecord
100
AcDbLinetypeTableRecord
  2
PHANTOM
 70
64
  3
_____ _ _ _____ _ _ _____ _ _ _____
 72
65
 73
6
 40
0.8
 49
0.45
 74
0
 49
-0.05
 74
0
 49
0.1
 74
0
 49
-0.05
 74
0
 49
0.1
 74
0
 49
-0.05
 74
0
  0
LTYPE
  5
1F8
100
AcDbSymbolTableRecord
100
AcDbLinetypeTableRecord
  2
DOT
 70
64
  3
. . . . . . . . . . . . . . . . . . . .
 72
65
 73
2
 40
0.2
 49
0.1
 74
0
 49
-0.1
 74
0
  0
LTYPE
  5
1F9
100
AcDbSymbolTableRecord
100
AcDbLinetypeTableRecord
  2
DASHED
 70
64
  3
- - - - - - - - - - - - - - - - - - - -
 72
65
 73
2
 40
0.2
 49
0.1
 74
0
 49
-0.1
 74
0
  0
ENDTAB
  0
TABLE
  2
LAYER
  5
2
100
AcDbSymbolTable
 70
36
  0
LAYER
  5
10
100
AcDbSymbolTableRecord
100
AcDbLayerTableRecord
  2
0
 70
0
 62
7
  6
CONTINUOUS
370
-3
390
F
  0
LAYER
  5
1FA
100
AcDbSymbolTableRecord
100
AcDbLayerTableRecord
  2
DEFAULT_1
 70
0
 62
7
  6
CENTER
370
-3
390
F
  0
LAYER
  5
1FB
100
AcDbSymbolTableRecord
100
AcDbLayerTableRecord
  2
DEFAULT_2
 70
0
 62
8
  6
HIDDEN
370
-3
390
F
  0
LAYER
  5
1FC
100
AcDbSymbolTableRecord
100
AcDbLayerTableRecord
  2
DEFAULT_3
 70
0
 62
7
  6
PHANTOM
370
-3
390
F
  0
LAYER
  5
1FD
100
AcDbSymbolTableRecord
100
AcDbLayerTableRecord
  2
06___PRT_ALL_SURFS
 70
0
 62
7
  6
CONTINUOUS
370
-3
390
F
  0
LAYER
  5
1FE
100
AcDbSymbolTableRecord
100
AcDbLayerTableRecord
  2
ALL_FEATURES
 70
0
 62
7
  6
CONTINUOUS
370
-3
390
F
  0
LAYER
  5
1FF
100
AcDbSymbolTableRecord
100
AcDbLayerTableRecord
  2
AXES_FEATURES
 70
0
 62
7
  6
CONTINUOUS
370
-3
390
F
  0
LAYER
  5
200
100
AcDbSymbolTableRecord
100
AcDbLayerTableRecord
  2
DEFAULT_COORDINATE_SYSTEM
 70
0
 62
7
  6
CONTINUOUS
370
-3
390
F
  0
LAYER
  5
201
100
AcDbSymbolTableRecord
100
AcDbLayerTableRecord
  2
DEFAULT_DATUM_AXES
 70
0
 62
7
  6
CONTINUOUS
370
-3
390
F
  0
LAYER
  5
202
100
AcDbSymbolTableRecord
100
AcDbLayerTableRecord
  2
DEFAULT_DATUM_CURVES
 70
0
 62
7
  6
CONTINUOUS
370
-3
390
F
  0
LAYER
  5
203
100
AcDbSymbolTableRecord
100
AcDbLayerTableRecord
  2
DEFAULT_DATUM_PLANES
 70
0
 62
7
  6
CONTINUOUS
370
-3
390
F
  0
LAYER
  5
204
100
AcDbSymbolTableRecord
100
AcDbLayerTableRecord
  2
DEFAULT_SURFACES
 70
0
 62
7
  6
CONTINUOUS
370
-3
390
F
  0
LAYER
  5
205
100
AcDbSymbolTableRecord
100
AcDbLayerTableRecord
  2
DIMENSIONS
 70
0
 62
7
  6
CONTINUOUS
370
-3
390
F
  0
LAYER
  5
206
100
AcDbSymbolTableRecord
100
AcDbLayerTableRecord
  2
INTF_BLANK
 70
0
 62
7
  6
CONTINUOUS
370
-3
390
F
  0
LAYER
  5
207
100
AcDbSymbolTableRecord
100
AcDbLayerTableRecord
  2
PLATED_SURFACE_AREA
 70
0
 62
7
  6
CONTINUOUS
370
-3
390
F
  0
LAYER
  5
208
100
AcDbSymbolTableRecord
100
AcDbLayerTableRecord
  2
SHELL
 70
0
 62
7
  6
CONTINUOUS
370
-3
390
F
  0
LAYER
  5
209
100
AcDbSymbolTableRecord
100
AcDbLayerTableRecord
  2
___SHELL
 70
0
 62
7
  6
CONTINUOUS
370
-3
390
F
  0
ENDTAB
  0
TABLE
  2
STYLE
  5
3
100
AcDbSymbolTable
 70
1
  0
STYLE
  5
11
100
AcDbSymbolTableRecord
100
AcDbTextStyleTableRecord
  2
STANDARD
 70
0
 40
0.0
 41
0.8
 50
0.0
 71
0
 42
0.2
  3
txt
  4

  0
STYLE
  5
20A
100
AcDbSymbolTableRecord
100
AcDbTextStyleTableRecord
  2
TEXTSTYLE_1
 70
0
 40
0.0
 41
0.8
 50
0.0
 71
0
 42
0.2
  3
gdt
  4

  0
ENDTAB
  0
TABLE
  2
VIEW
  5
6
100
AcDbSymbolTable
 70
0
  0
ENDTAB
  0
TABLE
  2
UCS
  5
7
100
AcDbSymbolTable
 70
0
  0
ENDTAB
  0
TABLE
  2
APPID
  5
9
100
AcDbSymbolTable
 70
1
  0
APPID
  5
20B
100
AcDbSymbolTableRecord
100
AcDbRegAppTableRecord
  2
ACAD
 70
0
  0
ENDTAB
  0
TABLE
  2
BLOCK_RECORD
  5
1
100
AcDbSymbolTable
 70
0
  0
BLOCK_RECORD
  5
20C
100
AcDbSymbolTableRecord
100
AcDbBlockTableRecord
  2
*Model_Space
  0
BLOCK_RECORD
  5
20D
100
AcDbSymbolTableRecord
100
AcDbBlockTableRecord
  2
*Paper_Space
  0
BLOCK_RECORD
  5
20E
100
AcDbSymbolTableRecord
100
AcDbBlockTableRecord
  2
_FILLED
  0
ENDTAB
  0
TABLE
  2
DIMSTYLE
  5
A
100
AcDbSymbolTable
 70
1
100
AcDbDimStyleTable
 71
0
  0
DIMSTYLE
105
20F
100
AcDbSymbolTableRecord
100
AcDbDimStyleTableRecord
  2
STANDARD
 70
0
  3

  4

 40
1.0
 41
0.1
 42
0.0625
 43
0.38
 44
0.125
 45
0.0
 46
0.0
 47
0.001
 48
0.001
140
0.08
141
0.09
142
0.0
143
25.4
144
1.0
145
0.0
146
1.0
147
0.09
 71
1.0
 72
0.0
 73
1
 74
1
 75
0
 76
0
 77
0
 78
4
 79
1
170
1
171
2
172
0
173
0
174
0
175
0
176
0
177
0
178
0
270
2
179
3
271
3
272
3
273
2
274
2
275
0
280
0
281
0
282
0
283
1
284
4
285
0
286
0
287
3
288
0
340
11
278
46
341
20E
342
20E
343
20E
344
20E
  0
ENDTAB
  0
ENDSEC
  0
SECTION
  2
BLOCKS
  0
BLOCK
  5
20
100
AcDbEntity
  8
0
100
AcDbBlockBegin
  2
*Model_Space
 70
0
 10
0.0
 20
0.0
 30
0.0
  3
*Model_Space
  1

  0
ENDBLK
  5
21
100
AcDbEntity
  8
0
100
AcDbBlockEnd
  0
BLOCK
  5
1C
100
AcDbEntity
  8
0
100
AcDbBlockBegin
  2
*Paper_Space
 70
0
 10
0.0
 20
0.0
 30
0.0
  3
*Paper_Space
  1

  0
ENDBLK
  5
1D
100
AcDbEntity
  8
0
100
AcDbBlockEnd
  0
BLOCK
  5
210
100
AcDbEntity
  8
0
100
AcDbBlockBegin
  2
_FILLED
 70
64
 10
0.0
 20
0.0
  3
_FILLED
  1

  0
SOLID
  5
211
100
AcDbEntity
  8
0
  6
BYBLOCK
 62
0
100
AcDbTrace
 10
0.0
 20
0.0
 11
-1.0
 21
0.2
 12
-1.0
 22
-0.2
 13
-1.0
 23
-0.2
  0
ENDBLK
  5
212
100
AcDbEntity
  8
0
  6
BYBLOCK
 62
0
100
AcDbBlockEnd
  0
ENDSEC
  0
SECTION
  2
ENTITIES
  0
MTEXT
  5
213
100
AcDbEntity
  8
0
100
AcDbMText
 62
2
  6
CONTINUOUS
  7
STANDARD
 71
3
 72
1
 10
5.5873392409
 20
4.0005653979
 30
0.0
 11
1.0
 21
0.0
 31
0.0
 73
2
 44
0.9
  1
SCALE 1.000
 40
0.08
 41
0.704
  0
LINE
  5
214
100
AcDbEntity
  8
0
100
AcDbLine
 62
7
  6
CONTINUOUS
 10
0.0
 20
0.0
 11
0.0
 21
8.5
  0
LINE
  5
215
100
AcDbEntity
  8
0
100
AcDbLine
 62
7
  6
CONTINUOUS
 10
0.0
 20
0.0
 11
11.0
 21
0.0
  0
LINE
  5
216
100
AcDbEntity
  8
0
100
AcDbLine
 62
7
  6
CONTINUOUS
 10
0.0
 20
8.5
 11
11.0
 21
8.5
  0
LINE
  5
217
100
AcDbEntity
  8
0
100
AcDbLine
 62
7
  6
CONTINUOUS
 10
11.0
 20
0.0
 11
11.0
 21
8.5
  0
LINE
  5
218
100
AcDbEntity
  8
0
100
AcDbLine
 62
7
  6
CONTINUOUS
 10
1.4080028554
 20
4.1705653979
 11
1.4080029754
 21
4.2099241225
  0
LINE
  5
219
100
AcDbEntity
  8
0
100
AcDbLine
 62
7
  6
CONTINUOUS
 10
1.7123392409
 20
4.1705653979
 11
1.7123392409
 21
4.1555653979
  0
LINE
  5
21A
100
AcDbEntity
  8
0
100
AcDbLine
 62
7
  6
CONTINUOUS
 10
3.4623392409
 20
4.1705653979
 11
3.4623392409
 21
4.1555653979
  0
LINE
  5
21B
100
AcDbEntity
  8
0
100
AcDbLine
 62
7
  6
CONTINUOUS
 10
3.7666756245
 20
4.1705653979
 11
3.7666755721
 21
4.2099243044
  0
LINE
  5
21C
100
AcDbEntity
  8
0
100
AcDbLine
 62
7
  6
CONTINUOUS
 10
9.4023392409
 20
4.0955653979
 11
7.7723392409
 21
4.0955653979
  0
LINE
  5
21D
100
AcDbEntity
  8
0
100
AcDbLine
 62
7
  6
CONTINUOUS
 10
3.4023392409
 20
4.0955653979
 11
1.7723392409
 21
4.0955653979
  0
LINE
  5
21E
100
AcDbEntity
  8
0
100
AcDbLine
 62
7
  6
CONTINUOUS
 10
9.4623392409
 20
4.1555653979
 11
7.7123392409
 21
4.1555653979
  0
LINE
  5
21F
100
AcDbEntity
  8
0
100
AcDbLine
 62
7
  6
CONTINUOUS
 10
3.4623392409
 20
4.1555653979
 11
1.7123392409
 21
4.1555653979
  0
LINE
  5
220
100
AcDbEntity
  8
0
100
AcDbLine
 62
7
  6
CONTINUOUS
 10
9.766675414
 20
4.1705653979
 11
7.4080030614
 21
4.1705653979
  0
LINE
  5
221
100
AcDbEntity
  8
0
100
AcDbLine
 62
7
  6
CONTINUOUS
 10
3.766675414
 20
4.1705653979
 11
1.4080030614
 21
4.1705653979
  0
LINE
  5
222
100
AcDbEntity
  8
0
100
AcDbLine
 62
7
  6
CONTINUOUS
 10
9.7666755744
 20
4.2099243044
 11
7.4080029128
 21
4.2099242838
  0
LINE
  5
223
100
AcDbEntity
  8
0
100
AcDbLine
 62
7
  6
CONTINUOUS
 10
3.7666755744
 20
4.2099243044
 11
1.4080029128
 21
4.2099242838
  0
LINE
  5
224
100
AcDbEntity
  8
0
100
AcDbLine
 62
7
  6
CONTINUOUS
 10
10.0120598004
 20
4.6150514707
 11
7.1626186814
 21
4.6150514707
  0
LINE
  5
225
100
AcDbEntity
  8
0
100
AcDbLine
 62
7
  6
CONTINUOUS
 10
4.0120598004
 20
4.6150514707
 11
1.1626186814
 21
4.6150514707
  0
LINE
  5
226
100
AcDbEntity
  8
0
100
AcDbLine
 62
7
  6
CONTINUOUS
 10
1.0873394438
 20
4.6955653979
 11
4.087339038
 21
4.6955653979
  0
LINE
  5
227
100
AcDbEntity
  8
0
100
AcDbLine
 62
7
  6
CONTINUOUS
 10
7.0873394438
 20
4.6955653979
 11
10.087339038
 21
4.6955653979
  0
LINE
  5
228
100
AcDbEntity
  8
0
100
AcDbLine
 62
7
  6
CONTINUOUS
 10
7.4080028554
 20
4.1705653979
 11
7.4080029754
 21
4.2099241225
  0
LINE
  5
229
100
AcDbEntity
  8
0
100
AcDbLine
 62
7
  6
CONTINUOUS
 10
7.7123392409
 20
4.1705653979
 11
7.7123392409
 21
4.1555653979
  0
LINE
  5
22A
100
AcDbEntity
  8
0
100
AcDbLine
 62
7
  6
CONTINUOUS
 10
9.4623392409
 20
4.1705653979
 11
9.4623392409
 21
4.1555653979
  0
LINE
  5
22B
100
AcDbEntity
  8
0
100
AcDbLine
 62
7
  6
CONTINUOUS
 10
9.7666756245
 20
4.1705653979
 11
9.7666755721
 21
4.2099243044
  0
ARC
  5
22C
100
AcDbEntity
  8
0
100
AcDbCircle
 62
7
  6
CONTINUOUS
 10
11.0906134752
 20
3.7455010568
 40
1.35
100
AcDbArc
 50
139.900914728
 51
159.8781861356
  0
ARC
  5
22D
100
AcDbEntity
  8
0
100
AcDbCircle
 62
7
  6
CONTINUOUS
 10
6.0840650066
 20
3.7455010568
 40
1.35
100
AcDbArc
 50
20.1218147962
 51
40.099085272
  0
ARC
  5
22E
100
AcDbEntity
  8
0
100
AcDbCircle
 62
7
  6
CONTINUOUS
 10
5.0906134752
 20
3.7455010568
 40
1.35
100
AcDbArc
 50
139.900914728
 51
159.8781861356
  0
ARC
  5
22F
100
AcDbEntity
  8
0
100
AcDbCircle
 62
7
  6
CONTINUOUS
 10
0.0840650066
 20
3.7455010568
 40
1.35
100
AcDbArc
 50
20.1218147962
 51
40.099085272
  0
ARC
  5
230
100
AcDbEntity
  8
0
100
AcDbCircle
 62
7
  6
CONTINUOUS
 10
9.9623392409
 20
4.6955653979
 40
0.125
100
AcDbArc
 50
319.900914728
 51
360.0
  0
ARC
  5
231
100
AcDbEntity
  8
0
100
AcDbCircle
 62
7
  6
CONTINUOUS
 10
7.2123392409
 20
4.6955653979
 40
0.125
100
AcDbArc
 50
180.0
 51
220.099085272
  0
ARC
  5
232
100
AcDbEntity
  8
0
100
AcDbCircle
 62
7
  6
CONTINUOUS
 10
3.9623392409
 20
4.6955653979
 40
0.125
100
AcDbArc
 50
319.900914728
 51
360.0
  0
ARC
  5
233
100
AcDbEntity
  8
0
100
AcDbCircle
 62
7
  6
CONTINUOUS
 10
1.2123392409
 20
4.6955653979
 40
0.125
100
AcDbArc
 50
180.0
 51
220.099085272
  0
ARC
  5
234
100
AcDbEntity
  8
0
100
AcDbCircle
 62
7
  6
CONTINUOUS
 10
7.7723392409
 20
4.1555653979
 40
0.06
100
AcDbArc
 50
180.0
 51
270.0
  0
ARC
  5
235
100
AcDbEntity
  8
0
100
AcDbCircle
 62
7
  6
CONTINUOUS
 10
9.4023392409
 20
4.1555653979
 40
0.06
100
AcDbArc
 50
270.0
 51
360.0
  0
ARC
  5
236
100
AcDbEntity
  8
0
100
AcDbCircle
 62
7
  6
CONTINUOUS
 10
1.7723392409
 20
4.1555653979
 40
0.06
100
AcDbArc
 50
180.0
 51
270.0
  0
ARC
  5
237
100
AcDbEntity
  8
0
100
AcDbCircle
 62
7
  6
CONTINUOUS
 10
3.4023392409
 20
4.1555653979
 40
0.06
100
AcDbArc
 50
270.0
 51
360.0
  0
ARC
  5
238
100
AcDbEntity
  8
0
100
AcDbCircle
 62
7
  6
CONTINUOUS
 10
9.7666751892
 20
4.2305653979
 40
0.06
100
AcDbArc
 50
270.0002146186
 51
339.8779388685
  0
ARC
  5
239
100
AcDbEntity
  8
0
100
AcDbCircle
 62
7
  6
CONTINUOUS
 10
7.4080032926
 20
4.2305653979
 40
0.06
100
AcDbArc
 50
200.121876116
 51
269.9997792382
  0
ARC
  5
23A
100
AcDbEntity
  8
0
100
AcDbCircle
 62
7
  6
CONTINUOUS
 10
3.7666751892
 20
4.2305653979
 40
0.06
100
AcDbArc
 50
270.0002146186
 51
339.8779388685
  0
ARC
  5
23B
100
AcDbEntity
  8
0
100
AcDbCircle
 62
7
  6
CONTINUOUS
 10
1.4080032926
 20
4.2305653979
 40
0.06
100
AcDbArc
 50
200.121876116
 51
269.9997792382
  0
SPLINE
  5
23C
100
AcDbEntity
  8
0
100
AcDbSpline
 62
7
  6
CONTINUOUS
 70
0
 71
3
 72
18
 73
14
 74
0
 42
0.0000001
 43
0.0000001
 44
0.0000000001
 40
0.0
 40
0.0
 40
0.0
 40
0.0
 40
0.1595025739
 40
0.3103986145
 40
0.4507380613
 40
0.5797464638
 40
0.6974640517
 40
0.7524522411
 40
0.8051214464
 40
0.8557938573
 40
0.9048609584
 40
0.9527656419
 40
1.0
 40
1.0
 40
1.0
 40
1.0
 10
7.1626186815
 20
4.6150514706
 30
0.0
 10
7.1602769238
 20
4.6138976838
 30
0.0
 10
7.1556194982
 20
4.6118479162
 30
0.0
 10
7.1486026205
 20
4.6095307664
 30
0.0
 10
7.1418570174
 20
4.6081051044
 30
0.0
 10
7.1355232091
 20
4.6075946044
 30
0.0
 10
7.1305716957
 20
4.6079585949
 30
0.0
 10
7.1269628483
 20
4.6087473601
 30
0.0
 10
7.1244959297
 20
4.6095570927
 30
0.0
 10
7.1222225164
 20
4.6105970451
 30
0.0
 10
7.1201547057
 20
4.6118592232
 30
0.0
 10
7.1183048781
 20
4.6133349242
 30
0.0
 10
7.1172207306
 20
4.6144601167
 30
0.0
 10
7.1167227804
 20
4.6150514707
 30
0.0
  0
SPLINE
  5
23D
100
AcDbEntity
  8
0
100
AcDbSpline
 62
7
  6
CONTINUOUS
 70
0
 71
3
 72
22
 73
18
 74
0
 42
0.0000001
 43
0.0000001
 44
0.0000000001
 40
0.0
 40
0.0
 40
0.0
 40
0.0
 40
0.1792608068
 40
0.3501001752
 40
0.4306491558
 40
0.5072443584
 40
0.5794050197
 40
0.6467191316
 40
0.7088415591
 40
0.7654852332
 40
0.8165188001
 40
0.8620228741
 40
0.9022775347
 40
0.9378936532
 40
0.9699332939
 40
0.985106972
 40
1.0
 40
1.0
 40
1.0
 40
1.0
 10
7.4080029754
 20
4.2099239773
 30
0.0
 10
7.4046228496
 20
4.208832099
 30
0.0
 10
7.3979569136
 20
4.2068936836
 30
0.0
 10
7.3896231166
 20
4.2050261883
 30
0.0
 10
7.3832107792
 20
4.2039590235
 30
0.0
 10
7.37870127
 20
4.2033914194
 30
0.0
 10
7.3744321228
 20
4.2030462106
 30
0.0
 10
7.3704373132
 20
4.2029254455
 30
0.0
 10
7.3667490793
 20
4.2030281859
 30
0.0
 10
7.3633970713
 20
4.2033547424
 30
0.0
 10
7.3604073705
 20
4.203904018
 30
0.0
 10
7.3578011422
 20
4.2046706978
 30
0.0
 10
7.3555960056
 20
4.205653877
 30
0.0
 10
7.3538108761
 20
4.2068539044
 30
0.0
 10
7.3526675084
 20
4.2080561932
 30
0.0
 10
7.3520117633
 20
4.2091014721
 30
0.0
 10
7.3517666259
 20
4.2096470566
 30
0.0
 10
7.3516651031
 20
4.2099241537
 30
0.0
  0
SPLINE
  5
23E
100
AcDbEntity
  8
0
100
AcDbSpline
 62
7
  6
CONTINUOUS
 70
0
 71
3
 72
18
 73
14
 74
0
 42
0.0000001
 43
0.0000001
 44
0.0000000001
 40
0.0
 40
0.0
 40
0.0
 40
0.0
 40
0.0472343583
 40
0.095139042
 40
0.1442061432
 40
0.194878554
 40
0.2475477592
 40
0.3025359484
 40
0.4202535358
 40
0.549261938
 40
0.6896013848
 40
0.8404974256
 40
1.0
 40
1.0
 40
1.0
 40
1.0
 10
10.0579557014
 20
4.6150514706
 30
0.0
 10
10.0574577511
 20
4.6144601166
 30
0.0
 10
10.0563736036
 20
4.6133349241
 30
0.0
 10
10.054523776
 20
4.6118592231
 30
0.0
 10
10.0524559654
 20
4.610597045
 30
0.0
 10
10.050182552
 20
4.6095570927
 30
0.0
 10
10.0477156334
 20
4.60874736
 30
0.0
 10
10.044106786
 20
4.6079585949
 30
0.0
 10
10.0391552727
 20
4.6075946044
 30
0.0
 10
10.0328214644
 20
4.6081051044
 30
0.0
 10
10.0260758613
 20
4.6095307665
 30
0.0
 10
10.0190589837
 20
4.6118479163
 30
0.0
 10
10.0144015581
 20
4.6138976839
 30
0.0
 10
10.0120598004
 20
4.6150514707
 30
0.0
  0
SPLINE
  5
23F
100
AcDbEntity
  8
0
100
AcDbSpline
 62
7
  6
CONTINUOUS
 70
0
 71
3
 72
11
 73
7
 74
0
 42
0.0000001
 43
0.0000001
 44
0.0000000001
 40
0.0
 40
0.0
 40
0.0
 40
0.0
 40
0.2394120977
 40
0.4856849918
 40
0.7391873979
 40
1.0
 40
1.0
 40
1.0
 40
1.0
 10
7.1626186814
 20
4.6150514707
 30
0.0
 10
7.1877051083
 20
4.5865267869
 30
0.0
 10
7.2362070108
 20
4.5265067673
 30
0.0
 10
7.3019398765
 20
4.429199609
 30
0.0
 10
7.3604230674
 20
4.3234565742
 30
0.0
 10
7.3932129399
 20
4.2485732601
 30
0.0
 10
7.4080029128
 20
4.2099242838
 30
0.0
  0
SPLINE
  5
240
100
AcDbEntity
  8
0
100
AcDbSpline
 62
7
  6
CONTINUOUS
 70
0
 71
3
 72
22
 73
18
 74
0
 42
0.0000001
 43
0.0000001
 44
0.0000000001
 40
0.0
 40
0.0
 40
0.0
 40
0.0
 40
0.0148929204
 40
0.0300663277
 40
0.0621052078
 40
0.0977206821
 40
0.13797511
 40
0.1834792457
 40
0.2345129698
 40
0.2911567736
 40
0.3532793076
 40
0.4205935515
 40
0.4927543969
 40
0.569349819
 40
0.6498990095
 40
0.8207387164
 40
1.0
 40
1.0
 40
1.0
 40
1.0
 10
9.8230132971
 20
4.2099239773
 30
0.0
 10
9.8229117755
 20
4.209646883
 30
0.0
 10
9.8226666423
 20
4.2091013069
 30
0.0
 10
9.8220109078
 20
4.2080560523
 30
0.0
 10
9.8208675524
 20
4.2068538039
 30
0.0
 10
9.8190824361
 20
4.2056538284
 30
0.0
 10
9.8168773144
 20
4.2046706776
 30
0.0
 10
9.8142710944
 20
4.2039040033
 30
0.0
 10
9.811281397
 20
4.2033547249
 30
0.0
 10
9.8079293912
 20
4.2030281731
 30
0.0
 10
9.8042411614
 20
4.2029254461
 30
0.0
 10
9.8002463568
 20
4.2030462243
 30
0.0
 10
9.7959772133
 20
4.2033914371
 30
0.0
 10
9.7914677062
 20
4.2039590379
 30
0.0
 10
9.7850553747
 20
4.2050262063
 30
0.0
 10
9.776721601
 20
4.206893783
 30
0.0
 10
9.7700556949
 20
4.2088322724
 30
0.0
 10
9.7666755721
 20
4.2099241537
 30
0.0
  0
SPLINE
  5
241
100
AcDbEntity
  8
0
100
AcDbSpline
 62
7
  6
CONTINUOUS
 70
0
 71
3
 72
11
 73
7
 74
0
 42
0.0000001
 43
0.0000001
 44
0.0000000001
 40
0.0
 40
0.0
 40
0.0
 40
0.0
 40
0.2394121024
 40
0.4856850011
 40
0.7391874042
 40
1.0
 40
1.0
 40
1.0
 40
1.0
 10
10.0120598004
 20
4.6150514707
 30
0.0
 10
9.9869733793
 20
4.5865267823
 30
0.0
 10
9.938471461
 20
4.5265067779
 30
0.0
 10
9.8727385739
 20
4.4291996363
 30
0.0
 10
9.8142553838
 20
4.3234566032
 30
0.0
 10
9.7814655551
 20
4.2485732754
 30
0.0
 10
9.7666755744
 20
4.2099243044
 30
0.0
  0
SPLINE
  5
242
100
AcDbEntity
  8
0
100
AcDbSpline
 62
7
  6
CONTINUOUS
 70
0
 71
3
 72
15
 73
11
 74
0
 42
0.0000001
 43
0.0000001
 44
0.0000000001
 40
0.0
 40
0.0
 40
0.0
 40
0.0
 40
0.1349035049
 40
0.26886185
 40
0.400680105
 40
0.5294477576
 40
0.6543731044
 40
0.7748179092
 40
0.8901993664
 40
1.0
 40
1.0
 40
1.0
 40
1.0
 10
10.0273388267
 20
4.6955653979
 30
0.0
 10
10.0273391298
 20
4.6918555317
 30
0.0
 10
10.0271687126
 20
4.6844606508
 30
0.0
 10
10.0264050975
 20
4.6734645043
 30
0.0
 10
10.0251384644
 20
4.6626844309
 30
0.0
 10
10.0233947447
 20
4.6522229158
 30
0.0
 10
10.0211984201
 20
4.6421667189
 30
0.0
 10
10.0185802325
 20
4.6325927308
 30
0.0
 10
10.0155713737
 20
4.6235717636
 30
0.0
 10
10.01327128
 20
4.6178173161
 30
0.0
 10
10.0120598004
 20
4.6150514707
 30
0.0
  0
SPLINE
  5
243
100
AcDbEntity
  8
0
100
AcDbSpline
 62
7
  6
CONTINUOUS
 70
0
 71
3
 72
15
 73
11
 74
0
 42
0.0000001
 43
0.0000001
 44
0.0000000001
 40
0.0
 40
0.0
 40
0.0
 40
0.0
 40
0.1349034946
 40
0.2688620296
 40
0.4006800584
 40
0.5294475032
 40
0.6543725949
 40
0.7748176374
 40
0.8902033278
 40
1.0
 40
1.0
 40
1.0
 40
1.0
 10
7.1473396629
 20
4.6955653979
 30
0.0
 10
7.1473397442
 20
4.6918555322
 30
0.0
 10
7.1475112576
 20
4.6844606681
 30
0.0
 10
7.148275851
 20
4.6734646175
 30
0.0
 10
7.1495414532
 20
4.6626844599
 30
0.0
 10
7.1512827289
 20
4.6522225827
 30
0.0
 10
7.1534760775
 20
4.642165721
 30
0.0
 10
7.1560953765
 20
4.6325917971
 30
0.0
 10
7.1591103281
 20
4.6235728144
 30
0.0
 10
7.1614101412
 20
4.6178184826
 30
0.0
 10
7.1626186814
 20
4.6150514707
 30
0.0
  0
SPLINE
  5
244
100
AcDbEntity
  8
0
100
AcDbSpline
 62
7
  6
CONTINUOUS
 70
0
 71
3
 72
18
 73
14
 74
0
 42
0.0000001
 43
0.0000001
 44
0.0000000001
 40
0.0
 40
0.0
 40
0.0
 40
0.0
 40
0.1595025739
 40
0.3103986145
 40
0.4507380613
 40
0.5797464638
 40
0.6974640517
 40
0.7524522411
 40
0.8051214464
 40
0.8557938573
 40
0.9048609584
 40
0.9527656419
 40
1.0
 40
1.0
 40
1.0
 40
1.0
 10
1.1626186815
 20
4.6150514706
 30
0.0
 10
1.1602769238
 20
4.6138976838
 30
0.0
 10
1.1556194982
 20
4.6118479162
 30
0.0
 10
1.1486026205
 20
4.6095307664
 30
0.0
 10
1.1418570174
 20
4.6081051044
 30
0.0
 10
1.1355232091
 20
4.6075946044
 30
0.0
 10
1.1305716957
 20
4.6079585949
 30
0.0
 10
1.1269628483
 20
4.6087473601
 30
0.0
 10
1.1244959297
 20
4.6095570927
 30
0.0
 10
1.1222225164
 20
4.6105970451
 30
0.0
 10
1.1201547057
 20
4.6118592232
 30
0.0
 10
1.1183048781
 20
4.6133349242
 30
0.0
 10
1.1172207306
 20
4.6144601167
 30
0.0
 10
1.1167227804
 20
4.6150514707
 30
0.0
  0
SPLINE
  5
245
100
AcDbEntity
  8
0
100
AcDbSpline
 62
7
  6
CONTINUOUS
 70
0
 71
3
 72
22
 73
18
 74
0
 42
0.0000001
 43
0.0000001
 44
0.0000000001
 40
0.0
 40
0.0
 40
0.0
 40
0.0
 40
0.1792608068
 40
0.3501001752
 40
0.4306491558
 40
0.5072443584
 40
0.5794050197
 40
0.6467191316
 40
0.7088415591
 40
0.7654852332
 40
0.8165188001
 40
0.8620228741
 40
0.9022775347
 40
0.9378936532
 40
0.9699332939
 40
0.985106972
 40
1.0
 40
1.0
 40
1.0
 40
1.0
 10
1.4080029754
 20
4.2099239773
 30
0.0
 10
1.4046228496
 20
4.208832099
 30
0.0
 10
1.3979569136
 20
4.2068936836
 30
0.0
 10
1.3896231166
 20
4.2050261883
 30
0.0
 10
1.3832107792
 20
4.2039590235
 30
0.0
 10
1.37870127
 20
4.2033914194
 30
0.0
 10
1.3744321228
 20
4.2030462106
 30
0.0
 10
1.3704373132
 20
4.2029254455
 30
0.0
 10
1.3667490793
 20
4.2030281859
 30
0.0
 10
1.3633970713
 20
4.2033547424
 30
0.0
 10
1.3604073705
 20
4.203904018
 30
0.0
 10
1.3578011422
 20
4.2046706978
 30
0.0
 10
1.3555960056
 20
4.205653877
 30
0.0
 10
1.3538108761
 20
4.2068539044
 30
0.0
 10
1.3526675084
 20
4.2080561932
 30
0.0
 10
1.3520117633
 20
4.2091014721
 30
0.0
 10
1.3517666259
 20
4.2096470566
 30
0.0
 10
1.3516651031
 20
4.2099241537
 30
0.0
  0
SPLINE
  5
246
100
AcDbEntity
  8
0
100
AcDbSpline
 62
7
  6
CONTINUOUS
 70
0
 71
3
 72
18
 73
14
 74
0
 42
0.0000001
 43
0.0000001
 44
0.0000000001
 40
0.0
 40
0.0
 40
0.0
 40
0.0
 40
0.0472343583
 40
0.095139042
 40
0.1442061432
 40
0.194878554
 40
0.2475477592
 40
0.3025359484
 40
0.4202535358
 40
0.549261938
 40
0.6896013848
 40
0.8404974256
 40
1.0
 40
1.0
 40
1.0
 40
1.0
 10
4.0579557014
 20
4.6150514706
 30
0.0
 10
4.0574577511
 20
4.6144601166
 30
0.0
 10
4.0563736036
 20
4.6133349241
 30
0.0
 10
4.054523776
 20
4.6118592231
 30
0.0
 10
4.0524559654
 20
4.610597045
 30
0.0
 10
4.050182552
 20
4.6095570927
 30
0.0
 10
4.0477156334
 20
4.60874736
 30
0.0
 10
4.044106786
 20
4.6079585949
 30
0.0
 10
4.0391552727
 20
4.6075946044
 30
0.0
 10
4.0328214644
 20
4.6081051044
 30
0.0
 10
4.0260758613
 20
4.6095307665
 30
0.0
 10
4.0190589837
 20
4.6118479163
 30
0.0
 10
4.0144015581
 20
4.6138976839
 30
0.0
 10
4.0120598004
 20
4.6150514707
 30
0.0
  0
SPLINE
  5
247
100
AcDbEntity
  8
0
100
AcDbSpline
 62
7
  6
CONTINUOUS
 70
0
 71
3
 72
11
 73
7
 74
0
 42
0.0000001
 43
0.0000001
 44
0.0000000001
 40
0.0
 40
0.0
 40
0.0
 40
0.0
 40
0.2394120977
 40
0.4856849918
 40
0.7391873979
 40
1.0
 40
1.0
 40
1.0
 40
1.0
 10
1.1626186814
 20
4.6150514707
 30
0.0
 10
1.1877051083
 20
4.5865267869
 30
0.0
 10
1.2362070108
 20
4.5265067673
 30
0.0
 10
1.3019398765
 20
4.429199609
 30
0.0
 10
1.3604230674
 20
4.3234565742
 30
0.0
 10
1.3932129399
 20
4.2485732601
 30
0.0
 10
1.4080029128
 20
4.2099242838
 30
0.0
  0
SPLINE
  5
248
100
AcDbEntity
  8
0
100
AcDbSpline
 62
7
  6
CONTINUOUS
 70
0
 71
3
 72
22
 73
18
 74
0
 42
0.0000001
 43
0.0000001
 44
0.0000000001
 40
0.0
 40
0.0
 40
0.0
 40
0.0
 40
0.0148929204
 40
0.0300663277
 40
0.0621052078
 40
0.0977206821
 40
0.13797511
 40
0.1834792457
 40
0.2345129698
 40
0.2911567736
 40
0.3532793076
 40
0.4205935515
 40
0.4927543969
 40
0.569349819
 40
0.6498990095
 40
0.8207387164
 40
1.0
 40
1.0
 40
1.0
 40
1.0
 10
3.8230132971
 20
4.2099239773
 30
0.0
 10
3.8229117755
 20
4.209646883
 30
0.0
 10
3.8226666423
 20
4.2091013069
 30
0.0
 10
3.8220109078
 20
4.2080560523
 30
0.0
 10
3.8208675524
 20
4.2068538039
 30
0.0
 10
3.8190824361
 20
4.2056538284
 30
0.0
 10
3.8168773144
 20
4.2046706776
 30
0.0
 10
3.8142710944
 20
4.2039040033
 30
0.0
 10
3.811281397
 20
4.2033547249
 30
0.0
 10
3.8079293912
 20
4.2030281731
 30
0.0
 10
3.8042411614
 20
4.2029254461
 30
0.0
 10
3.8002463568
 20
4.2030462243
 30
0.0
 10
3.7959772133
 20
4.2033914371
 30
0.0
 10
3.7914677062
 20
4.2039590379
 30
0.0
 10
3.7850553747
 20
4.2050262063
 30
0.0
 10
3.776721601
 20
4.206893783
 30
0.0
 10
3.7700556949
 20
4.2088322724
 30
0.0
 10
3.7666755721
 20
4.2099241537
 30
0.0
  0
SPLINE
  5
249
100
AcDbEntity
  8
0
100
AcDbSpline
 62
7
  6
CONTINUOUS
 70
0
 71
3
 72
11
 73
7
 74
0
 42
0.0000001
 43
0.0000001
 44
0.0000000001
 40
0.0
 40
0.0
 40
0.0
 40
0.0
 40
0.2394121024
 40
0.4856850011
 40
0.7391874042
 40
1.0
 40
1.0
 40
1.0
 40
1.0
 10
4.0120598004
 20
4.6150514707
 30
0.0
 10
3.9869733793
 20
4.5865267823
 30
0.0
 10
3.938471461
 20
4.5265067779
 30
0.0
 10
3.8727385739
 20
4.4291996363
 30
0.0
 10
3.8142553838
 20
4.3234566032
 30
0.0
 10
3.7814655551
 20
4.2485732754
 30
0.0
 10
3.7666755744
 20
4.2099243044
 30
0.0
  0
SPLINE
  5
24A
100
AcDbEntity
  8
0
100
AcDbSpline
 62
7
  6
CONTINUOUS
 70
0
 71
3
 72
15
 73
11
 74
0
 42
0.0000001
 43
0.0000001
 44
0.0000000001
 40
0.0
 40
0.0
 40
0.0
 40
0.0
 40
0.1349035049
 40
0.26886185
 40
0.400680105
 40
0.5294477576
 40
0.6543731044
 40
0.7748179092
 40
0.8901993664
 40
1.0
 40
1.0
 40
1.0
 40
1.0
 10
4.0273388267
 20
4.6955653979
 30
0.0
 10
4.0273391298
 20
4.6918555317
 30
0.0
 10
4.0271687126
 20
4.6844606508
 30
0.0
 10
4.0264050975
 20
4.6734645043
 30
0.0
 10
4.0251384644
 20
4.6626844309
 30
0.0
 10
4.0233947447
 20
4.6522229158
 30
0.0
 10
4.0211984201
 20
4.6421667189
 30
0.0
 10
4.0185802325
 20
4.6325927308
 30
0.0
 10
4.0155713737
 20
4.6235717636
 30
0.0
 10
4.01327128
 20
4.6178173161
 30
0.0
 10
4.0120598004
 20
4.6150514707
 30
0.0
  0
SPLINE
  5
24B
100
AcDbEntity
  8
0
100
AcDbSpline
 62
7
  6
CONTINUOUS
 70
0
 71
3
 72
15
 73
11
 74
0
 42
0.0000001
 43
0.0000001
 44
0.0000000001
 40
0.0
 40
0.0
 40
0.0
 40
0.0
 40
0.1349034946
 40
0.2688620296
 40
0.4006800584
 40
0.5294475032
 40
0.6543725949
 40
0.7748176374
 40
0.8902033278
 40
1.0
 40
1.0
 40
1.0
 40
1.0
 10
1.1473396629
 20
4.6955653979
 30
0.0
 10
1.1473397442
 20
4.6918555322
 30
0.0
 10
1.1475112576
 20
4.6844606681
 30
0.0
 10
1.148275851
 20
4.6734646175
 30
0.0
 10
1.1495414532
 20
4.6626844599
 30
0.0
 10
1.1512827289
 20
4.6522225827
 30
0.0
 10
1.1534760775
 20
4.642165721
 30
0.0
 10
1.1560953765
 20
4.6325917971
 30
0.0
 10
1.1591103281
 20
4.6235728144
 30
0.0
 10
1.1614101412
 20
4.6178184826
 30
0.0
 10
1.1626186814
 20
4.6150514707
 30
0.0
  0
ENDSEC
  0
SECTION
  2
OBJECTS
  0
DICTIONARY
  5
C
100
AcDbDictionary
280
0
281
1
  3
ACAD_GROUP
350
D
  3
ACAD_MLINESTYLE
350
17
  3
ACAD_LAYOUT
350
1A
  3
ACAD_PLOTSETTINGS
350
19
  3
ACAD_PLOTSTYLENAME
350
E
  0
DICTIONARY
  5
D
102
{ACAD_REACTORS
330
C
102
}
100
AcDbDictionary
280
0
281
1
  0
ACDBDICTIONARYWDFLT
  5
E
102
{ACAD_REACTORS
330
C
102
}
100
AcDbDictionary
281
1
  3
Normal
350
F
100
AcDbDictionaryWithDefault
340
F
  0
DICTIONARY
  5
17
102
{ACAD_REACTORS
330
C
102
}
100
AcDbDictionary
280
0
281
1
  3
Standard
350
18
  0
DICTIONARY
  5
19
102
{ACAD_REACTORS
330
C
102
}
100
AcDbDictionary
281
1
  0
DICTIONARY
  5
1A
102
{ACAD_REACTORS
330
C
102
}
100
AcDbDictionary
281
1
  3
Model
350
24C
  3
Layout1
350
24D
  0
ACDBPLACEHOLDER
  5
F
102
{ACAD_REACTORS
330
E
102
}
  0
MLINESTYLE
  5
18
102
{ACAD_REACTORS
330
17
102
}
100
AcDbMlineStyle
  2
STANDARD
 70
0
  3

 62
256
 51
90.0
 52
90.0
 71
2
 49
0.5
 62
256
  6
BYLAYER
 49
-0.5
 62
256
  6
BYLAYER
  0
LAYOUT
  5
24C
102
{ACAD_REACTORS
330
1A
102
}
100
AcDbPlotSettings
  1

  2
none_device
  4
ANSI_A_(11.00_x_8.50_Inches)
  6

 40
0.0
 41
0.0
 42
0.0
 43
0.0
 44
279.4
 45
215.9
 46
0.0
 47
0.0
 48
0.0
 49
0.0
140
0.0
141
0.0
142
1.0
143
1.0
 70
1024
 72
0
 73
0
 74
0
  7

 75
0
147
1.0
148
0.0
149
0.0
100
AcDbLayout
  1
Model
 70
0
 71
0
 10
0.0
 20
0.0
 11
11.0
 21
8.5
 12
0.0
 22
0.0
 32
0.0
 14
0.0
 24
0.0
 34
0.0
 15
0.0
 25
0.0
 35
0.0
146
0.0
 13
0.0
 23
0.0
 33
0.0
 16
1.0
 26
0.0
 36
0.0
 17
0.0
 27
1.0
 37
0.0
 76
0
330
20C
345
0
346
0
  0
LAYOUT
  5
24D
102
{ACAD_REACTORS
330
1A
102
}
100
AcDbPlotSettings
  1

  2
none_device
  4
ANSI_A_(11.00_x_8.50_Inches)
  6

 40
0.0
 41
0.0
 42
0.0
 43
0.0
 44
279.4
 45
215.9
 46
0.0
 47
0.0
 48
0.0
 49
0.0
140
0.0
141
0.0
142
1.0
143
1.0
 70
0
 72
0
 73
0
 74
0
  7

 75
0
147
1.0
148
0.0
149
0.0
100
AcDbLayout
  1
Layout1
 70
0
 71
1
 10
0.0
 20
0.0
 11
11.0
 21
8.5
 12
0.0
 22
0.0
 32
0.0
 14
0.0
 24
0.0
 34
0.0
 15
0.0
 25
0.0
 35
0.0
146
0.0
 13
0.0
 23
0.0
 33
0.0
 16
1.0
 26
0.0
 36
0.0
 17
0.0
 27
1.0
 37
0.0
 76
0
330
20D
345
0
346
0
  0
ENDSEC
  0
EOF
