999
DXF file: E:\BT Custom\CADOUTPUT\_FRONT.dxf
999
Pro/ENGINEER 2018400 by Parametric Technology Corporation
  0
SECTION
  2
HEADER
  9
$ACADVER
  1
AC1018
  9
$DWGCODEPAGE
  3
ANSI_1252
  9
$EXTMAX
 10
22.0
 20
17.0
 30
0.0
  9
$EXTMIN
 10
0.0
 20
0.0
 30
0.0
  9
$LIMMIN
 10
0.0
 20
0.0
  9
$LIMMAX
 10
22.0
 20
17.0
  9
$VIEWCTR
 10
11.0
 20
8.5
  9
$VIEWSIZE
 40
17.0
  9
$CLAYER
  8
0
  9
$LTSCALE
 40
1.21
  9
$CELTYPE
  6
BYLAYER
  9
$DIMSCALE
 40
1.0
  9
$DIMASZ
 40
0.1
  9
$DIMEXO
 40
0.0625
  9
$DIMDLI
 40
0.836
  9
$DIMEXE
 40
0.125
  9
$DIMCEN
 40
0.198
  9
$DIMLFAC
 40
1.0
  9
$DIMBLK
  1
_FILLED
  9
$DIMALT
 70
1
  9
$DIMALTD
 70
2
  9
$DIMALTTD
 70
2
  9
$DIMALTF
 40
25.4
  9
$DIMTXT
 40
0.08
  9
$DIMTOL
 70
1
  9
$DIMLIM
 70
0
  9
$DIMTFAC
 40
1.0
  9
$DIMTP
 40
0.001
  9
$DIMTM
 40
0.001
  9
$DIMGAP
 40
0.09
  9
$DIMDSEP
 70
46
  9
$AUNITS
 70
0
  9
$PDMODE
 70
3
  9
$PDSIZE
 40
0.06
  9
$HANDSEED
  5
28C
  9
$TILEMODE
 70
1
  9
$MEASUREMENT
 70
0
  9
$INSUNITS
 70
1
  0
ENDSEC
  0
SECTION
  2
CLASSES
  0
CLASS
  1
ACDBDICTIONARYWDFLT
  2
AcDbDictionaryWithDefault
  3
AutoCAD 2000
 90
0
 91
1
280
0
281
0
  0
CLASS
  1
ACDBPLACEHOLDER
  2
AcDbPlaceHolder
  3
AutoCAD 2000
 90
0
 91
1
280
0
281
0
  0
CLASS
  1
LAYOUT
  2
AcDbLayout
  3
AutoCAD 2000
 90
0
 91
0
280
0
281
0
  0
ENDSEC
  0
SECTION
  2
TABLES
  0
TABLE
  2
VPORT
  5
8
100
AcDbSymbolTable
 70
2
  0
VPORT
  5
1F4
100
AcDbSymbolTableRecord
100
AcDbViewportTableRecord
  2
*ACTIVE
 70
0
 10
0.0
 20
0.0
 11
1.0
 21
1.0
 12
11.0
 22
8.5
 13
0.0
 23
0.0
 14
1.0
 24
1.0
 15
0.0
 25
0.0
 16
0.0
 26
0.0
 36
1.0
 17
0.0
 27
0.0
 37
0.0
 40
17.0
 41
1.2941176471
 42
50.0
 43
0.0
 44
0.0
 50
0.0
 51
0.0
 71
0
 72
100
 73
1
 74
1
 75
0
 76
0
 77
0
 78
0
  0
ENDTAB
  0
TABLE
  2
LTYPE
  5
5
100
AcDbSymbolTable
 70
6
  0
LTYPE
  5
14
100
AcDbSymbolTableRecord
100
AcDbLinetypeTableRecord
  2
BYBLOCK
 70
0
  3

 72
65
 73
0
 40
0.0
  0
LTYPE
  5
15
100
AcDbSymbolTableRecord
100
AcDbLinetypeTableRecord
  2
BYLAYER
 70
0
  3

 72
65
 73
0
 40
0.0
  0
LTYPE
  5
16
100
AcDbSymbolTableRecord
100
AcDbLinetypeTableRecord
  2
CONTINUOUS
 70
64
  3
Solid line
 72
65
 73
0
 40
0.0
  0
LTYPE
  5
1F5
100
AcDbSymbolTableRecord
100
AcDbLinetypeTableRecord
  2
CENTER
 70
64
  3
____ _ ____ _ ____ _ ____ _ ____ _ ____ _ ____
 72
65
 73
4
 40
0.6
 49
0.375
 74
0
 49
-0.075
 74
0
 49
0.075
 74
0
 49
-0.075
 74
0
  0
LTYPE
  5
1F6
100
AcDbSymbolTableRecord
100
AcDbLinetypeTableRecord
  2
HIDDEN
 70
64
  3
- - - - - - - - - - - - - - - - - - - -
 72
65
 73
2
 40
0.2
 49
0.1
 74
0
 49
-0.1
 74
0
  0
LTYPE
  5
1F7
100
AcDbSymbolTableRecord
100
AcDbLinetypeTableRecord
  2
PHANTOM
 70
64
  3
_____ _ _ _____ _ _ _____ _ _ _____
 72
65
 73
6
 40
0.8
 49
0.45
 74
0
 49
-0.05
 74
0
 49
0.1
 74
0
 49
-0.05
 74
0
 49
0.1
 74
0
 49
-0.05
 74
0
  0
LTYPE
  5
1F8
100
AcDbSymbolTableRecord
100
AcDbLinetypeTableRecord
  2
DOT
 70
64
  3
. . . . . . . . . . . . . . . . . . . .
 72
65
 73
2
 40
0.2
 49
0.1
 74
0
 49
-0.1
 74
0
  0
LTYPE
  5
1F9
100
AcDbSymbolTableRecord
100
AcDbLinetypeTableRecord
  2
DASHED
 70
64
  3
- - - - - - - - - - - - - - - - - - - -
 72
65
 73
2
 40
0.2
 49
0.1
 74
0
 49
-0.1
 74
0
  0
ENDTAB
  0
TABLE
  2
LAYER
  5
2
100
AcDbSymbolTable
 70
36
  0
LAYER
  5
10
100
AcDbSymbolTableRecord
100
AcDbLayerTableRecord
  2
0
 70
0
 62
7
  6
CONTINUOUS
370
-3
390
F
  0
LAYER
  5
1FA
100
AcDbSymbolTableRecord
100
AcDbLayerTableRecord
  2
DEFAULT_1
 70
0
 62
7
  6
CENTER
370
-3
390
F
  0
LAYER
  5
1FB
100
AcDbSymbolTableRecord
100
AcDbLayerTableRecord
  2
DEFAULT_2
 70
0
 62
8
  6
HIDDEN
370
-3
390
F
  0
LAYER
  5
1FC
100
AcDbSymbolTableRecord
100
AcDbLayerTableRecord
  2
DEFAULT_3
 70
0
 62
7
  6
PHANTOM
370
-3
390
F
  0
LAYER
  5
1FD
100
AcDbSymbolTableRecord
100
AcDbLayerTableRecord
  2
ALL_FEATURES
 70
0
 62
7
  6
CONTINUOUS
370
-3
390
F
  0
LAYER
  5
1FE
100
AcDbSymbolTableRecord
100
AcDbLayerTableRecord
  2
AXES_FEATURES
 70
0
 62
7
  6
CONTINUOUS
370
-3
390
F
  0
LAYER
  5
1FF
100
AcDbSymbolTableRecord
100
AcDbLayerTableRecord
  2
DEFAULT_COORDINATE_SYSTEM
 70
0
 62
7
  6
CONTINUOUS
370
-3
390
F
  0
LAYER
  5
200
100
AcDbSymbolTableRecord
100
AcDbLayerTableRecord
  2
DEFAULT_DATUM_AXES
 70
0
 62
7
  6
CONTINUOUS
370
-3
390
F
  0
LAYER
  5
201
100
AcDbSymbolTableRecord
100
AcDbLayerTableRecord
  2
DEFAULT_DATUM_PLANES
 70
0
 62
7
  6
CONTINUOUS
370
-3
390
F
  0
LAYER
  5
202
100
AcDbSymbolTableRecord
100
AcDbLayerTableRecord
  2
DIMENSIONS
 70
0
 62
7
  6
CONTINUOUS
370
-3
390
F
  0
ENDTAB
  0
TABLE
  2
STYLE
  5
3
100
AcDbSymbolTable
 70
1
  0
STYLE
  5
11
100
AcDbSymbolTableRecord
100
AcDbTextStyleTableRecord
  2
STANDARD
 70
0
 40
0.0
 41
0.8
 50
0.0
 71
0
 42
0.2
  3
txt
  4

  0
STYLE
  5
203
100
AcDbSymbolTableRecord
100
AcDbTextStyleTableRecord
  2
TEXTSTYLE_1
 70
0
 40
0.0
 41
0.8
 50
0.0
 71
0
 42
0.2
  3
gdt
  4

  0
ENDTAB
  0
TABLE
  2
VIEW
  5
6
100
AcDbSymbolTable
 70
0
  0
ENDTAB
  0
TABLE
  2
UCS
  5
7
100
AcDbSymbolTable
 70
0
  0
ENDTAB
  0
TABLE
  2
APPID
  5
9
100
AcDbSymbolTable
 70
1
  0
APPID
  5
204
100
AcDbSymbolTableRecord
100
AcDbRegAppTableRecord
  2
ACAD
 70
0
  0
ENDTAB
  0
TABLE
  2
BLOCK_RECORD
  5
1
100
AcDbSymbolTable
 70
0
  0
BLOCK_RECORD
  5
205
100
AcDbSymbolTableRecord
100
AcDbBlockTableRecord
  2
*Model_Space
  0
BLOCK_RECORD
  5
206
100
AcDbSymbolTableRecord
100
AcDbBlockTableRecord
  2
*Paper_Space
  0
BLOCK_RECORD
  5
207
100
AcDbSymbolTableRecord
100
AcDbBlockTableRecord
  2
_FILLED
  0
ENDTAB
  0
TABLE
  2
DIMSTYLE
  5
A
100
AcDbSymbolTable
 70
1
100
AcDbDimStyleTable
 71
0
  0
DIMSTYLE
105
208
100
AcDbSymbolTableRecord
100
AcDbDimStyleTableRecord
  2
STANDARD
 70
0
  3

  4

 40
1.0
 41
0.1
 42
0.0625
 43
0.38
 44
0.125
 45
0.0
 46
0.0
 47
0.001
 48
0.001
140
0.08
141
0.09
142
0.0
143
25.4
144
1.0
145
0.0
146
1.0
147
0.09
 71
1.0
 72
0.0
 73
1
 74
1
 75
0
 76
0
 77
0
 78
4
 79
1
170
1
171
2
172
0
173
0
174
0
175
0
176
0
177
0
178
0
270
2
179
3
271
3
272
3
273
2
274
2
275
0
280
0
281
0
282
0
283
1
284
4
285
0
286
0
287
3
288
0
340
11
278
46
341
207
342
207
343
207
344
207
  0
ENDTAB
  0
ENDSEC
  0
SECTION
  2
BLOCKS
  0
BLOCK
  5
20
100
AcDbEntity
  8
0
100
AcDbBlockBegin
  2
*Model_Space
 70
0
 10
0.0
 20
0.0
 30
0.0
  3
*Model_Space
  1

  0
ENDBLK
  5
21
100
AcDbEntity
  8
0
100
AcDbBlockEnd
  0
BLOCK
  5
1C
100
AcDbEntity
  8
0
100
AcDbBlockBegin
  2
*Paper_Space
 70
0
 10
0.0
 20
0.0
 30
0.0
  3
*Paper_Space
  1

  0
ENDBLK
  5
1D
100
AcDbEntity
  8
0
100
AcDbBlockEnd
  0
BLOCK
  5
209
100
AcDbEntity
  8
0
100
AcDbBlockBegin
  2
_FILLED
 70
64
 10
0.0
 20
0.0
  3
_FILLED
  1

  0
SOLID
  5
20A
100
AcDbEntity
  8
0
  6
BYBLOCK
 62
0
100
AcDbTrace
 10
0.0
 20
0.0
 11
-1.0
 21
0.2
 12
-1.0
 22
-0.2
 13
-1.0
 23
-0.2
  0
ENDBLK
  5
20B
100
AcDbEntity
  8
0
  6
BYBLOCK
 62
0
100
AcDbBlockEnd
  0
ENDSEC
  0
SECTION
  2
ENTITIES
  0
LINE
  5
20C
100
AcDbEntity
  8
0
100
AcDbLine
 62
7
  6
CONTINUOUS
 10
1.4376923427
 20
10.7076385546
 11
1.4376923427
 21
7.8276741572
  0
LINE
  5
20D
100
AcDbEntity
  8
0
100
AcDbLine
 62
9
  6
CONTINUOUS
 10
1.4670758822
 20
10.6923900616
 11
1.4670758822
 21
7.8429489427
  0
LINE
  5
20E
100
AcDbEntity
  8
0
100
AcDbLine
 62
9
  6
CONTINUOUS
 10
1.7020186161
 20
10.4470058357
 11
1.7020186237
 21
8.0883331741
  0
LINE
  5
20F
100
AcDbEntity
  8
0
100
AcDbLine
 62
9
  6
CONTINUOUS
 10
1.7583560773
 20
10.5033431621
 11
1.7583560116
 21
8.0319957755
  0
LINE
  5
210
100
AcDbEntity
  8
0
100
AcDbLine
 62
7
  6
CONTINUOUS
 10
4.0426923427
 20
8.6426695021
 11
4.0426923427
 21
9.8926695021
  0
LINE
  5
211
100
AcDbEntity
  8
0
100
AcDbLine
 62
7
  6
CONTINUOUS
 10
4.0626923427
 20
8.6626695021
 11
4.0626923427
 21
9.8726695021
  0
LINE
  5
212
100
AcDbEntity
  8
0
100
AcDbLine
 62
7
  6
CONTINUOUS
 10
4.0826923427
 20
8.6426695021
 11
4.0826923427
 21
9.8926695021
  0
LINE
  5
213
100
AcDbEntity
  8
0
100
AcDbLine
 62
9
  6
CONTINUOUS
 10
4.1170292129
 20
8.0319955544
 11
4.1170282911
 21
8.6426695021
  0
LINE
  5
214
100
AcDbEntity
  8
0
100
AcDbLine
 62
9
  6
CONTINUOUS
 10
4.1170282911
 20
9.8926695021
 11
4.1170286739
 21
10.5033432287
  0
LINE
  5
215
100
AcDbEntity
  8
0
100
AcDbLine
 62
9
  6
CONTINUOUS
 10
4.1733662117
 20
8.0883327313
 11
4.1733661765
 21
8.6426695021
  0
LINE
  5
216
100
AcDbEntity
  8
0
100
AcDbLine
 62
9
  6
CONTINUOUS
 10
4.173366097
 20
9.8926695021
 11
4.1733660618
 21
10.4470058302
  0
LINE
  5
217
100
AcDbEntity
  8
0
100
AcDbLine
 62
9
  6
CONTINUOUS
 10
4.4083088033
 20
7.8429489427
 11
4.4083088033
 21
8.6426695021
  0
LINE
  5
218
100
AcDbEntity
  8
0
100
AcDbLine
 62
9
  6
CONTINUOUS
 10
4.4083088033
 20
9.8926695021
 11
4.4083088033
 21
10.6923900616
  0
LINE
  5
219
100
AcDbEntity
  8
0
100
AcDbLine
 62
7
  6
CONTINUOUS
 10
4.4376923427
 20
7.8276797682
 11
4.4376923427
 21
8.6426695021
  0
LINE
  5
21A
100
AcDbEntity
  8
0
100
AcDbLine
 62
7
  6
CONTINUOUS
 10
4.4376923427
 20
9.8926695021
 11
4.4376923427
 21
10.7076648471
  0
LINE
  5
21B
100
AcDbEntity
  8
0
100
AcDbLine
 62
7
  6
CONTINUOUS
 10
4.0626923427
 20
9.8726695021
 11
4.0826923427
 21
9.8926695021
  0
LINE
  5
21C
100
AcDbEntity
  8
0
100
AcDbLine
 62
7
  6
CONTINUOUS
 10
4.0626923427
 20
8.6626695021
 11
4.0826923427
 21
8.6426695021
  0
LINE
  5
21D
100
AcDbEntity
  8
0
100
AcDbLine
 62
7
  6
CONTINUOUS
 10
4.0626923427
 20
8.6626695021
 11
4.0426923427
 21
8.6426695021
  0
LINE
  5
21E
100
AcDbEntity
  8
0
100
AcDbLine
 62
7
  6
CONTINUOUS
 10
4.0626923427
 20
9.8726695021
 11
4.0426923427
 21
9.8926695021
  0
LINE
  5
21F
100
AcDbEntity
  8
0
100
AcDbLine
 62
7
  6
CONTINUOUS
 10
20.3776206755
 20
7.7676695021
 11
17.4977232903
 21
7.7676695021
  0
LINE
  5
220
100
AcDbEntity
  8
0
100
AcDbLine
 62
7
  6
CONTINUOUS
 10
4.3776206755
 20
7.7676695021
 11
1.4977232903
 21
7.7676695021
  0
LINE
  5
221
100
AcDbEntity
  8
0
100
AcDbLine
 62
9
  6
CONTINUOUS
 10
1.5129717833
 20
7.7970530416
 11
4.3624129022
 21
7.7970530416
  0
LINE
  5
222
100
AcDbEntity
  8
0
100
AcDbLine
 62
9
  6
CONTINUOUS
 10
17.5129717833
 20
7.7970530416
 11
20.3624129022
 21
7.7970530416
  0
LINE
  5
223
100
AcDbEntity
  8
0
100
AcDbLine
 62
9
  6
CONTINUOUS
 10
1.7583560092
 20
8.0319957755
 11
4.1170291234
 21
8.0319956386
  0
LINE
  5
224
100
AcDbEntity
  8
0
100
AcDbLine
 62
9
  6
CONTINUOUS
 10
17.7583560092
 20
8.0319957755
 11
20.1170291234
 21
8.0319956386
  0
LINE
  5
225
100
AcDbEntity
  8
0
100
AcDbLine
 62
9
  6
CONTINUOUS
 10
1.7020186828
 20
8.0883332367
 11
4.1733662117
 21
8.0883327278
  0
LINE
  5
226
100
AcDbEntity
  8
0
100
AcDbLine
 62
9
  6
CONTINUOUS
 10
20.1733662117
 20
8.0883327278
 11
17.7020186828
 21
8.0883332367
  0
LINE
  5
227
100
AcDbEntity
  8
0
100
AcDbLine
 62
7
  6
CONTINUOUS
 10
4.0426923427
 20
8.6426695021
 11
2.9377008818
 21
8.6426695021
  0
LINE
  5
228
100
AcDbEntity
  8
0
100
AcDbLine
 62
7
  6
CONTINUOUS
 10
4.0826923427
 20
8.6426695021
 11
17.7926923427
 21
8.6426695021
  0
LINE
  5
229
100
AcDbEntity
  8
0
100
AcDbLine
 62
7
  6
CONTINUOUS
 10
17.8326923427
 20
8.6426695021
 11
18.9376826505
 21
8.6426695021
  0
LINE
  5
22A
100
AcDbEntity
  8
0
100
AcDbLine
 62
7
  6
CONTINUOUS
 10
4.0426923427
 20
9.8926695021
 11
2.937702035
 21
9.8926695021
  0
LINE
  5
22B
100
AcDbEntity
  8
0
100
AcDbLine
 62
7
  6
CONTINUOUS
 10
4.0826923427
 20
9.8926695021
 11
17.7926923427
 21
9.8926695021
  0
LINE
  5
22C
100
AcDbEntity
  8
0
100
AcDbLine
 62
7
  6
CONTINUOUS
 10
17.8326923427
 20
9.8926695021
 11
18.9376838037
 21
9.8926695021
  0
LINE
  5
22D
100
AcDbEntity
  8
0
100
AcDbLine
 62
9
  6
CONTINUOUS
 10
4.1733660027
 20
10.4470057676
 11
1.7020186161
 21
10.4470058333
  0
LINE
  5
22E
100
AcDbEntity
  8
0
100
AcDbLine
 62
9
  6
CONTINUOUS
 10
17.7020186161
 20
10.4470058333
 11
20.1733660027
 21
10.4470057676
  0
LINE
  5
22F
100
AcDbEntity
  8
0
100
AcDbLine
 62
9
  6
CONTINUOUS
 10
20.1170286762
 20
10.5033432287
 11
17.7583560147
 21
10.5033432212
  0
LINE
  5
230
100
AcDbEntity
  8
0
100
AcDbLine
 62
9
  6
CONTINUOUS
 10
4.1170286762
 20
10.5033432287
 11
1.7583560147
 21
10.5033432212
  0
LINE
  5
231
100
AcDbEntity
  8
0
100
AcDbLine
 62
9
  6
CONTINUOUS
 10
20.3624129022
 20
10.7382859627
 11
17.5129717833
 21
10.7382859627
  0
LINE
  5
232
100
AcDbEntity
  8
0
100
AcDbLine
 62
9
  6
CONTINUOUS
 10
4.3624129022
 20
10.7382859627
 11
1.5129717833
 21
10.7382859627
  0
LINE
  5
233
100
AcDbEntity
  8
0
100
AcDbLine
 62
7
  6
CONTINUOUS
 10
20.3776613952
 20
10.7676695021
 11
17.4976969978
 21
10.7676695021
  0
LINE
  5
234
100
AcDbEntity
  8
0
100
AcDbLine
 62
7
  6
CONTINUOUS
 10
4.3776613952
 20
10.7676695021
 11
1.4976969978
 21
10.7676695021
  0
LINE
  5
235
100
AcDbEntity
  8
0
100
AcDbLine
 62
7
  6
CONTINUOUS
 10
17.8126923427
 20
9.8726695021
 11
17.8326923427
 21
9.8926695021
  0
LINE
  5
236
100
AcDbEntity
  8
0
100
AcDbLine
 62
7
  6
CONTINUOUS
 10
17.8126923427
 20
8.6626695021
 11
17.8326923427
 21
8.6426695021
  0
LINE
  5
237
100
AcDbEntity
  8
0
100
AcDbLine
 62
7
  6
CONTINUOUS
 10
17.8126923427
 20
8.6626695021
 11
17.7926923427
 21
8.6426695021
  0
LINE
  5
238
100
AcDbEntity
  8
0
100
AcDbLine
 62
7
  6
CONTINUOUS
 10
17.8126923427
 20
9.8726695021
 11
17.7926923427
 21
9.8926695021
  0
LINE
  5
239
100
AcDbEntity
  8
0
100
AcDbLine
 62
7
  6
CONTINUOUS
 10
17.4376923427
 20
10.7076385546
 11
17.4376923427
 21
9.8926695021
  0
LINE
  5
23A
100
AcDbEntity
  8
0
100
AcDbLine
 62
7
  6
CONTINUOUS
 10
17.4376923427
 20
8.6426695021
 11
17.4376923427
 21
7.8276741572
  0
LINE
  5
23B
100
AcDbEntity
  8
0
100
AcDbLine
 62
9
  6
CONTINUOUS
 10
17.4670758822
 20
10.6923900616
 11
17.4670758822
 21
9.8926695021
  0
LINE
  5
23C
100
AcDbEntity
  8
0
100
AcDbLine
 62
9
  6
CONTINUOUS
 10
17.4670758822
 20
8.6426695021
 11
17.4670758822
 21
7.8429489427
  0
LINE
  5
23D
100
AcDbEntity
  8
0
100
AcDbLine
 62
9
  6
CONTINUOUS
 10
17.7020186161
 20
10.4470058357
 11
17.7020186179
 21
9.8926695021
  0
LINE
  5
23E
100
AcDbEntity
  8
0
100
AcDbLine
 62
9
  6
CONTINUOUS
 10
17.7020186219
 20
8.6426695021
 11
17.7020186237
 21
8.0883331741
  0
LINE
  5
23F
100
AcDbEntity
  8
0
100
AcDbLine
 62
9
  6
CONTINUOUS
 10
17.7583560773
 20
10.5033431621
 11
17.7583563944
 21
9.8926695021
  0
LINE
  5
240
100
AcDbEntity
  8
0
100
AcDbLine
 62
9
  6
CONTINUOUS
 10
17.7583563944
 20
8.6426695021
 11
17.7583560116
 21
8.0319957755
  0
LINE
  5
241
100
AcDbEntity
  8
0
100
AcDbLine
 62
7
  6
CONTINUOUS
 10
17.7926923427
 20
9.8926695021
 11
17.7926923427
 21
8.6426695021
  0
LINE
  5
242
100
AcDbEntity
  8
0
100
AcDbLine
 62
7
  6
CONTINUOUS
 10
17.8126923427
 20
9.8726695021
 11
17.8126923427
 21
8.6626695021
  0
LINE
  5
243
100
AcDbEntity
  8
0
100
AcDbLine
 62
7
  6
CONTINUOUS
 10
17.8326923427
 20
9.8926695021
 11
17.8326923427
 21
8.6426695021
  0
LINE
  5
244
100
AcDbEntity
  8
0
100
AcDbLine
 62
9
  6
CONTINUOUS
 10
20.1170292129
 20
8.0319955544
 11
20.1170286739
 21
10.5033432287
  0
LINE
  5
245
100
AcDbEntity
  8
0
100
AcDbLine
 62
9
  6
CONTINUOUS
 10
20.1733662117
 20
8.0883327313
 11
20.1733660618
 21
10.4470058302
  0
LINE
  5
246
100
AcDbEntity
  8
0
100
AcDbLine
 62
9
  6
CONTINUOUS
 10
20.4083088033
 20
7.8429489427
 11
20.4083088033
 21
10.6923900616
  0
LINE
  5
247
100
AcDbEntity
  8
0
100
AcDbLine
 62
7
  6
CONTINUOUS
 10
20.4376923427
 20
7.8276797682
 11
20.4376923427
 21
10.7076648471
  0
ARC
  5
248
100
AcDbEntity
  8
0
100
AcDbCircle
 62
7
  6
CONTINUOUS
 10
2.9376923427
 20
9.2676695021
 40
0.875
100
AcDbArc
 50
45.7334028339
 51
314.2665971598
  0
ARC
  5
249
100
AcDbEntity
  8
0
100
AcDbCircle
 62
7
  6
CONTINUOUS
 10
18.9376923427
 20
9.2676695021
 40
0.875
100
AcDbArc
 50
225.6206596226
 51
134.3793403794
  0
ARC
  5
24A
100
AcDbEntity
  8
0
100
AcDbCircle
 62
9
  6
CONTINUOUS
 10
2.9376923427
 20
9.2676695021
 40
0.815
100
AcDbArc
 50
50.1691154926
 51
309.8308844891
  0
ARC
  5
24B
100
AcDbEntity
  8
0
100
AcDbCircle
 62
9
  6
CONTINUOUS
 10
18.9376923427
 20
9.2676695021
 40
0.815
100
AcDbArc
 50
230.1549054094
 51
129.8450945854
  0
ARC
  5
24C
100
AcDbEntity
  8
0
100
AcDbCircle
 62
7
  6
CONTINUOUS
 10
2.9376923427
 20
9.2676695021
 40
0.625
100
AcDbArc
 50
90.0
 51
270.0
  0
ARC
  5
24D
100
AcDbEntity
  8
0
100
AcDbCircle
 62
7
  6
CONTINUOUS
 10
18.9376923427
 20
9.2676695021
 40
0.625
100
AcDbArc
 50
270.0
 51
90.0
  0
ARC
  5
24E
100
AcDbEntity
  8
0
100
AcDbCircle
 62
7
  6
CONTINUOUS
 10
4.3776919207
 20
10.7076690801
 40
0.0599996104
100
AcDbArc
 50
359.9959577646
 51
90.029149474
  0
ARC
  5
24F
100
AcDbEntity
  8
0
100
AcDbCircle
 62
7
  6
CONTINUOUS
 10
1.4976927648
 20
10.7076690801
 40
0.0599996104
100
AcDbArc
 50
89.9959577601
 51
180.029149474
  0
ARC
  5
250
100
AcDbEntity
  8
0
100
AcDbCircle
 62
7
  6
CONTINUOUS
 10
1.4976927648
 20
7.8276699242
 40
0.0599996104
100
AcDbArc
 50
179.9959577601
 51
270.0291495547
  0
ARC
  5
251
100
AcDbEntity
  8
0
100
AcDbCircle
 62
7
  6
CONTINUOUS
 10
20.3776919207
 20
10.7076690801
 40
0.0599996104
100
AcDbArc
 50
359.9959577646
 51
90.029149474
  0
ARC
  5
252
100
AcDbEntity
  8
0
100
AcDbCircle
 62
7
  6
CONTINUOUS
 10
17.4976927648
 20
10.7076690801
 40
0.0599996104
100
AcDbArc
 50
89.9959577601
 51
180.029149474
  0
ARC
  5
253
100
AcDbEntity
  8
0
100
AcDbCircle
 62
7
  6
CONTINUOUS
 10
17.4976927648
 20
7.8276699242
 40
0.0599996104
100
AcDbArc
 50
179.9959577601
 51
270.0291495547
  0
ARC
  5
254
100
AcDbEntity
  8
0
100
AcDbCircle
 62
7
  6
CONTINUOUS
 10
4.3776914122
 20
7.8276704327
 40
0.059999141
100
AcDbArc
 50
269.9324524785
 51
0.0089146424
  0
ARC
  5
255
100
AcDbEntity
  8
0
100
AcDbCircle
 62
7
  6
CONTINUOUS
 10
20.3776914122
 20
7.8276704327
 40
0.059999141
100
AcDbArc
 50
269.9324524785
 51
0.0089146424
  0
SPLINE
  5
256
100
AcDbEntity
  8
0
100
AcDbSpline
 62
9
  6
CONTINUOUS
 70
0
 71
3
 72
35
 73
31
 74
0
 42
0.0000001
 43
0.0000001
 44
0.0000000001
 40
0.0
 40
0.0
 40
0.0
 40
0.0
 40
0.0165400406
 40
0.0331973209
 40
0.0502377216
 40
0.0678611864
 40
0.0862160409
 40
0.1054302367
 40
0.1468252028
 40
0.1692117386
 40
0.1928074121
 40
0.217656135
 40
0.2437872098
 40
0.2712192613
 40
0.2999610588
 40
0.3300133192
 40
0.361367079
 40
0.3940046551
 40
0.4278948089
 40
0.4992734486
 40
0.5751324291
 40
0.6549606197
 40
0.6961743047
 40
0.7381372605
 40
0.7807557645
 40
0.8239275224
 40
0.8675466553
 40
0.9115080638
 40
0.9557022267
 40
1.0
 40
1.0
 40
1.0
 40
1.0
 10
18.9376923427
 20
9.8926695021
 30
0.0
 10
18.9416567368
 20
9.8926678065
 30
0.0
 10
18.9496215856
 20
9.8921975522
 30
0.0
 10
18.9614999583
 20
9.8900712447
 30
0.0
 10
18.9733075043
 20
9.8865325034
 30
0.0
 10
18.9850406536
 20
9.8815936567
 30
0.0
 10
18.9966796311
 20
9.8752624628
 30
0.0
 10
19.0124234197
 20
9.8647186742
 30
0.0
 10
19.0274579751
 20
9.8515483254
 30
0.0
 10
19.0417415728
 20
9.8362222488
 30
0.0
 10
19.0525263051
 20
9.8230955899
 30
0.0
 10
19.0630763941
 20
9.8086563349
 30
0.0
 10
19.0733656381
 20
9.7929195494
 30
0.0
 10
19.0833667745
 20
9.7759075324
 30
0.0
 10
19.0930541634
 20
9.7576446078
 30
0.0
 10
19.1024030781
 20
9.7381588464
 30
0.0
 10
19.1113970053
 20
9.7174849695
 30
0.0
 10
19.12001569
 20
9.6956599913
 30
0.0
 10
19.1311538234
 20
9.6645337408
 30
0.0
 10
19.1438479481
 20
9.6229892859
 30
0.0
 10
19.1569417737
 20
9.5701407023
 30
0.0
 10
19.165998372
 20
9.5238032706
 30
0.0
 10
19.1721632542
 20
9.4852203868
 30
0.0
 10
19.176252969
 20
9.4553452727
 30
0.0
 10
19.1797580442
 20
9.4249238222
 30
0.0
 10
19.1826533099
 20
9.3940393529
 30
0.0
 10
19.184896733
 20
9.3627779733
 30
0.0
 10
19.18649304
 20
9.3312317585
 30
0.0
 10
19.1874697333
 20
9.2994977945
 30
0.0
 10
19.1876930888
 20
9.2782869999
 30
0.0
 10
19.1876923427
 20
9.2676695021
 30
0.0
  0
SPLINE
  5
257
100
AcDbEntity
  8
0
100
AcDbSpline
 62
9
  6
CONTINUOUS
 70
0
 71
3
 72
36
 73
32
 74
0
 42
0.0000001
 43
0.0000001
 44
0.0000000001
 40
0.0
 40
0.0
 40
0.0
 40
0.0
 40
0.0442975209
 40
0.0884914199
 40
0.1324525857
 40
0.176071443
 40
0.2192429304
 40
0.2618612238
 40
0.3038239024
 40
0.3450372523
 40
0.3854134181
 40
0.4248709646
 40
0.5007293156
 40
0.5721077825
 40
0.6059978281
 40
0.6386351398
 40
0.6699884909
 40
0.7000403698
 40
0.7287820712
 40
0.7562142565
 40
0.7823453528
 40
0.8071938846
 40
0.8307894291
 40
0.8531760404
 40
0.8945703844
 40
0.9137839735
 40
0.9321389457
 40
0.9497633227
 40
0.9668048676
 40
0.983462399
 40
1.0
 40
1.0
 40
1.0
 40
1.0
 10
19.1876923427
 20
9.2676695021
 30
0.0
 10
19.1876928695
 20
9.2570520039
 30
0.0
 10
19.1874699121
 20
9.235841216
 30
0.0
 10
19.1864943235
 20
9.2041072133
 30
0.0
 10
19.1848980528
 20
9.1725609947
 30
0.0
 10
19.1826532403
 20
9.141299708
 30
0.0
 10
19.1797555106
 20
9.1104154891
 30
0.0
 10
19.1762504127
 20
9.0799940268
 30
0.0
 10
19.1721639057
 20
9.0501186812
 30
0.0
 10
19.1674926767
 20
9.0208730693
 30
0.0
 10
19.162244979
 20
8.9923353543
 30
0.0
 10
19.1546127399
 20
8.9558039269
 30
0.0
 10
19.1438501709
 20
8.9123486878
 30
0.0
 10
19.1311534009
 20
8.8708054494
 30
0.0
 10
19.1200148152
 20
8.8396792622
 30
0.0
 10
19.1113964617
 20
8.817854226
 30
0.0
 10
19.1024033602
 20
8.7971801266
 30
0.0
 10
19.0930551355
 20
8.777694124
 30
0.0
 10
19.0833675376
 20
8.759431254
 30
0.0
 10
19.0733656968
 20
8.742419502
 30
0.0
 10
19.0630761268
 20
8.7266828228
 30
0.0
 10
19.0525261625
 20
8.7122434442
 30
0.0
 10
19.0417414557
 20
8.6991167032
 30
0.0
 10
19.0274575865
 20
8.6837909332
 30
0.0
 10
19.0124233694
 20
8.6706205223
 30
0.0
 10
18.996680026
 20
8.6600763313
 30
0.0
 10
18.9850407921
 20
8.6537451982
 30
0.0
 10
18.9733069131
 20
8.6488065462
 30
0.0
 10
18.9614987028
 20
8.6452678893
 30
0.0
 10
18.9496205486
 20
8.6431414699
 30
0.0
 10
18.9416561749
 20
8.6426711074
 30
0.0
 10
18.9376923427
 20
8.6426695021
 30
0.0
  0
LINE
  5
258
100
AcDbEntity
  8
0
100
AcDbLine
 62
9
  6
CONTINUOUS
 10
4.4083088033
 20
10.6923900616
 11
4.1733660618
 21
10.4470058302
  0
LINE
  5
259
100
AcDbEntity
  8
0
100
AcDbLine
 62
9
  6
CONTINUOUS
 10
4.1733662117
 20
8.0883327313
 11
4.4083088033
 21
7.8429489427
  0
LINE
  5
25A
100
AcDbEntity
  8
0
100
AcDbLine
 62
9
  6
CONTINUOUS
 10
4.4083088033
 20
7.8429489427
 11
4.4376923429
 21
7.8276704391
  0
LINE
  5
25B
100
AcDbEntity
  8
0
100
AcDbLine
 62
9
  6
CONTINUOUS
 10
4.4376923427
 20
10.7076690801
 11
4.4083088033
 21
10.6923900616
  0
LINE
  5
25C
100
AcDbEntity
  8
0
100
AcDbLine
 62
9
  6
CONTINUOUS
 10
1.5129717833
 20
10.7382859627
 11
1.7583560147
 21
10.5033432212
  0
LINE
  5
25D
100
AcDbEntity
  8
0
100
AcDbLine
 62
9
  6
CONTINUOUS
 10
4.3624129022
 20
10.7382859627
 11
4.1170286762
 21
10.5033432287
  0
LINE
  5
25E
100
AcDbEntity
  8
0
100
AcDbLine
 62
9
  6
CONTINUOUS
 10
4.3776919286
 20
10.7676695021
 11
4.3624129022
 21
10.7382859627
  0
LINE
  5
25F
100
AcDbEntity
  8
0
100
AcDbLine
 62
9
  6
CONTINUOUS
 10
1.4976927648
 20
10.7676695021
 11
1.5129717833
 21
10.7382859627
  0
LINE
  5
260
100
AcDbEntity
  8
0
100
AcDbLine
 62
9
  6
CONTINUOUS
 10
1.4670758822
 20
7.8429489427
 11
1.7020186237
 21
8.0883331741
  0
LINE
  5
261
100
AcDbEntity
  8
0
100
AcDbLine
 62
9
  6
CONTINUOUS
 10
1.4670758822
 20
10.6923900616
 11
1.7020186161
 21
10.4470058357
  0
LINE
  5
262
100
AcDbEntity
  8
0
100
AcDbLine
 62
9
  6
CONTINUOUS
 10
1.4376923427
 20
10.707669088
 11
1.4670758822
 21
10.6923900616
  0
LINE
  5
263
100
AcDbEntity
  8
0
100
AcDbLine
 62
9
  6
CONTINUOUS
 10
1.4376923427
 20
7.8276699242
 11
1.4670758822
 21
7.8429489427
  0
LINE
  5
264
100
AcDbEntity
  8
0
100
AcDbLine
 62
9
  6
CONTINUOUS
 10
4.1170291234
 20
8.0319956386
 11
4.3624129022
 21
7.7970530416
  0
LINE
  5
265
100
AcDbEntity
  8
0
100
AcDbLine
 62
9
  6
CONTINUOUS
 10
1.5129717833
 20
7.7970530416
 11
1.7583560092
 21
8.0319957755
  0
LINE
  5
266
100
AcDbEntity
  8
0
100
AcDbLine
 62
9
  6
CONTINUOUS
 10
1.4976927569
 20
7.7676695021
 11
1.5129717833
 21
7.7970530416
  0
LINE
  5
267
100
AcDbEntity
  8
0
100
AcDbLine
 62
9
  6
CONTINUOUS
 10
4.3624129022
 20
7.7970530416
 11
4.3776914444
 21
7.7676694977
  0
SPLINE
  5
268
100
AcDbEntity
  8
0
100
AcDbSpline
 62
9
  6
CONTINUOUS
 70
0
 71
3
 72
15
 73
11
 74
0
 42
0.0000001
 43
0.0000001
 44
0.0000000001
 40
0.0
 40
0.0
 40
0.0
 40
0.0
 40
0.1223023853
 40
0.2468224483
 40
0.3729782306
 40
0.5000002447
 40
0.6270222494
 40
0.7531780073
 40
0.8776980419
 40
1.0
 40
1.0
 40
1.0
 40
1.0
 10
4.1733663989
 20
10.4470057676
 30
0.0
 10
4.1729564865
 20
10.4504692961
 30
0.0
 10
4.1714982484
 20
10.4573984547
 30
0.0
 10
4.1675542094
 20
10.4673272781
 30
0.0
 10
4.1619619822
 20
10.4765894425
 30
0.0
 10
4.1549050289
 20
10.484882193
 30
0.0
 10
4.146612288
 20
10.4919391542
 30
0.0
 10
4.1373501328
 20
10.4975313993
 30
0.0
 10
4.1274213191
 20
10.5014754111
 30
0.0
 10
4.12049219
 20
10.5029337269
 30
0.0
 10
4.1170286739
 20
10.50334364
 30
0.0
  0
SPLINE
  5
269
100
AcDbEntity
  8
0
100
AcDbSpline
 62
9
  6
CONTINUOUS
 70
0
 71
3
 72
15
 73
11
 74
0
 42
0.0000001
 43
0.0000001
 44
0.0000000001
 40
0.0
 40
0.0
 40
0.0
 40
0.0
 40
0.1198826647
 40
0.244111818
 40
0.3712836318
 40
0.5000000001
 40
0.6287163684
 40
0.755888182
 40
0.8801173353
 40
1.0
 40
1.0
 40
1.0
 40
1.0
 10
4.4083088032
 20
10.6923900615
 30
0.0
 10
4.4072913166
 20
10.6948425484
 30
0.0
 10
4.4049357439
 20
10.6997224882
 30
0.0
 10
4.4006221861
 20
10.7067381647
 30
0.0
 10
4.3955382482
 20
10.7134645275
 30
0.0
 10
4.3897886676
 20
10.719765827
 30
0.0
 10
4.3834873681
 20
10.7255154076
 30
0.0
 10
4.3767610054
 20
10.7305993456
 30
0.0
 10
4.3697453289
 20
10.7349129034
 30
0.0
 10
4.3648653891
 20
10.7372684761
 30
0.0
 10
4.3624129022
 20
10.7382859627
 30
0.0
  0
SPLINE
  5
26A
100
AcDbEntity
  8
0
100
AcDbSpline
 62
9
  6
CONTINUOUS
 70
0
 71
3
 72
15
 73
11
 74
0
 42
0.0000001
 43
0.0000001
 44
0.0000000001
 40
0.0
 40
0.0
 40
0.0
 40
0.0
 40
0.1223035432
 40
0.2468231718
 40
0.3729783188
 40
0.4999995988
 40
0.6270208799
 40
0.7531760309
 40
0.8776956677
 40
1.0
 40
1.0
 40
1.0
 40
1.0
 10
4.1170292129
 20
8.0319949544
 30
0.0
 10
4.1204927926
 20
8.0324048438
 30
0.0
 10
4.1274220633
 20
8.0338628035
 30
0.0
 10
4.1373509344
 20
8.0378069029
 30
0.0
 10
4.1466131222
 20
8.0433990691
 30
0.0
 10
4.1549058682
 20
8.0504560122
 30
0.0
 10
4.1619628281
 20
8.0587487476
 30
0.0
 10
4.1675549935
 20
8.0680109301
 30
0.0
 10
4.171499172
 20
8.0779398049
 30
0.0
 10
4.1729570069
 20
8.0848691258
 30
0.0
 10
4.1733668992
 20
8.0883327278
 30
0.0
  0
SPLINE
  5
26B
100
AcDbEntity
  8
0
100
AcDbSpline
 62
9
  6
CONTINUOUS
 70
0
 71
3
 72
15
 73
11
 74
0
 42
0.0000001
 43
0.0000001
 44
0.0000000001
 40
0.0
 40
0.0
 40
0.0
 40
0.0
 40
0.1198827131
 40
0.2441118737
 40
0.371283668
 40
0.500000005
 40
0.6287163431
 40
0.7558881395
 40
0.8801172984
 40
1.0
 40
1.0
 40
1.0
 40
1.0
 10
4.4083088032
 20
7.8429489427
 30
0.0
 10
4.4072913211
 20
7.8404964521
 30
0.0
 10
4.4049357565
 20
7.8356165054
 30
0.0
 10
4.4006222061
 20
7.8286008208
 30
0.0
 10
4.395538272
 20
7.8218744535
 30
0.0
 10
4.389788692
 20
7.8155731528
 30
0.0
 10
4.3834873901
 20
7.809823574
 30
0.0
 10
4.3767610221
 20
7.8047396409
 30
0.0
 10
4.3697453379
 20
7.8004260904
 30
0.0
 10
4.3648653923
 20
7.7980705245
 30
0.0
 10
4.3624129022
 20
7.7970530416
 30
0.0
  0
SPLINE
  5
26C
100
AcDbEntity
  8
0
100
AcDbSpline
 62
9
  6
CONTINUOUS
 70
0
 71
3
 72
15
 73
11
 74
0
 42
0.0000001
 43
0.0000001
 44
0.0000000001
 40
0.0
 40
0.0
 40
0.0
 40
0.0
 40
0.1223023853
 40
0.2468224483
 40
0.3729782306
 40
0.5000002447
 40
0.6270222494
 40
0.7531780073
 40
0.8776980419
 40
1.0
 40
1.0
 40
1.0
 40
1.0
 10
1.7583560773
 20
10.5033435584
 30
0.0
 10
1.7548925488
 20
10.5029336459
 30
0.0
 10
1.7479633902
 20
10.5014754078
 30
0.0
 10
1.7380345668
 20
10.4975313688
 30
0.0
 10
1.7287724024
 20
10.4919391416
 30
0.0
 10
1.7204796519
 20
10.4848821884
 30
0.0
 10
1.7134226907
 20
10.4765894474
 30
0.0
 10
1.7078304456
 20
10.4673272922
 30
0.0
 10
1.7038864337
 20
10.4573984785
 30
0.0
 10
1.702428118
 20
10.4504693494
 30
0.0
 10
1.7020182049
 20
10.4470058333
 30
0.0
  0
SPLINE
  5
26D
100
AcDbEntity
  8
0
100
AcDbSpline
 62
9
  6
CONTINUOUS
 70
0
 71
3
 72
15
 73
11
 74
0
 42
0.0000001
 43
0.0000001
 44
0.0000000001
 40
0.0
 40
0.0
 40
0.0
 40
0.0
 40
0.1198826647
 40
0.244111818
 40
0.3712836318
 40
0.5000000001
 40
0.6287163684
 40
0.755888182
 40
0.8801173353
 40
1.0
 40
1.0
 40
1.0
 40
1.0
 10
1.5129717833
 20
10.7382859626
 30
0.0
 10
1.5105192964
 20
10.737268476
 30
0.0
 10
1.5056393567
 20
10.7349129033
 30
0.0
 10
1.4986236802
 20
10.7305993455
 30
0.0
 10
1.4918973174
 20
10.7255154076
 30
0.0
 10
1.4855960179
 20
10.719765827
 30
0.0
 10
1.4798464372
 20
10.7134645275
 30
0.0
 10
1.4747624993
 20
10.7067381648
 30
0.0
 10
1.4704489415
 20
10.6997224883
 30
0.0
 10
1.4680933688
 20
10.6948425485
 30
0.0
 10
1.4670758822
 20
10.6923900616
 30
0.0
  0
SPLINE
  5
26E
100
AcDbEntity
  8
0
100
AcDbSpline
 62
9
  6
CONTINUOUS
 70
0
 71
3
 72
15
 73
11
 74
0
 42
0.0000001
 43
0.0000001
 44
0.0000000001
 40
0.0
 40
0.0
 40
0.0
 40
0.0
 40
0.1223023853
 40
0.2468224483
 40
0.3729782306
 40
0.5000002447
 40
0.6270222494
 40
0.7531780073
 40
0.8776980419
 40
1.0
 40
1.0
 40
1.0
 40
1.0
 10
1.7020182865
 20
8.0883332367
 30
0.0
 10
1.7024281989
 20
8.0848697082
 30
0.0
 10
1.7038864371
 20
8.0779405496
 30
0.0
 10
1.7078304761
 20
8.0680117262
 30
0.0
 10
1.7134227033
 20
8.0587495618
 30
0.0
 10
1.7204796565
 20
8.0504568113
 30
0.0
 10
1.7287723975
 20
8.0433998501
 30
0.0
 10
1.7380345526
 20
8.037807605
 30
0.0
 10
1.7479633664
 20
8.0338635931
 30
0.0
 10
1.7548924955
 20
8.0324052774
 30
0.0
 10
1.7583560116
 20
8.0319953643
 30
0.0
  0
SPLINE
  5
26F
100
AcDbEntity
  8
0
100
AcDbSpline
 62
9
  6
CONTINUOUS
 70
0
 71
3
 72
15
 73
11
 74
0
 42
0.0000001
 43
0.0000001
 44
0.0000000001
 40
0.0
 40
0.0
 40
0.0
 40
0.0
 40
0.1198826647
 40
0.244111818
 40
0.3712836318
 40
0.5000000001
 40
0.6287163684
 40
0.755888182
 40
0.8801173353
 40
1.0
 40
1.0
 40
1.0
 40
1.0
 10
1.4670758823
 20
7.8429489427
 30
0.0
 10
1.4680933689
 20
7.8404964558
 30
0.0
 10
1.4704489416
 20
7.8356165161
 30
0.0
 10
1.4747624994
 20
7.8286008396
 30
0.0
 10
1.4798464373
 20
7.8218744768
 30
0.0
 10
1.4855960179
 20
7.8155731773
 30
0.0
 10
1.4918973174
 20
7.8098235966
 30
0.0
 10
1.4986236801
 20
7.8047396587
 30
0.0
 10
1.5056393566
 20
7.8004261009
 30
0.0
 10
1.5105192964
 20
7.7980705282
 30
0.0
 10
1.5129717833
 20
7.7970530416
 30
0.0
  0
LINE
  5
270
100
AcDbEntity
  8
0
100
AcDbLine
 62
9
  6
CONTINUOUS
 10
20.4083088033
 20
10.6923900616
 11
20.1733660618
 21
10.4470058302
  0
LINE
  5
271
100
AcDbEntity
  8
0
100
AcDbLine
 62
9
  6
CONTINUOUS
 10
20.1733662117
 20
8.0883327313
 11
20.4083088033
 21
7.8429489427
  0
LINE
  5
272
100
AcDbEntity
  8
0
100
AcDbLine
 62
9
  6
CONTINUOUS
 10
20.4083088033
 20
7.8429489427
 11
20.4376923429
 21
7.8276704391
  0
LINE
  5
273
100
AcDbEntity
  8
0
100
AcDbLine
 62
9
  6
CONTINUOUS
 10
20.4376923427
 20
10.7076690801
 11
20.4083088033
 21
10.6923900616
  0
LINE
  5
274
100
AcDbEntity
  8
0
100
AcDbLine
 62
9
  6
CONTINUOUS
 10
17.5129717833
 20
10.7382859627
 11
17.7583560147
 21
10.5033432212
  0
LINE
  5
275
100
AcDbEntity
  8
0
100
AcDbLine
 62
9
  6
CONTINUOUS
 10
20.3624129022
 20
10.7382859627
 11
20.1170286762
 21
10.5033432287
  0
SPLINE
  5
276
100
AcDbEntity
  8
0
100
AcDbSpline
 62
9
  6
CONTINUOUS
 70
0
 71
3
 72
35
 73
31
 74
0
 42
0.0000001
 43
0.0000001
 44
0.0000000001
 40
0.0
 40
0.0
 40
0.0
 40
0.0
 40
0.0165400406
 40
0.0331973209
 40
0.0502377216
 40
0.0678611864
 40
0.0862160409
 40
0.1054302367
 40
0.1468252028
 40
0.1692117386
 40
0.1928074121
 40
0.217656135
 40
0.2437872098
 40
0.2712192613
 40
0.2999610588
 40
0.3300133192
 40
0.361367079
 40
0.3940046551
 40
0.4278948089
 40
0.4992734486
 40
0.5751324291
 40
0.6549606197
 40
0.6961743047
 40
0.7381372605
 40
0.7807557645
 40
0.8239275224
 40
0.8675466553
 40
0.9115080638
 40
0.9557022267
 40
1.0
 40
1.0
 40
1.0
 40
1.0
 10
2.9376923427
 20
8.6426695021
 30
0.0
 10
2.9337279487
 20
8.6426711978
 30
0.0
 10
2.9257630999
 20
8.6431414521
 30
0.0
 10
2.9138847271
 20
8.6452677596
 30
0.0
 10
2.9020771812
 20
8.6488065009
 30
0.0
 10
2.8903440318
 20
8.6537453476
 30
0.0
 10
2.8787050544
 20
8.6600765415
 30
0.0
 10
2.8629612658
 20
8.6706203301
 30
0.0
 10
2.8479267104
 20
8.6837906789
 30
0.0
 10
2.8336431127
 20
8.6991167555
 30
0.0
 10
2.8228583803
 20
8.7122434144
 30
0.0
 10
2.8123082914
 20
8.7266826694
 30
0.0
 10
2.8020190474
 20
8.7424194548
 30
0.0
 10
2.7920179109
 20
8.7594314719
 30
0.0
 10
2.7823305221
 20
8.7776943965
 30
0.0
 10
2.7729816074
 20
8.7971801578
 30
0.0
 10
2.7639876802
 20
8.8178540348
 30
0.0
 10
2.7553689955
 20
8.839679013
 30
0.0
 10
2.7442308621
 20
8.8708052635
 30
0.0
 10
2.7315367374
 20
8.9123497184
 30
0.0
 10
2.7184429118
 20
8.965198302
 30
0.0
 10
2.7093863135
 20
9.0115357337
 30
0.0
 10
2.7032214312
 20
9.0501186175
 30
0.0
 10
2.6991317165
 20
9.0799937316
 30
0.0
 10
2.6956266413
 20
9.1104151821
 30
0.0
 10
2.6927313756
 20
9.1412996514
 30
0.0
 10
2.6904879525
 20
9.172561031
 30
0.0
 10
2.6888916455
 20
9.2041072458
 30
0.0
 10
2.6879149521
 20
9.2358412098
 30
0.0
 10
2.6876915967
 20
9.2570520044
 30
0.0
 10
2.6876923427
 20
9.2676695021
 30
0.0
  0
LINE
  5
277
100
AcDbEntity
  8
0
100
AcDbLine
 62
9
  6
CONTINUOUS
 10
20.3776919286
 20
10.7676695021
 11
20.3624129022
 21
10.7382859627
  0
LINE
  5
278
100
AcDbEntity
  8
0
100
AcDbLine
 62
9
  6
CONTINUOUS
 10
17.4976927648
 20
10.7676695021
 11
17.5129717833
 21
10.7382859627
  0
LINE
  5
279
100
AcDbEntity
  8
0
100
AcDbLine
 62
9
  6
CONTINUOUS
 10
17.4670758822
 20
7.8429489427
 11
17.7020186237
 21
8.0883331741
  0
LINE
  5
27A
100
AcDbEntity
  8
0
100
AcDbLine
 62
9
  6
CONTINUOUS
 10
17.4670758822
 20
10.6923900616
 11
17.7020186161
 21
10.4470058357
  0
LINE
  5
27B
100
AcDbEntity
  8
0
100
AcDbLine
 62
9
  6
CONTINUOUS
 10
17.4376923427
 20
10.707669088
 11
17.4670758822
 21
10.6923900616
  0
LINE
  5
27C
100
AcDbEntity
  8
0
100
AcDbLine
 62
9
  6
CONTINUOUS
 10
17.4376923427
 20
7.8276699242
 11
17.4670758822
 21
7.8429489427
  0
LINE
  5
27D
100
AcDbEntity
  8
0
100
AcDbLine
 62
9
  6
CONTINUOUS
 10
20.1170291234
 20
8.0319956386
 11
20.3624129022
 21
7.7970530416
  0
LINE
  5
27E
100
AcDbEntity
  8
0
100
AcDbLine
 62
9
  6
CONTINUOUS
 10
17.5129717833
 20
7.7970530416
 11
17.7583560092
 21
8.0319957755
  0
LINE
  5
27F
100
AcDbEntity
  8
0
100
AcDbLine
 62
9
  6
CONTINUOUS
 10
17.4976927569
 20
7.7676695021
 11
17.5129717833
 21
7.7970530416
  0
LINE
  5
280
100
AcDbEntity
  8
0
100
AcDbLine
 62
9
  6
CONTINUOUS
 10
20.3624129022
 20
7.7970530416
 11
20.3776914444
 21
7.7676694977
  0
SPLINE
  5
281
100
AcDbEntity
  8
0
100
AcDbSpline
 62
9
  6
CONTINUOUS
 70
0
 71
3
 72
15
 73
11
 74
0
 42
0.0000001
 43
0.0000001
 44
0.0000000001
 40
0.0
 40
0.0
 40
0.0
 40
0.0
 40
0.1223023853
 40
0.2468224483
 40
0.3729782306
 40
0.5000002447
 40
0.6270222494
 40
0.7531780073
 40
0.8776980419
 40
1.0
 40
1.0
 40
1.0
 40
1.0
 10
20.1733663989
 20
10.4470057676
 30
0.0
 10
20.1729564865
 20
10.4504692961
 30
0.0
 10
20.1714982484
 20
10.4573984547
 30
0.0
 10
20.1675542094
 20
10.4673272781
 30
0.0
 10
20.1619619822
 20
10.4765894425
 30
0.0
 10
20.1549050289
 20
10.484882193
 30
0.0
 10
20.146612288
 20
10.4919391542
 30
0.0
 10
20.1373501328
 20
10.4975313993
 30
0.0
 10
20.1274213191
 20
10.5014754111
 30
0.0
 10
20.12049219
 20
10.5029337269
 30
0.0
 10
20.1170286739
 20
10.50334364
 30
0.0
  0
SPLINE
  5
282
100
AcDbEntity
  8
0
100
AcDbSpline
 62
9
  6
CONTINUOUS
 70
0
 71
3
 72
15
 73
11
 74
0
 42
0.0000001
 43
0.0000001
 44
0.0000000001
 40
0.0
 40
0.0
 40
0.0
 40
0.0
 40
0.1198826647
 40
0.244111818
 40
0.3712836318
 40
0.5000000001
 40
0.6287163684
 40
0.755888182
 40
0.8801173353
 40
1.0
 40
1.0
 40
1.0
 40
1.0
 10
20.4083088032
 20
10.6923900615
 30
0.0
 10
20.4072913166
 20
10.6948425484
 30
0.0
 10
20.4049357439
 20
10.6997224882
 30
0.0
 10
20.4006221861
 20
10.7067381647
 30
0.0
 10
20.3955382482
 20
10.7134645275
 30
0.0
 10
20.3897886676
 20
10.719765827
 30
0.0
 10
20.3834873681
 20
10.7255154076
 30
0.0
 10
20.3767610054
 20
10.7305993456
 30
0.0
 10
20.3697453289
 20
10.7349129034
 30
0.0
 10
20.3648653891
 20
10.7372684761
 30
0.0
 10
20.3624129022
 20
10.7382859627
 30
0.0
  0
SPLINE
  5
283
100
AcDbEntity
  8
0
100
AcDbSpline
 62
9
  6
CONTINUOUS
 70
0
 71
3
 72
15
 73
11
 74
0
 42
0.0000001
 43
0.0000001
 44
0.0000000001
 40
0.0
 40
0.0
 40
0.0
 40
0.0
 40
0.1223035432
 40
0.2468231718
 40
0.3729783188
 40
0.4999995988
 40
0.6270208799
 40
0.7531760309
 40
0.8776956677
 40
1.0
 40
1.0
 40
1.0
 40
1.0
 10
20.1170292129
 20
8.0319949544
 30
0.0
 10
20.1204927926
 20
8.0324048438
 30
0.0
 10
20.1274220633
 20
8.0338628035
 30
0.0
 10
20.1373509344
 20
8.0378069029
 30
0.0
 10
20.1466131222
 20
8.0433990691
 30
0.0
 10
20.1549058682
 20
8.0504560122
 30
0.0
 10
20.1619628281
 20
8.0587487476
 30
0.0
 10
20.1675549935
 20
8.0680109301
 30
0.0
 10
20.171499172
 20
8.0779398049
 30
0.0
 10
20.1729570069
 20
8.0848691258
 30
0.0
 10
20.1733668992
 20
8.0883327278
 30
0.0
  0
SPLINE
  5
284
100
AcDbEntity
  8
0
100
AcDbSpline
 62
9
  6
CONTINUOUS
 70
0
 71
3
 72
15
 73
11
 74
0
 42
0.0000001
 43
0.0000001
 44
0.0000000001
 40
0.0
 40
0.0
 40
0.0
 40
0.0
 40
0.1198827131
 40
0.2441118737
 40
0.371283668
 40
0.500000005
 40
0.6287163431
 40
0.7558881395
 40
0.8801172984
 40
1.0
 40
1.0
 40
1.0
 40
1.0
 10
20.4083088032
 20
7.8429489427
 30
0.0
 10
20.4072913211
 20
7.8404964521
 30
0.0
 10
20.4049357565
 20
7.8356165054
 30
0.0
 10
20.4006222061
 20
7.8286008208
 30
0.0
 10
20.395538272
 20
7.8218744535
 30
0.0
 10
20.389788692
 20
7.8155731528
 30
0.0
 10
20.3834873901
 20
7.809823574
 30
0.0
 10
20.3767610221
 20
7.8047396409
 30
0.0
 10
20.3697453379
 20
7.8004260904
 30
0.0
 10
20.3648653923
 20
7.7980705245
 30
0.0
 10
20.3624129022
 20
7.7970530416
 30
0.0
  0
SPLINE
  5
285
100
AcDbEntity
  8
0
100
AcDbSpline
 62
9
  6
CONTINUOUS
 70
0
 71
3
 72
15
 73
11
 74
0
 42
0.0000001
 43
0.0000001
 44
0.0000000001
 40
0.0
 40
0.0
 40
0.0
 40
0.0
 40
0.1223023853
 40
0.2468224483
 40
0.3729782306
 40
0.5000002447
 40
0.6270222494
 40
0.7531780073
 40
0.8776980419
 40
1.0
 40
1.0
 40
1.0
 40
1.0
 10
17.7583560773
 20
10.5033435584
 30
0.0
 10
17.7548925488
 20
10.5029336459
 30
0.0
 10
17.7479633902
 20
10.5014754078
 30
0.0
 10
17.7380345668
 20
10.4975313688
 30
0.0
 10
17.7287724024
 20
10.4919391416
 30
0.0
 10
17.7204796519
 20
10.4848821884
 30
0.0
 10
17.7134226907
 20
10.4765894474
 30
0.0
 10
17.7078304456
 20
10.4673272922
 30
0.0
 10
17.7038864337
 20
10.4573984785
 30
0.0
 10
17.702428118
 20
10.4504693494
 30
0.0
 10
17.7020182049
 20
10.4470058333
 30
0.0
  0
SPLINE
  5
286
100
AcDbEntity
  8
0
100
AcDbSpline
 62
9
  6
CONTINUOUS
 70
0
 71
3
 72
15
 73
11
 74
0
 42
0.0000001
 43
0.0000001
 44
0.0000000001
 40
0.0
 40
0.0
 40
0.0
 40
0.0
 40
0.1198826647
 40
0.244111818
 40
0.3712836318
 40
0.5000000001
 40
0.6287163684
 40
0.755888182
 40
0.8801173353
 40
1.0
 40
1.0
 40
1.0
 40
1.0
 10
17.5129717833
 20
10.7382859626
 30
0.0
 10
17.5105192964
 20
10.737268476
 30
0.0
 10
17.5056393567
 20
10.7349129033
 30
0.0
 10
17.4986236802
 20
10.7305993455
 30
0.0
 10
17.4918973174
 20
10.7255154076
 30
0.0
 10
17.4855960179
 20
10.719765827
 30
0.0
 10
17.4798464372
 20
10.7134645275
 30
0.0
 10
17.4747624993
 20
10.7067381648
 30
0.0
 10
17.4704489415
 20
10.6997224883
 30
0.0
 10
17.4680933688
 20
10.6948425485
 30
0.0
 10
17.4670758822
 20
10.6923900616
 30
0.0
  0
SPLINE
  5
287
100
AcDbEntity
  8
0
100
AcDbSpline
 62
9
  6
CONTINUOUS
 70
0
 71
3
 72
36
 73
32
 74
0
 42
0.0000001
 43
0.0000001
 44
0.0000000001
 40
0.0
 40
0.0
 40
0.0
 40
0.0
 40
0.0442975209
 40
0.0884914199
 40
0.1324525857
 40
0.176071443
 40
0.2192429304
 40
0.2618612238
 40
0.3038239024
 40
0.3450372523
 40
0.3854134181
 40
0.4248709646
 40
0.5007293156
 40
0.5721077825
 40
0.6059978281
 40
0.6386351398
 40
0.6699884909
 40
0.7000403698
 40
0.7287820712
 40
0.7562142565
 40
0.7823453528
 40
0.8071938846
 40
0.8307894291
 40
0.8531760404
 40
0.8945703844
 40
0.9137839735
 40
0.9321389457
 40
0.9497633227
 40
0.9668048676
 40
0.983462399
 40
1.0
 40
1.0
 40
1.0
 40
1.0
 10
2.6876923427
 20
9.2676695021
 30
0.0
 10
2.687691816
 20
9.2782870004
 30
0.0
 10
2.6879147734
 20
9.2994977883
 30
0.0
 10
2.688890362
 20
9.331231791
 30
0.0
 10
2.6904866327
 20
9.3627780096
 30
0.0
 10
2.6927314452
 20
9.3940392963
 30
0.0
 10
2.6956291749
 20
9.4249235151
 30
0.0
 10
2.6991342727
 20
9.4553449774
 30
0.0
 10
2.7032207797
 20
9.4852203231
 30
0.0
 10
2.7078920088
 20
9.514465935
 30
0.0
 10
2.7131397065
 20
9.5430036499
 30
0.0
 10
2.7207719456
 20
9.5795350774
 30
0.0
 10
2.7315345146
 20
9.6229903165
 30
0.0
 10
2.7442312846
 20
9.6645335549
 30
0.0
 10
2.7553698703
 20
9.6956597421
 30
0.0
 10
2.7639882237
 20
9.7174847783
 30
0.0
 10
2.7729813253
 20
9.7381588777
 30
0.0
 10
2.7823295499
 20
9.7576448803
 30
0.0
 10
2.7920171479
 20
9.7759077503
 30
0.0
 10
2.8020189886
 20
9.7929195023
 30
0.0
 10
2.8123085587
 20
9.8086561815
 30
0.0
 10
2.822858523
 20
9.8230955601
 30
0.0
 10
2.8336432298
 20
9.8362223011
 30
0.0
 10
2.847927099
 20
9.8515480711
 30
0.0
 10
2.8629613161
 20
9.864718482
 30
0.0
 10
2.8787046595
 20
9.875262673
 30
0.0
 10
2.8903438934
 20
9.8815938061
 30
0.0
 10
2.9020777723
 20
9.8865324581
 30
0.0
 10
2.9138859827
 20
9.890071115
 30
0.0
 10
2.9257641369
 20
9.8921975344
 30
0.0
 10
2.9337285106
 20
9.8926678969
 30
0.0
 10
2.9376923427
 20
9.8926695021
 30
0.0
  0
SPLINE
  5
288
100
AcDbEntity
  8
0
100
AcDbSpline
 62
9
  6
CONTINUOUS
 70
0
 71
3
 72
15
 73
11
 74
0
 42
0.0000001
 43
0.0000001
 44
0.0000000001
 40
0.0
 40
0.0
 40
0.0
 40
0.0
 40
0.1223023853
 40
0.2468224483
 40
0.3729782306
 40
0.5000002447
 40
0.6270222494
 40
0.7531780073
 40
0.8776980419
 40
1.0
 40
1.0
 40
1.0
 40
1.0
 10
17.7020182865
 20
8.0883332367
 30
0.0
 10
17.7024281989
 20
8.0848697082
 30
0.0
 10
17.7038864371
 20
8.0779405496
 30
0.0
 10
17.7078304761
 20
8.0680117262
 30
0.0
 10
17.7134227033
 20
8.0587495618
 30
0.0
 10
17.7204796565
 20
8.0504568113
 30
0.0
 10
17.7287723975
 20
8.0433998501
 30
0.0
 10
17.7380345526
 20
8.037807605
 30
0.0
 10
17.7479633664
 20
8.0338635931
 30
0.0
 10
17.7548924955
 20
8.0324052774
 30
0.0
 10
17.7583560116
 20
8.0319953643
 30
0.0
  0
SPLINE
  5
289
100
AcDbEntity
  8
0
100
AcDbSpline
 62
9
  6
CONTINUOUS
 70
0
 71
3
 72
15
 73
11
 74
0
 42
0.0000001
 43
0.0000001
 44
0.0000000001
 40
0.0
 40
0.0
 40
0.0
 40
0.0
 40
0.1198826647
 40
0.244111818
 40
0.3712836318
 40
0.5000000001
 40
0.6287163684
 40
0.755888182
 40
0.8801173353
 40
1.0
 40
1.0
 40
1.0
 40
1.0
 10
17.4670758823
 20
7.8429489427
 30
0.0
 10
17.4680933689
 20
7.8404964558
 30
0.0
 10
17.4704489416
 20
7.8356165161
 30
0.0
 10
17.4747624994
 20
7.8286008396
 30
0.0
 10
17.4798464373
 20
7.8218744768
 30
0.0
 10
17.4855960179
 20
7.8155731773
 30
0.0
 10
17.4918973174
 20
7.8098235966
 30
0.0
 10
17.4986236801
 20
7.8047396587
 30
0.0
 10
17.5056393566
 20
7.8004261009
 30
0.0
 10
17.5105192964
 20
7.7980705282
 30
0.0
 10
17.5129717833
 20
7.7970530416
 30
0.0
  0
ENDSEC
  0
SECTION
  2
OBJECTS
  0
DICTIONARY
  5
C
100
AcDbDictionary
280
0
281
1
  3
ACAD_GROUP
350
D
  3
ACAD_MLINESTYLE
350
17
  3
ACAD_LAYOUT
350
1A
  3
ACAD_PLOTSETTINGS
350
19
  3
ACAD_PLOTSTYLENAME
350
E
  0
DICTIONARY
  5
D
102
{ACAD_REACTORS
330
C
102
}
100
AcDbDictionary
280
0
281
1
  0
ACDBDICTIONARYWDFLT
  5
E
102
{ACAD_REACTORS
330
C
102
}
100
AcDbDictionary
281
1
  3
Normal
350
F
100
AcDbDictionaryWithDefault
340
F
  0
DICTIONARY
  5
17
102
{ACAD_REACTORS
330
C
102
}
100
AcDbDictionary
280
0
281
1
  3
Standard
350
18
  0
DICTIONARY
  5
19
102
{ACAD_REACTORS
330
C
102
}
100
AcDbDictionary
281
1
  0
DICTIONARY
  5
1A
102
{ACAD_REACTORS
330
C
102
}
100
AcDbDictionary
281
1
  3
Model
350
28A
  3
Layout1
350
28B
  0
ACDBPLACEHOLDER
  5
F
102
{ACAD_REACTORS
330
E
102
}
  0
MLINESTYLE
  5
18
102
{ACAD_REACTORS
330
17
102
}
100
AcDbMlineStyle
  2
STANDARD
 70
0
  3

 62
256
 51
90.0
 52
90.0
 71
2
 49
0.5
 62
256
  6
BYLAYER
 49
-0.5
 62
256
  6
BYLAYER
  0
LAYOUT
  5
28A
102
{ACAD_REACTORS
330
1A
102
}
100
AcDbPlotSettings
  1

  2
none_device
  4
ANSI_C_(22.00_x_17.00_Inches)
  6

 40
0.0
 41
0.0
 42
0.0
 43
0.0
 44
558.8
 45
431.8
 46
0.0
 47
0.0
 48
0.0
 49
0.0
140
0.0
141
0.0
142
1.0
143
1.0
 70
1024
 72
0
 73
0
 74
0
  7

 75
0
147
1.0
148
0.0
149
0.0
100
AcDbLayout
  1
Model
 70
0
 71
0
 10
0.0
 20
0.0
 11
22.0
 21
17.0
 12
0.0
 22
0.0
 32
0.0
 14
0.0
 24
0.0
 34
0.0
 15
0.0
 25
0.0
 35
0.0
146
0.0
 13
0.0
 23
0.0
 33
0.0
 16
1.0
 26
0.0
 36
0.0
 17
0.0
 27
1.0
 37
0.0
 76
0
330
205
345
0
346
0
  0
LAYOUT
  5
28B
102
{ACAD_REACTORS
330
1A
102
}
100
AcDbPlotSettings
  1

  2
none_device
  4
ANSI_C_(22.00_x_17.00_Inches)
  6

 40
0.0
 41
0.0
 42
0.0
 43
0.0
 44
558.8
 45
431.8
 46
0.0
 47
0.0
 48
0.0
 49
0.0
140
0.0
141
0.0
142
1.0
143
1.0
 70
0
 72
0
 73
0
 74
0
  7

 75
0
147
1.0
148
0.0
149
0.0
100
AcDbLayout
  1
Layout1
 70
0
 71
1
 10
0.0
 20
0.0
 11
22.0
 21
17.0
 12
0.0
 22
0.0
 32
0.0
 14
0.0
 24
0.0
 34
0.0
 15
0.0
 25
0.0
 35
0.0
146
0.0
 13
0.0
 23
0.0
 33
0.0
 16
1.0
 26
0.0
 36
0.0
 17
0.0
 27
1.0
 37
0.0
 76
0
330
206
345
0
346
0
  0
ENDSEC
  0
EOF
