999
DXF file: E:\BT Custom\CADOUTPUT\_RIGHT.dxf
999
Pro/ENGINEER 2018400 by Parametric Technology Corporation
  0
SECTION
  2
HEADER
  9
$ACADVER
  1
AC1018
  9
$DWGCODEPAGE
  3
ANSI_1252
  9
$EXTMAX
 10
22.0
 20
17.0
 30
0.0
  9
$EXTMIN
 10
0.0
 20
0.0
 30
0.0
  9
$LIMMIN
 10
0.0
 20
0.0
  9
$LIMMAX
 10
22.0
 20
17.0
  9
$VIEWCTR
 10
11.0
 20
8.5
  9
$VIEWSIZE
 40
17.0
  9
$CLAYER
  8
0
  9
$LTSCALE
 40
1.21
  9
$CELTYPE
  6
BYLAYER
  9
$DIMSCALE
 40
1.0
  9
$DIMASZ
 40
0.1
  9
$DIMEXO
 40
0.0625
  9
$DIMDLI
 40
0.836
  9
$DIMEXE
 40
0.125
  9
$DIMCEN
 40
0.198
  9
$DIMLFAC
 40
1.0
  9
$DIMBLK
  1
_FILLED
  9
$DIMALT
 70
1
  9
$DIMALTD
 70
2
  9
$DIMALTTD
 70
2
  9
$DIMALTF
 40
25.4
  9
$DIMTXT
 40
0.08
  9
$DIMTOL
 70
1
  9
$DIMLIM
 70
0
  9
$DIMTFAC
 40
1.0
  9
$DIMTP
 40
0.001
  9
$DIMTM
 40
0.001
  9
$DIMGAP
 40
0.09
  9
$DIMDSEP
 70
46
  9
$AUNITS
 70
0
  9
$PDMODE
 70
3
  9
$PDSIZE
 40
0.06
  9
$HANDSEED
  5
22D
  9
$TILEMODE
 70
1
  9
$MEASUREMENT
 70
0
  9
$INSUNITS
 70
1
  0
ENDSEC
  0
SECTION
  2
CLASSES
  0
CLASS
  1
ACDBDICTIONARYWDFLT
  2
AcDbDictionaryWithDefault
  3
AutoCAD 2000
 90
0
 91
1
280
0
281
0
  0
CLASS
  1
ACDBPLACEHOLDER
  2
AcDbPlaceHolder
  3
AutoCAD 2000
 90
0
 91
1
280
0
281
0
  0
CLASS
  1
LAYOUT
  2
AcDbLayout
  3
AutoCAD 2000
 90
0
 91
0
280
0
281
0
  0
ENDSEC
  0
SECTION
  2
TABLES
  0
TABLE
  2
VPORT
  5
8
100
AcDbSymbolTable
 70
2
  0
VPORT
  5
1F4
100
AcDbSymbolTableRecord
100
AcDbViewportTableRecord
  2
*ACTIVE
 70
0
 10
0.0
 20
0.0
 11
1.0
 21
1.0
 12
11.0
 22
8.5
 13
0.0
 23
0.0
 14
1.0
 24
1.0
 15
0.0
 25
0.0
 16
0.0
 26
0.0
 36
1.0
 17
0.0
 27
0.0
 37
0.0
 40
17.0
 41
1.2941176471
 42
50.0
 43
0.0
 44
0.0
 50
0.0
 51
0.0
 71
0
 72
100
 73
1
 74
1
 75
0
 76
0
 77
0
 78
0
  0
ENDTAB
  0
TABLE
  2
LTYPE
  5
5
100
AcDbSymbolTable
 70
6
  0
LTYPE
  5
14
100
AcDbSymbolTableRecord
100
AcDbLinetypeTableRecord
  2
BYBLOCK
 70
0
  3

 72
65
 73
0
 40
0.0
  0
LTYPE
  5
15
100
AcDbSymbolTableRecord
100
AcDbLinetypeTableRecord
  2
BYLAYER
 70
0
  3

 72
65
 73
0
 40
0.0
  0
LTYPE
  5
16
100
AcDbSymbolTableRecord
100
AcDbLinetypeTableRecord
  2
CONTINUOUS
 70
64
  3
Solid line
 72
65
 73
0
 40
0.0
  0
LTYPE
  5
1F5
100
AcDbSymbolTableRecord
100
AcDbLinetypeTableRecord
  2
CENTER
 70
64
  3
____ _ ____ _ ____ _ ____ _ ____ _ ____ _ ____
 72
65
 73
4
 40
0.6
 49
0.375
 74
0
 49
-0.075
 74
0
 49
0.075
 74
0
 49
-0.075
 74
0
  0
LTYPE
  5
1F6
100
AcDbSymbolTableRecord
100
AcDbLinetypeTableRecord
  2
HIDDEN
 70
64
  3
- - - - - - - - - - - - - - - - - - - -
 72
65
 73
2
 40
0.2
 49
0.1
 74
0
 49
-0.1
 74
0
  0
LTYPE
  5
1F7
100
AcDbSymbolTableRecord
100
AcDbLinetypeTableRecord
  2
PHANTOM
 70
64
  3
_____ _ _ _____ _ _ _____ _ _ _____
 72
65
 73
6
 40
0.8
 49
0.45
 74
0
 49
-0.05
 74
0
 49
0.1
 74
0
 49
-0.05
 74
0
 49
0.1
 74
0
 49
-0.05
 74
0
  0
LTYPE
  5
1F8
100
AcDbSymbolTableRecord
100
AcDbLinetypeTableRecord
  2
DOT
 70
64
  3
. . . . . . . . . . . . . . . . . . . .
 72
65
 73
2
 40
0.2
 49
0.1
 74
0
 49
-0.1
 74
0
  0
LTYPE
  5
1F9
100
AcDbSymbolTableRecord
100
AcDbLinetypeTableRecord
  2
DASHED
 70
64
  3
- - - - - - - - - - - - - - - - - - - -
 72
65
 73
2
 40
0.2
 49
0.1
 74
0
 49
-0.1
 74
0
  0
ENDTAB
  0
TABLE
  2
LAYER
  5
2
100
AcDbSymbolTable
 70
36
  0
LAYER
  5
10
100
AcDbSymbolTableRecord
100
AcDbLayerTableRecord
  2
0
 70
0
 62
7
  6
CONTINUOUS
370
-3
390
F
  0
LAYER
  5
1FA
100
AcDbSymbolTableRecord
100
AcDbLayerTableRecord
  2
DEFAULT_1
 70
0
 62
7
  6
CENTER
370
-3
390
F
  0
LAYER
  5
1FB
100
AcDbSymbolTableRecord
100
AcDbLayerTableRecord
  2
DEFAULT_2
 70
0
 62
8
  6
HIDDEN
370
-3
390
F
  0
LAYER
  5
1FC
100
AcDbSymbolTableRecord
100
AcDbLayerTableRecord
  2
DEFAULT_3
 70
0
 62
7
  6
PHANTOM
370
-3
390
F
  0
LAYER
  5
1FD
100
AcDbSymbolTableRecord
100
AcDbLayerTableRecord
  2
ALL_FEATURES
 70
0
 62
7
  6
CONTINUOUS
370
-3
390
F
  0
LAYER
  5
1FE
100
AcDbSymbolTableRecord
100
AcDbLayerTableRecord
  2
AXES_FEATURES
 70
0
 62
7
  6
CONTINUOUS
370
-3
390
F
  0
LAYER
  5
1FF
100
AcDbSymbolTableRecord
100
AcDbLayerTableRecord
  2
DEFAULT_COORDINATE_SYSTEM
 70
0
 62
7
  6
CONTINUOUS
370
-3
390
F
  0
LAYER
  5
200
100
AcDbSymbolTableRecord
100
AcDbLayerTableRecord
  2
DEFAULT_DATUM_AXES
 70
0
 62
7
  6
CONTINUOUS
370
-3
390
F
  0
LAYER
  5
201
100
AcDbSymbolTableRecord
100
AcDbLayerTableRecord
  2
DEFAULT_DATUM_PLANES
 70
0
 62
7
  6
CONTINUOUS
370
-3
390
F
  0
LAYER
  5
202
100
AcDbSymbolTableRecord
100
AcDbLayerTableRecord
  2
DIMENSIONS
 70
0
 62
7
  6
CONTINUOUS
370
-3
390
F
  0
ENDTAB
  0
TABLE
  2
STYLE
  5
3
100
AcDbSymbolTable
 70
1
  0
STYLE
  5
11
100
AcDbSymbolTableRecord
100
AcDbTextStyleTableRecord
  2
STANDARD
 70
0
 40
0.0
 41
0.8
 50
0.0
 71
0
 42
0.2
  3
txt
  4

  0
STYLE
  5
203
100
AcDbSymbolTableRecord
100
AcDbTextStyleTableRecord
  2
TEXTSTYLE_1
 70
0
 40
0.0
 41
0.8
 50
0.0
 71
0
 42
0.2
  3
gdt
  4

  0
ENDTAB
  0
TABLE
  2
VIEW
  5
6
100
AcDbSymbolTable
 70
0
  0
ENDTAB
  0
TABLE
  2
UCS
  5
7
100
AcDbSymbolTable
 70
0
  0
ENDTAB
  0
TABLE
  2
APPID
  5
9
100
AcDbSymbolTable
 70
1
  0
APPID
  5
204
100
AcDbSymbolTableRecord
100
AcDbRegAppTableRecord
  2
ACAD
 70
0
  0
ENDTAB
  0
TABLE
  2
BLOCK_RECORD
  5
1
100
AcDbSymbolTable
 70
0
  0
BLOCK_RECORD
  5
205
100
AcDbSymbolTableRecord
100
AcDbBlockTableRecord
  2
*Model_Space
  0
BLOCK_RECORD
  5
206
100
AcDbSymbolTableRecord
100
AcDbBlockTableRecord
  2
*Paper_Space
  0
BLOCK_RECORD
  5
207
100
AcDbSymbolTableRecord
100
AcDbBlockTableRecord
  2
_FILLED
  0
ENDTAB
  0
TABLE
  2
DIMSTYLE
  5
A
100
AcDbSymbolTable
 70
1
100
AcDbDimStyleTable
 71
0
  0
DIMSTYLE
105
208
100
AcDbSymbolTableRecord
100
AcDbDimStyleTableRecord
  2
STANDARD
 70
0
  3

  4

 40
1.0
 41
0.1
 42
0.0625
 43
0.38
 44
0.125
 45
0.0
 46
0.0
 47
0.001
 48
0.001
140
0.08
141
0.09
142
0.0
143
25.4
144
1.0
145
0.0
146
1.0
147
0.09
 71
1.0
 72
0.0
 73
1
 74
1
 75
0
 76
0
 77
0
 78
4
 79
1
170
1
171
2
172
0
173
0
174
0
175
0
176
0
177
0
178
0
270
2
179
3
271
3
272
3
273
2
274
2
275
0
280
0
281
0
282
0
283
1
284
4
285
0
286
0
287
3
288
0
340
11
278
46
341
207
342
207
343
207
344
207
  0
ENDTAB
  0
ENDSEC
  0
SECTION
  2
BLOCKS
  0
BLOCK
  5
20
100
AcDbEntity
  8
0
100
AcDbBlockBegin
  2
*Model_Space
 70
0
 10
0.0
 20
0.0
 30
0.0
  3
*Model_Space
  1

  0
ENDBLK
  5
21
100
AcDbEntity
  8
0
100
AcDbBlockEnd
  0
BLOCK
  5
1C
100
AcDbEntity
  8
0
100
AcDbBlockBegin
  2
*Paper_Space
 70
0
 10
0.0
 20
0.0
 30
0.0
  3
*Paper_Space
  1

  0
ENDBLK
  5
1D
100
AcDbEntity
  8
0
100
AcDbBlockEnd
  0
BLOCK
  5
209
100
AcDbEntity
  8
0
100
AcDbBlockBegin
  2
_FILLED
 70
64
 10
0.0
 20
0.0
  3
_FILLED
  1

  0
SOLID
  5
20A
100
AcDbEntity
  8
0
  6
BYBLOCK
 62
0
100
AcDbTrace
 10
0.0
 20
0.0
 11
-1.0
 21
0.2
 12
-1.0
 22
-0.2
 13
-1.0
 23
-0.2
  0
ENDBLK
  5
20B
100
AcDbEntity
  8
0
  6
BYBLOCK
 62
0
100
AcDbBlockEnd
  0
ENDSEC
  0
SECTION
  2
ENTITIES
  0
LINE
  5
20C
100
AcDbEntity
  8
0
100
AcDbLine
 62
9
  6
CONTINUOUS
 10
11.5624834891
 20
7.8305551171
 11
11.6018427842
 21
7.8305550297
  0
LINE
  5
20D
100
AcDbEntity
  8
0
100
AcDbLine
 62
7
  6
CONTINUOUS
 10
11.5474834891
 20
8.134891804
 11
11.5624834891
 21
8.134891804
  0
LINE
  5
20E
100
AcDbEntity
  8
0
100
AcDbLine
 62
7
  6
CONTINUOUS
 10
9.9574931814
 20
8.384891804
 11
11.4874834891
 21
8.384891804
  0
LINE
  5
20F
100
AcDbEntity
  8
0
100
AcDbLine
 62
7
  6
CONTINUOUS
 10
9.9574834891
 20
9.634891804
 11
11.4874834891
 21
9.634891804
  0
LINE
  5
210
100
AcDbEntity
  8
0
100
AcDbLine
 62
7
  6
CONTINUOUS
 10
11.4874834891
 20
9.824891804
 11
11.4874834891
 21
8.194891804
  0
LINE
  5
211
100
AcDbEntity
  8
0
100
AcDbLine
 62
9
  6
CONTINUOUS
 10
11.5474834891
 20
8.134891804
 11
11.5474834891
 21
9.884891804
  0
LINE
  5
212
100
AcDbEntity
  8
0
100
AcDbLine
 62
7
  6
CONTINUOUS
 10
11.5624834891
 20
7.8305558557
 11
11.5624834891
 21
10.1892277524
  0
LINE
  5
213
100
AcDbEntity
  8
0
100
AcDbLine
 62
9
  6
CONTINUOUS
 10
11.6018427842
 20
7.8305550332
 11
11.601842375
 21
10.1892281321
  0
LINE
  5
214
100
AcDbEntity
  8
0
100
AcDbLine
 62
7
  6
CONTINUOUS
 10
11.5474834891
 20
9.884891804
 11
11.5624834891
 21
9.884891804
  0
LINE
  5
215
100
AcDbEntity
  8
0
100
AcDbLine
 62
9
  6
CONTINUOUS
 10
11.5624834891
 20
10.1892281895
 11
11.6018422137
 21
10.1892280695
  0
LINE
  5
216
100
AcDbEntity
  8
0
100
AcDbLine
 62
9
  6
CONTINUOUS
 10
12.0069695619
 20
7.5851712446
 11
12.0069695619
 21
10.4346123635
  0
LINE
  5
217
100
AcDbEntity
  8
0
100
AcDbLine
 62
7
  6
CONTINUOUS
 10
12.0874834891
 20
7.509891804
 11
12.0874834891
 21
10.509891804
  0
ARC
  5
218
100
AcDbEntity
  8
0
100
AcDbCircle
 62
7
  6
CONTINUOUS
 10
9.9574834891
 20
9.009891804
 40
0.625
100
AcDbArc
 50
90.0
 51
270.0
  0
ARC
  5
219
100
AcDbEntity
  8
0
100
AcDbCircle
 62
7
  6
CONTINUOUS
 10
11.137419148
 20
6.5066175698
 40
1.35
100
AcDbArc
 50
49.900914728
 51
69.8781683074
  0
ARC
  5
21A
100
AcDbEntity
  8
0
100
AcDbCircle
 62
7
  6
CONTINUOUS
 10
12.0874834891
 20
7.634891804
 40
0.125
100
AcDbArc
 50
229.900914728
 51
270.0
  0
ARC
  5
21B
100
AcDbEntity
  8
0
100
AcDbCircle
 62
7
  6
CONTINUOUS
 10
11.5474834891
 20
8.194891804
 40
0.06
100
AcDbArc
 50
180.0
 51
270.0
  0
ARC
  5
21C
100
AcDbEntity
  8
0
100
AcDbCircle
 62
7
  6
CONTINUOUS
 10
11.6224834891
 20
7.8305558557
 40
0.06
100
AcDbArc
 50
180.0
 51
249.8787378849
  0
ARC
  5
21D
100
AcDbEntity
  8
0
100
AcDbCircle
 62
7
  6
CONTINUOUS
 10
11.137419148
 20
11.5131660383
 40
1.35
100
AcDbArc
 50
290.1218147962
 51
310.099085272
  0
ARC
  5
21E
100
AcDbEntity
  8
0
100
AcDbCircle
 62
7
  6
CONTINUOUS
 10
12.0874834891
 20
10.384891804
 40
0.125
100
AcDbArc
 50
90.0
 51
130.099085272
  0
ARC
  5
21F
100
AcDbEntity
  8
0
100
AcDbCircle
 62
7
  6
CONTINUOUS
 10
11.5474834891
 20
9.824891804
 40
0.06
100
AcDbArc
 50
90.0
 51
180.0
  0
ARC
  5
220
100
AcDbEntity
  8
0
100
AcDbCircle
 62
7
  6
CONTINUOUS
 10
11.6224834891
 20
10.1892277524
 40
0.06
100
AcDbArc
 50
110.1218761161
 51
180.0
  0
SPLINE
  5
221
100
AcDbEntity
  8
0
100
AcDbSpline
 62
9
  6
CONTINUOUS
 70
0
 71
3
 72
17
 73
13
 74
0
 42
0.0000001
 43
0.0000001
 44
0.0000000001
 40
0.0
 40
0.0
 40
0.0
 40
0.0
 40
0.1596773694
 40
0.3104522736
 40
0.4507547315
 40
0.5798227753
 40
0.6975961738
 40
0.8050782619
 40
0.8557153492
 40
0.9047651833
 40
0.9526938688
 40
1.0
 40
1.0
 40
1.0
 40
1.0
 10
12.0069695618
 20
7.5851712446
 30
0.0
 10
12.0058146618
 20
7.5828272138
 30
0.0
 10
12.0037629166
 20
7.5781703368
 30
0.0
 10
12.0014491996
 20
7.571152886
 30
0.0
 10
12.0000226707
 20
7.5644105434
 30
0.0
 10
11.9995133224
 20
7.5580745121
 30
0.0
 10
11.9999382143
 20
7.5522657237
 30
0.0
 10
12.001102172
 20
7.5478669947
 30
0.0
 10
12.0025125636
 20
7.5447763971
 30
0.0
 10
12.0037736788
 20
7.5427086166
 30
0.0
 10
12.0052508149
 20
7.540858643
 30
0.0
 10
12.006377384
 20
7.5397739874
 30
0.0
 10
12.0069695619
 20
7.5392753435
 30
0.0
  0
SPLINE
  5
222
100
AcDbEntity
  8
0
100
AcDbSpline
 62
9
  6
CONTINUOUS
 70
0
 71
3
 72
20
 73
16
 74
0
 42
0.0000001
 43
0.0000001
 44
0.0000000001
 40
0.0
 40
0.0
 40
0.0
 40
0.0
 40
0.0300351344
 40
0.0620698345
 40
0.0976702951
 40
0.1379070212
 40
0.1834126318
 40
0.2344633184
 40
0.2911114992
 40
0.3532234455
 40
0.4205531832
 40
0.4927437523
 40
0.6498979179
 40
0.8205884112
 40
1.0
 40
1.0
 40
1.0
 40
1.0
 10
11.6018427795
 20
7.7742172563
 30
0.0
 10
11.6012840079
 20
7.7744219796
 30
0.0
 10
11.6001855231
 20
7.7750151299
 30
0.0
 10
11.5987708793
 20
7.7763620006
 30
0.0
 10
11.5975731944
 20
7.7781485921
 30
0.0
 10
11.5965906421
 20
7.7803525718
 30
0.0
 10
11.5958238471
 20
7.7829586311
 30
0.0
 10
11.5952745546
 20
7.7859484379
 30
0.0
 10
11.594947412
 20
7.7893002606
 30
0.0
 10
11.5948437728
 20
7.7929882972
 30
0.0
 10
11.5949654763
 20
7.7969834196
 30
0.0
 10
11.5954404225
 20
7.8028443019
 30
0.0
 10
11.5966152904
 20
7.8106924777
 30
0.0
 10
11.5988108383
 20
7.8205068449
 30
0.0
 10
11.6007499279
 20
7.8271723781
 30
0.0
 10
11.6018425324
 20
7.8305550297
 30
0.0
  0
SPLINE
  5
223
100
AcDbEntity
  8
0
100
AcDbSpline
 62
9
  6
CONTINUOUS
 70
0
 71
3
 72
17
 73
13
 74
0
 42
0.0000001
 43
0.0000001
 44
0.0000000001
 40
0.0
 40
0.0
 40
0.0
 40
0.0
 40
0.159677203
 40
0.3104519524
 40
0.4507542884
 40
0.5798222608
 40
0.6975956575
 40
0.8050778292
 40
0.8557149931
 40
0.9047649264
 40
0.9526937317
 40
1.0
 40
1.0
 40
1.0
 40
1.0
 10
12.0069695618
 20
10.4346123634
 30
0.0
 10
12.005814657
 20
10.4369563901
 30
0.0
 10
12.0037629031
 20
10.4416132599
 30
0.0
 10
12.0014491766
 20
10.4486307034
 30
0.0
 10
12.0000226427
 20
10.4553730422
 30
0.0
 10
11.9995132933
 20
10.4617090731
 30
0.0
 10
11.9999381879
 20
10.4675178641
 30
0.0
 10
12.0011021508
 20
10.4719165965
 30
0.0
 10
12.0025125476
 20
10.4750071979
 30
0.0
 10
12.0037736677
 20
10.4770749824
 30
0.0
 10
12.0052508092
 20
10.4789249604
 30
0.0
 10
12.0063773821
 20
10.480009619
 30
0.0
 10
12.0069695619
 20
10.4805082646
 30
0.0
  0
SPLINE
  5
224
100
AcDbEntity
  8
0
100
AcDbSpline
 62
9
  6
CONTINUOUS
 70
0
 71
3
 72
20
 73
16
 74
0
 42
0.0000001
 43
0.0000001
 44
0.0000000001
 40
0.0
 40
0.0
 40
0.0
 40
0.0
 40
0.1794081709
 40
0.350096103
 40
0.5072479488
 40
0.5794374839
 40
0.6467663618
 40
0.7088775578
 40
0.7655252184
 40
0.816575734
 40
0.8620810955
 40
0.9023172449
 40
0.9379192131
 40
0.9699598625
 40
1.0
 40
1.0
 40
1.0
 40
1.0
 10
11.6018420685
 20
10.1892280695
 30
0.0
 10
11.6007493868
 20
10.1926106826
 30
0.0
 10
11.5988092837
 20
10.1992759112
 30
0.0
 10
11.5966139525
 20
10.2090903409
 30
0.0
 10
11.595438951
 20
10.216938492
 30
0.0
 10
11.5949639775
 20
10.2227993815
 30
0.0
 10
11.5948422801
 20
10.2267945131
 30
0.0
 10
11.5949459239
 20
10.2304825643
 30
0.0
 10
11.5952730901
 20
10.233834409
 30
0.0
 10
11.5958224443
 20
10.2368242343
 30
0.0
 10
11.5965892815
 20
10.2394303011
 30
0.0
 10
11.5975718231
 20
10.2416343403
 30
0.0
 10
11.5987696772
 20
10.2434210406
 30
0.0
 10
11.6001846787
 20
10.2447679378
 30
0.0
 10
11.6012833714
 20
10.2453611819
 30
0.0
 10
11.6018422449
 20
10.2455659419
 30
0.0
  0
SPLINE
  5
225
100
AcDbEntity
  8
0
100
AcDbSpline
 62
9
  6
CONTINUOUS
 70
0
 71
3
 72
31
 73
27
 74
0
 42
0.0000001
 43
0.0000001
 44
0.0000000001
 40
0.0
 40
0.0
 40
0.0
 40
0.0
 40
0.0165402012
 40
0.0331977008
 40
0.0502389183
 40
0.0678627874
 40
0.1053920066
 40
0.125575166
 40
0.1468210065
 40
0.1692093663
 40
0.1928043474
 40
0.2176509726
 40
0.2437810615
 40
0.2712138734
 40
0.2999582079
 40
0.3300130804
 40
0.361367393
 40
0.3940030054
 40
0.4278921699
 40
0.4992738836
 40
0.5751336511
 40
0.6549627045
 40
0.7381362743
 40
0.8239229273
 40
0.9115041837
 40
1.0
 40
1.0
 40
1.0
 40
1.0
 10
9.9574834891
 20
9.634891804
 30
0.0
 10
9.9535191637
 20
9.6348901085
 30
0.0
 10
9.945554404
 20
9.6344198815
 30
0.0
 10
9.9336762186
 20
9.6322936505
 30
0.0
 10
9.9218680799
 20
9.6287546796
 30
0.0
 10
9.9058946641
 20
9.622031623
 30
0.0
 10
9.8904072681
 20
9.6125121351
 30
0.0
 10
9.8756169096
 20
9.6006888775
 30
0.0
 10
9.8644248826
 20
9.5902401826
 30
0.0
 10
9.8534297281
 20
9.578446002
 30
0.0
 10
9.8426477284
 20
9.5653199206
 30
0.0
 10
9.8321013714
 20
9.5508790952
 30
0.0
 10
9.8218150967
 20
9.535141852
 30
0.0
 10
9.8118133009
 20
9.5181302234
 30
0.0
 10
9.8021211477
 20
9.4998689383
 30
0.0
 10
9.7927644415
 20
9.4803860256
 30
0.0
 10
9.7837694976
 20
9.4597127784
 30
0.0
 10
9.7751621504
 20
9.4378845239
 30
0.0
 10
9.7640365075
 20
9.4067549896
 30
0.0
 10
9.7513165969
 20
9.3652193337
 30
0.0
 10
9.7382310776
 20
9.3123676456
 30
0.0
 10
9.7272608724
 20
9.2561560926
 30
0.0
 10
9.7185173347
 20
9.1971514164
 30
0.0
 10
9.7121846647
 20
9.1359716049
 30
0.0
 10
9.7083460825
 20
9.0733091881
 30
0.0
 10
9.7074836453
 20
9.031102323
 30
0.0
 10
9.7074834891
 20
9.009891804
 30
0.0
  0
SPLINE
  5
226
100
AcDbEntity
  8
0
100
AcDbSpline
 62
9
  6
CONTINUOUS
 70
0
 71
3
 72
31
 73
27
 74
0
 42
0.0000001
 43
0.0000001
 44
0.0000000001
 40
0.0
 40
0.0
 40
0.0
 40
0.0
 40
0.0884958311
 40
0.1760770906
 40
0.261863755
 40
0.3450373093
 40
0.4248663707
 40
0.500726284
 40
0.5721077996
 40
0.6059969004
 40
0.6386326038
 40
0.669987144
 40
0.7000422266
 40
0.7287864772
 40
0.7562189327
 40
0.7823487679
 40
0.8071955017
 40
0.8307908779
 40
0.8531797112
 40
0.8744256834
 40
0.8946082596
 40
0.9321367924
 40
0.9497617188
 40
0.966804258
 40
0.9834621371
 40
1.0
 40
1.0
 40
1.0
 40
1.0
 10
9.7074834891
 20
9.009891804
 30
0.0
 10
9.7074836217
 20
8.9886812859
 30
0.0
 10
9.7083460799
 20
8.9464744334
 30
0.0
 10
9.7121842256
 20
8.8838119761
 30
0.0
 10
9.7185182722
 20
8.8226323278
 30
0.0
 10
9.7272603639
 20
8.7636274865
 30
0.0
 10
9.7382301693
 20
8.7074157565
 30
0.0
 10
9.7513184967
 20
8.6545648323
 30
0.0
 10
9.7640360718
 20
8.6130285411
 30
0.0
 10
9.7751613095
 20
8.5818988918
 30
0.0
 10
9.7837690215
 20
8.5600707153
 30
0.0
 10
9.792764742
 20
8.5393976686
 30
0.0
 10
9.8021220977
 20
8.5199149866
 30
0.0
 10
9.8118139979
 20
8.5016536508
 30
0.0
 10
9.821814924
 20
8.4846417118
 30
0.0
 10
9.8321007114
 20
8.4689042844
 30
0.0
 10
9.8426472856
 20
8.4544635351
 30
0.0
 10
9.8534298389
 20
8.4413376058
 30
0.0
 10
9.8644255353
 20
8.4295436095
 30
0.0
 10
9.8756176715
 20
8.4190950511
 30
0.0
 10
9.8904073285
 20
8.4072713939
 30
0.0
 10
9.905894518
 20
8.3977515123
 30
0.0
 10
9.9218686013
 20
8.3910289708
 30
0.0
 10
9.9336774399
 20
8.3874900945
 30
0.0
 10
9.9455554328
 20
8.3853637481
 30
0.0
 10
9.9535197249
 20
8.3848934093
 30
0.0
 10
9.9574834891
 20
8.384891804
 30
0.0
  0
SPLINE
  5
227
100
AcDbEntity
  8
0
100
AcDbSpline
 62
9
  6
CONTINUOUS
 70
0
 71
3
 72
11
 73
7
 74
0
 42
0.0000001
 43
0.0000001
 44
0.0000000001
 40
0.0
 40
0.0
 40
0.0
 40
0.0
 40
0.2394232357
 40
0.4856974873
 40
0.7391989852
 40
1.0
 40
1.0
 40
1.0
 40
1.0
 10
12.0069695619
 20
10.4346123635
 30
0.0
 10
11.9784435514
 20
10.4095247698
 30
0.0
 10
11.9184220697
 20
10.3610214759
 30
0.0
 10
11.8211126704
 20
10.2952886556
 30
0.0
 10
11.7153712959
 20
10.2368061512
 30
0.0
 10
11.6404896337
 20
10.2040174478
 30
0.0
 10
11.601842375
 20
10.1892281321
 30
0.0
  0
SPLINE
  5
228
100
AcDbEntity
  8
0
100
AcDbSpline
 62
9
  6
CONTINUOUS
 70
0
 71
3
 72
11
 73
7
 74
0
 42
0.0000001
 43
0.0000001
 44
0.0000000001
 40
0.0
 40
0.0
 40
0.0
 40
0.0
 40
0.2608009487
 40
0.5143024539
 40
0.7605767056
 40
1.0
 40
1.0
 40
1.0
 40
1.0
 10
11.6018427842
 20
7.8305550332
 30
0.0
 10
11.6404903192
 20
7.8157666053
 30
0.0
 10
11.7153715304
 20
7.7829769701
 30
0.0
 10
11.8211128418
 20
7.7244947909
 30
0.0
 10
11.9184221382
 20
7.6587620327
 30
0.0
 10
11.9784437177
 20
7.6102589736
 30
0.0
 10
12.0069695619
 20
7.5851712446
 30
0.0
  0
SPLINE
  5
229
100
AcDbEntity
  8
0
100
AcDbSpline
 62
9
  6
CONTINUOUS
 70
0
 71
3
 72
13
 73
9
 74
0
 42
0.0000001
 43
0.0000001
 44
0.0000000001
 40
0.0
 40
0.0
 40
0.0
 40
0.0
 40
0.2251066268
 40
0.3455309209
 40
0.4704973734
 40
0.5993113497
 40
0.7311466555
 40
1.0
 40
1.0
 40
1.0
 40
1.0
 10
12.0069695619
 20
7.5851712446
 30
0.0
 10
12.0126410031
 20
7.5826926155
 30
0.0
 10
12.0215986078
 20
7.5794431389
 30
0.0
 10
12.0340804593
 20
7.5760311517
 30
0.0
 10
12.0441380195
 20
7.5738378768
 30
0.0
 10
12.0546009534
 20
7.5720953922
 30
0.0
 10
12.0690643537
 20
7.5703965658
 30
0.0
 10
12.0800912381
 20
7.569892929
 30
0.0
 10
12.0874834891
 20
7.569892741
 30
0.0
  0
SPLINE
  5
22A
100
AcDbEntity
  8
0
100
AcDbSpline
 62
9
  6
CONTINUOUS
 70
0
 71
3
 72
12
 73
8
 74
0
 42
0.0000001
 43
0.0000001
 44
0.0000000001
 40
0.0
 40
0.0
 40
0.0
 40
0.0
 40
0.2688742123
 40
0.5294670998
 40
0.654443267
 40
0.774876451
 40
1.0
 40
1.0
 40
1.0
 40
1.0
 10
12.0874834891
 20
10.449891382
 30
0.0
 10
12.0800912251
 20
10.4498912202
 30
0.0
 10
12.0655256332
 20
10.449224524
 30
0.0
 10
12.0476788972
 20
10.4467172494
 30
0.0
 10
12.0340806363
 20
10.4437521376
 30
0.0
 10
12.0215983276
 20
10.4403410151
 30
0.0
 10
12.0126415603
 20
10.4370897068
 30
0.0
 10
12.0069695619
 20
10.4346123635
 30
0.0
  0
ENDSEC
  0
SECTION
  2
OBJECTS
  0
DICTIONARY
  5
C
100
AcDbDictionary
280
0
281
1
  3
ACAD_GROUP
350
D
  3
ACAD_MLINESTYLE
350
17
  3
ACAD_LAYOUT
350
1A
  3
ACAD_PLOTSETTINGS
350
19
  3
ACAD_PLOTSTYLENAME
350
E
  0
DICTIONARY
  5
D
102
{ACAD_REACTORS
330
C
102
}
100
AcDbDictionary
280
0
281
1
  0
ACDBDICTIONARYWDFLT
  5
E
102
{ACAD_REACTORS
330
C
102
}
100
AcDbDictionary
281
1
  3
Normal
350
F
100
AcDbDictionaryWithDefault
340
F
  0
DICTIONARY
  5
17
102
{ACAD_REACTORS
330
C
102
}
100
AcDbDictionary
280
0
281
1
  3
Standard
350
18
  0
DICTIONARY
  5
19
102
{ACAD_REACTORS
330
C
102
}
100
AcDbDictionary
281
1
  0
DICTIONARY
  5
1A
102
{ACAD_REACTORS
330
C
102
}
100
AcDbDictionary
281
1
  3
Model
350
22B
  3
Layout1
350
22C
  0
ACDBPLACEHOLDER
  5
F
102
{ACAD_REACTORS
330
E
102
}
  0
MLINESTYLE
  5
18
102
{ACAD_REACTORS
330
17
102
}
100
AcDbMlineStyle
  2
STANDARD
 70
0
  3

 62
256
 51
90.0
 52
90.0
 71
2
 49
0.5
 62
256
  6
BYLAYER
 49
-0.5
 62
256
  6
BYLAYER
  0
LAYOUT
  5
22B
102
{ACAD_REACTORS
330
1A
102
}
100
AcDbPlotSettings
  1

  2
none_device
  4
ANSI_C_(22.00_x_17.00_Inches)
  6

 40
0.0
 41
0.0
 42
0.0
 43
0.0
 44
558.8
 45
431.8
 46
0.0
 47
0.0
 48
0.0
 49
0.0
140
0.0
141
0.0
142
1.0
143
1.0
 70
1024
 72
0
 73
0
 74
0
  7

 75
0
147
1.0
148
0.0
149
0.0
100
AcDbLayout
  1
Model
 70
0
 71
0
 10
0.0
 20
0.0
 11
22.0
 21
17.0
 12
0.0
 22
0.0
 32
0.0
 14
0.0
 24
0.0
 34
0.0
 15
0.0
 25
0.0
 35
0.0
146
0.0
 13
0.0
 23
0.0
 33
0.0
 16
1.0
 26
0.0
 36
0.0
 17
0.0
 27
1.0
 37
0.0
 76
0
330
205
345
0
346
0
  0
LAYOUT
  5
22C
102
{ACAD_REACTORS
330
1A
102
}
100
AcDbPlotSettings
  1

  2
none_device
  4
ANSI_C_(22.00_x_17.00_Inches)
  6

 40
0.0
 41
0.0
 42
0.0
 43
0.0
 44
558.8
 45
431.8
 46
0.0
 47
0.0
 48
0.0
 49
0.0
140
0.0
141
0.0
142
1.0
143
1.0
 70
0
 72
0
 73
0
 74
0
  7

 75
0
147
1.0
148
0.0
149
0.0
100
AcDbLayout
  1
Layout1
 70
0
 71
1
 10
0.0
 20
0.0
 11
22.0
 21
17.0
 12
0.0
 22
0.0
 32
0.0
 14
0.0
 24
0.0
 34
0.0
 15
0.0
 25
0.0
 35
0.0
146
0.0
 13
0.0
 23
0.0
 33
0.0
 16
1.0
 26
0.0
 36
0.0
 17
0.0
 27
1.0
 37
0.0
 76
0
330
206
345
0
346
0
  0
ENDSEC
  0
EOF
