999
DXF file: E:\BT Custom\CADOUTPUT\_TOP.dxf
999
Pro/ENGINEER 2018400 by Parametric Technology Corporation
  0
SECTION
  2
HEADER
  9
$ACADVER
  1
AC1018
  9
$DWGCODEPAGE
  3
ANSI_1252
  9
$EXTMAX
 10
22.0
 20
17.0
 30
0.0
  9
$EXTMIN
 10
0.0
 20
0.0
 30
0.0
  9
$LIMMIN
 10
0.0
 20
0.0
  9
$LIMMAX
 10
22.0
 20
17.0
  9
$VIEWCTR
 10
11.0
 20
8.5
  9
$VIEWSIZE
 40
17.0
  9
$CLAYER
  8
0
  9
$LTSCALE
 40
1.21
  9
$CELTYPE
  6
BYLAYER
  9
$DIMSCALE
 40
1.0
  9
$DIMASZ
 40
0.1
  9
$DIMEXO
 40
0.0625
  9
$DIMDLI
 40
0.836
  9
$DIMEXE
 40
0.125
  9
$DIMCEN
 40
0.198
  9
$DIMLFAC
 40
1.0
  9
$DIMBLK
  1
_FILLED
  9
$DIMALT
 70
1
  9
$DIMALTD
 70
2
  9
$DIMALTTD
 70
2
  9
$DIMALTF
 40
25.4
  9
$DIMTXT
 40
0.08
  9
$DIMTOL
 70
1
  9
$DIMLIM
 70
0
  9
$DIMTFAC
 40
1.0
  9
$DIMTP
 40
0.001
  9
$DIMTM
 40
0.001
  9
$DIMGAP
 40
0.09
  9
$DIMDSEP
 70
46
  9
$AUNITS
 70
0
  9
$PDMODE
 70
3
  9
$PDSIZE
 40
0.06
  9
$HANDSEED
  5
266
  9
$TILEMODE
 70
1
  9
$MEASUREMENT
 70
0
  9
$INSUNITS
 70
1
  0
ENDSEC
  0
SECTION
  2
CLASSES
  0
CLASS
  1
ACDBDICTIONARYWDFLT
  2
AcDbDictionaryWithDefault
  3
AutoCAD 2000
 90
0
 91
1
280
0
281
0
  0
CLASS
  1
ACDBPLACEHOLDER
  2
AcDbPlaceHolder
  3
AutoCAD 2000
 90
0
 91
1
280
0
281
0
  0
CLASS
  1
LAYOUT
  2
AcDbLayout
  3
AutoCAD 2000
 90
0
 91
0
280
0
281
0
  0
ENDSEC
  0
SECTION
  2
TABLES
  0
TABLE
  2
VPORT
  5
8
100
AcDbSymbolTable
 70
2
  0
VPORT
  5
1F4
100
AcDbSymbolTableRecord
100
AcDbViewportTableRecord
  2
*ACTIVE
 70
0
 10
0.0
 20
0.0
 11
1.0
 21
1.0
 12
11.0
 22
8.5
 13
0.0
 23
0.0
 14
1.0
 24
1.0
 15
0.0
 25
0.0
 16
0.0
 26
0.0
 36
1.0
 17
0.0
 27
0.0
 37
0.0
 40
17.0
 41
1.2941176471
 42
50.0
 43
0.0
 44
0.0
 50
0.0
 51
0.0
 71
0
 72
100
 73
1
 74
1
 75
0
 76
0
 77
0
 78
0
  0
ENDTAB
  0
TABLE
  2
LTYPE
  5
5
100
AcDbSymbolTable
 70
6
  0
LTYPE
  5
14
100
AcDbSymbolTableRecord
100
AcDbLinetypeTableRecord
  2
BYBLOCK
 70
0
  3

 72
65
 73
0
 40
0.0
  0
LTYPE
  5
15
100
AcDbSymbolTableRecord
100
AcDbLinetypeTableRecord
  2
BYLAYER
 70
0
  3

 72
65
 73
0
 40
0.0
  0
LTYPE
  5
16
100
AcDbSymbolTableRecord
100
AcDbLinetypeTableRecord
  2
CONTINUOUS
 70
64
  3
Solid line
 72
65
 73
0
 40
0.0
  0
LTYPE
  5
1F5
100
AcDbSymbolTableRecord
100
AcDbLinetypeTableRecord
  2
CENTER
 70
64
  3
____ _ ____ _ ____ _ ____ _ ____ _ ____ _ ____
 72
65
 73
4
 40
0.6
 49
0.375
 74
0
 49
-0.075
 74
0
 49
0.075
 74
0
 49
-0.075
 74
0
  0
LTYPE
  5
1F6
100
AcDbSymbolTableRecord
100
AcDbLinetypeTableRecord
  2
HIDDEN
 70
64
  3
- - - - - - - - - - - - - - - - - - - -
 72
65
 73
2
 40
0.2
 49
0.1
 74
0
 49
-0.1
 74
0
  0
LTYPE
  5
1F7
100
AcDbSymbolTableRecord
100
AcDbLinetypeTableRecord
  2
PHANTOM
 70
64
  3
_____ _ _ _____ _ _ _____ _ _ _____
 72
65
 73
6
 40
0.8
 49
0.45
 74
0
 49
-0.05
 74
0
 49
0.1
 74
0
 49
-0.05
 74
0
 49
0.1
 74
0
 49
-0.05
 74
0
  0
LTYPE
  5
1F8
100
AcDbSymbolTableRecord
100
AcDbLinetypeTableRecord
  2
DOT
 70
64
  3
. . . . . . . . . . . . . . . . . . . .
 72
65
 73
2
 40
0.2
 49
0.1
 74
0
 49
-0.1
 74
0
  0
LTYPE
  5
1F9
100
AcDbSymbolTableRecord
100
AcDbLinetypeTableRecord
  2
DASHED
 70
64
  3
- - - - - - - - - - - - - - - - - - - -
 72
65
 73
2
 40
0.2
 49
0.1
 74
0
 49
-0.1
 74
0
  0
ENDTAB
  0
TABLE
  2
LAYER
  5
2
100
AcDbSymbolTable
 70
36
  0
LAYER
  5
10
100
AcDbSymbolTableRecord
100
AcDbLayerTableRecord
  2
0
 70
0
 62
7
  6
CONTINUOUS
370
-3
390
F
  0
LAYER
  5
1FA
100
AcDbSymbolTableRecord
100
AcDbLayerTableRecord
  2
DEFAULT_1
 70
0
 62
7
  6
CENTER
370
-3
390
F
  0
LAYER
  5
1FB
100
AcDbSymbolTableRecord
100
AcDbLayerTableRecord
  2
DEFAULT_2
 70
0
 62
8
  6
HIDDEN
370
-3
390
F
  0
LAYER
  5
1FC
100
AcDbSymbolTableRecord
100
AcDbLayerTableRecord
  2
DEFAULT_3
 70
0
 62
7
  6
PHANTOM
370
-3
390
F
  0
LAYER
  5
1FD
100
AcDbSymbolTableRecord
100
AcDbLayerTableRecord
  2
ALL_FEATURES
 70
0
 62
7
  6
CONTINUOUS
370
-3
390
F
  0
LAYER
  5
1FE
100
AcDbSymbolTableRecord
100
AcDbLayerTableRecord
  2
AXES_FEATURES
 70
0
 62
7
  6
CONTINUOUS
370
-3
390
F
  0
LAYER
  5
1FF
100
AcDbSymbolTableRecord
100
AcDbLayerTableRecord
  2
DEFAULT_COORDINATE_SYSTEM
 70
0
 62
7
  6
CONTINUOUS
370
-3
390
F
  0
LAYER
  5
200
100
AcDbSymbolTableRecord
100
AcDbLayerTableRecord
  2
DEFAULT_DATUM_AXES
 70
0
 62
7
  6
CONTINUOUS
370
-3
390
F
  0
LAYER
  5
201
100
AcDbSymbolTableRecord
100
AcDbLayerTableRecord
  2
DEFAULT_DATUM_PLANES
 70
0
 62
7
  6
CONTINUOUS
370
-3
390
F
  0
LAYER
  5
202
100
AcDbSymbolTableRecord
100
AcDbLayerTableRecord
  2
DIMENSIONS
 70
0
 62
7
  6
CONTINUOUS
370
-3
390
F
  0
ENDTAB
  0
TABLE
  2
STYLE
  5
3
100
AcDbSymbolTable
 70
1
  0
STYLE
  5
11
100
AcDbSymbolTableRecord
100
AcDbTextStyleTableRecord
  2
STANDARD
 70
0
 40
0.0
 41
0.8
 50
0.0
 71
0
 42
0.2
  3
txt
  4

  0
STYLE
  5
203
100
AcDbSymbolTableRecord
100
AcDbTextStyleTableRecord
  2
TEXTSTYLE_1
 70
0
 40
0.0
 41
0.8
 50
0.0
 71
0
 42
0.2
  3
gdt
  4

  0
ENDTAB
  0
TABLE
  2
VIEW
  5
6
100
AcDbSymbolTable
 70
0
  0
ENDTAB
  0
TABLE
  2
UCS
  5
7
100
AcDbSymbolTable
 70
0
  0
ENDTAB
  0
TABLE
  2
APPID
  5
9
100
AcDbSymbolTable
 70
1
  0
APPID
  5
204
100
AcDbSymbolTableRecord
100
AcDbRegAppTableRecord
  2
ACAD
 70
0
  0
ENDTAB
  0
TABLE
  2
BLOCK_RECORD
  5
1
100
AcDbSymbolTable
 70
0
  0
BLOCK_RECORD
  5
205
100
AcDbSymbolTableRecord
100
AcDbBlockTableRecord
  2
*Model_Space
  0
BLOCK_RECORD
  5
206
100
AcDbSymbolTableRecord
100
AcDbBlockTableRecord
  2
*Paper_Space
  0
BLOCK_RECORD
  5
207
100
AcDbSymbolTableRecord
100
AcDbBlockTableRecord
  2
_FILLED
  0
ENDTAB
  0
TABLE
  2
DIMSTYLE
  5
A
100
AcDbSymbolTable
 70
1
100
AcDbDimStyleTable
 71
0
  0
DIMSTYLE
105
208
100
AcDbSymbolTableRecord
100
AcDbDimStyleTableRecord
  2
STANDARD
 70
0
  3

  4

 40
1.0
 41
0.1
 42
0.0625
 43
0.38
 44
0.125
 45
0.0
 46
0.0
 47
0.001
 48
0.001
140
0.08
141
0.09
142
0.0
143
25.4
144
1.0
145
0.0
146
1.0
147
0.09
 71
1.0
 72
0.0
 73
1
 74
1
 75
0
 76
0
 77
0
 78
4
 79
1
170
1
171
2
172
0
173
0
174
0
175
0
176
0
177
0
178
0
270
2
179
3
271
3
272
3
273
2
274
2
275
0
280
0
281
0
282
0
283
1
284
4
285
0
286
0
287
3
288
0
340
11
278
46
341
207
342
207
343
207
344
207
  0
ENDTAB
  0
ENDSEC
  0
SECTION
  2
BLOCKS
  0
BLOCK
  5
20
100
AcDbEntity
  8
0
100
AcDbBlockBegin
  2
*Model_Space
 70
0
 10
0.0
 20
0.0
 30
0.0
  3
*Model_Space
  1

  0
ENDBLK
  5
21
100
AcDbEntity
  8
0
100
AcDbBlockEnd
  0
BLOCK
  5
1C
100
AcDbEntity
  8
0
100
AcDbBlockBegin
  2
*Paper_Space
 70
0
 10
0.0
 20
0.0
 30
0.0
  3
*Paper_Space
  1

  0
ENDBLK
  5
1D
100
AcDbEntity
  8
0
100
AcDbBlockEnd
  0
BLOCK
  5
209
100
AcDbEntity
  8
0
100
AcDbBlockBegin
  2
_FILLED
 70
64
 10
0.0
 20
0.0
  3
_FILLED
  1

  0
SOLID
  5
20A
100
AcDbEntity
  8
0
  6
BYBLOCK
 62
0
100
AcDbTrace
 10
0.0
 20
0.0
 11
-1.0
 21
0.2
 12
-1.0
 22
-0.2
 13
-1.0
 23
-0.2
  0
ENDBLK
  5
20B
100
AcDbEntity
  8
0
  6
BYBLOCK
 62
0
100
AcDbBlockEnd
  0
ENDSEC
  0
SECTION
  2
ENTITIES
  0
LINE
  5
20C
100
AcDbEntity
  8
0
100
AcDbLine
 62
9
  6
CONTINUOUS
 10
-2.1320180472
 20
8.3348318604
 11
-2.1320179272
 21
8.374190585
  0
LINE
  5
20D
100
AcDbEntity
  8
0
100
AcDbLine
 62
7
  6
CONTINUOUS
 10
-1.8276816617
 20
8.3198318604
 11
-1.8276816617
 21
8.3348318604
  0
LINE
  5
20E
100
AcDbEntity
  8
0
100
AcDbLine
 62
7
  6
CONTINUOUS
 10
-1.5776816617
 20
6.4798318604
 11
-1.5776816617
 21
8.2598318604
  0
LINE
  5
20F
100
AcDbEntity
  8
0
100
AcDbLine
 62
7
  6
CONTINUOUS
 10
-0.3276816617
 20
7.4168318604
 11
-0.3276816617
 21
8.2598318604
  0
LINE
  5
210
100
AcDbEntity
  8
0
100
AcDbLine
 62
7
  6
CONTINUOUS
 10
-0.0776816617
 20
8.3348318604
 11
-0.0776816617
 21
8.3198318604
  0
LINE
  5
211
100
AcDbEntity
  8
0
100
AcDbLine
 62
7
  6
CONTINUOUS
 10
0.1523183383
 20
6.1048318604
 11
0.1523183383
 21
7.3548318604
  0
LINE
  5
212
100
AcDbEntity
  8
0
100
AcDbLine
 62
7
  6
CONTINUOUS
 10
0.1723183383
 20
6.1248318604
 11
0.1723183383
 21
7.3348318604
  0
LINE
  5
213
100
AcDbEntity
  8
0
100
AcDbLine
 62
7
  6
CONTINUOUS
 10
0.1923183383
 20
6.1048318604
 11
0.1923183383
 21
7.3548318604
  0
LINE
  5
214
100
AcDbEntity
  8
0
100
AcDbLine
 62
9
  6
CONTINUOUS
 10
0.2266547219
 20
8.3348318604
 11
0.2266546695
 21
8.3741907669
  0
LINE
  5
215
100
AcDbEntity
  8
0
100
AcDbLine
 62
7
  6
CONTINUOUS
 10
0.1723183383
 20
6.1248318604
 11
0.1923183339
 21
6.1048318648
  0
LINE
  5
216
100
AcDbEntity
  8
0
100
AcDbLine
 62
7
  6
CONTINUOUS
 10
0.1723183383
 20
7.3348318604
 11
0.1923183339
 21
7.354831856
  0
LINE
  5
217
100
AcDbEntity
  8
0
100
AcDbLine
 62
7
  6
CONTINUOUS
 10
0.1523183383
 20
7.3548318604
 11
0.1723183383
 21
7.3348318604
  0
LINE
  5
218
100
AcDbEntity
  8
0
100
AcDbLine
 62
7
  6
CONTINUOUS
 10
0.1523183383
 20
6.1048318604
 11
0.1723183383
 21
6.1248318604
  0
LINE
  5
219
100
AcDbEntity
  8
0
100
AcDbLine
 62
7
  6
CONTINUOUS
 10
21.9023183383
 20
6.1048318604
 11
0.1923183383
 21
6.1048318604
  0
LINE
  5
21A
100
AcDbEntity
  8
0
100
AcDbLine
 62
7
  6
CONTINUOUS
 10
0.1523183383
 20
6.1048318604
 11
-1.2026816617
 21
6.1048318604
  0
LINE
  5
21B
100
AcDbEntity
  8
0
100
AcDbLine
 62
7
  6
CONTINUOUS
 10
21.9423183383
 20
6.1048318604
 11
23.2973183383
 21
6.1048318604
  0
LINE
  5
21C
100
AcDbEntity
  8
0
100
AcDbLine
 62
7
  6
CONTINUOUS
 10
21.9023183383
 20
7.3548318604
 11
0.1923183383
 21
7.3548318604
  0
LINE
  5
21D
100
AcDbEntity
  8
0
100
AcDbLine
 62
7
  6
CONTINUOUS
 10
0.1523183383
 20
7.3548318604
 11
-0.2656816617
 21
7.3548318604
  0
LINE
  5
21E
100
AcDbEntity
  8
0
100
AcDbLine
 62
7
  6
CONTINUOUS
 10
21.9423183383
 20
7.3548318604
 11
22.3603183383
 21
7.3548318604
  0
LINE
  5
21F
100
AcDbEntity
  8
0
100
AcDbLine
 62
7
  6
CONTINUOUS
 10
23.8623183383
 20
8.2598318604
 11
22.2323183383
 21
8.2598318604
  0
LINE
  5
220
100
AcDbEntity
  8
0
100
AcDbLine
 62
7
  6
CONTINUOUS
 10
-0.1376816617
 20
8.2598318604
 11
-1.7676816617
 21
8.2598318604
  0
LINE
  5
221
100
AcDbEntity
  8
0
100
AcDbLine
 62
9
  6
CONTINUOUS
 10
23.9223183383
 20
8.3198318604
 11
22.1723183383
 21
8.3198318604
  0
LINE
  5
222
100
AcDbEntity
  8
0
100
AcDbLine
 62
9
  6
CONTINUOUS
 10
-0.0776816617
 20
8.3198318604
 11
-1.8276816617
 21
8.3198318604
  0
LINE
  5
223
100
AcDbEntity
  8
0
100
AcDbLine
 62
7
  6
CONTINUOUS
 10
24.2266542866
 20
8.3348318604
 11
21.8679823899
 21
8.3348318604
  0
LINE
  5
224
100
AcDbEntity
  8
0
100
AcDbLine
 62
7
  6
CONTINUOUS
 10
0.2266542866
 20
8.3348318604
 11
-2.1320176101
 21
8.3348318604
  0
LINE
  5
225
100
AcDbEntity
  8
0
100
AcDbLine
 62
9
  6
CONTINUOUS
 10
24.2266546718
 20
8.3741907669
 11
21.8679820102
 21
8.3741907463
  0
LINE
  5
226
100
AcDbEntity
  8
0
100
AcDbLine
 62
9
  6
CONTINUOUS
 10
0.2266546718
 20
8.3741907669
 11
-2.1320179898
 21
8.3741907463
  0
LINE
  5
227
100
AcDbEntity
  8
0
100
AcDbLine
 62
9
  6
CONTINUOUS
 10
24.4720388978
 20
8.7793179332
 11
21.6225977788
 21
8.7793179332
  0
LINE
  5
228
100
AcDbEntity
  8
0
100
AcDbLine
 62
9
  6
CONTINUOUS
 10
0.4720388978
 20
8.7793179332
 11
-2.3774022212
 21
8.7793179332
  0
LINE
  5
229
100
AcDbEntity
  8
0
100
AcDbLine
 62
7
  6
CONTINUOUS
 10
0.5473183383
 20
8.8598318604
 11
-2.4526816617
 21
8.8598318604
  0
LINE
  5
22A
100
AcDbEntity
  8
0
100
AcDbLine
 62
7
  6
CONTINUOUS
 10
21.5473183383
 20
8.8598318604
 11
24.5473183383
 21
8.8598318604
  0
LINE
  5
22B
100
AcDbEntity
  8
0
100
AcDbLine
 62
7
  6
CONTINUOUS
 10
21.9423183383
 20
6.1048318604
 11
21.9223183383
 21
6.1248318604
  0
LINE
  5
22C
100
AcDbEntity
  8
0
100
AcDbLine
 62
7
  6
CONTINUOUS
 10
21.9423183383
 20
7.3548318604
 11
21.9223183383
 21
7.3348318604
  0
LINE
  5
22D
100
AcDbEntity
  8
0
100
AcDbLine
 62
7
  6
CONTINUOUS
 10
21.9223183383
 20
7.3348318604
 11
21.9023183437
 21
7.354831855
  0
LINE
  5
22E
100
AcDbEntity
  8
0
100
AcDbLine
 62
7
  6
CONTINUOUS
 10
21.9223183383
 20
6.1248318604
 11
21.9023183437
 21
6.1048318658
  0
LINE
  5
22F
100
AcDbEntity
  8
0
100
AcDbLine
 62
9
  6
CONTINUOUS
 10
21.8679819528
 20
8.3348318604
 11
21.8679820728
 21
8.374190585
  0
LINE
  5
230
100
AcDbEntity
  8
0
100
AcDbLine
 62
7
  6
CONTINUOUS
 10
21.9023183383
 20
7.3548318604
 11
21.9023183383
 21
6.1048318604
  0
LINE
  5
231
100
AcDbEntity
  8
0
100
AcDbLine
 62
7
  6
CONTINUOUS
 10
21.9223183383
 20
7.3348318604
 11
21.9223183383
 21
6.1248318604
  0
LINE
  5
232
100
AcDbEntity
  8
0
100
AcDbLine
 62
7
  6
CONTINUOUS
 10
21.9423183383
 20
7.3548318604
 11
21.9423183383
 21
6.1048318604
  0
LINE
  5
233
100
AcDbEntity
  8
0
100
AcDbLine
 62
7
  6
CONTINUOUS
 10
22.1723183383
 20
8.3198318604
 11
22.1723183383
 21
8.3348318604
  0
LINE
  5
234
100
AcDbEntity
  8
0
100
AcDbLine
 62
7
  6
CONTINUOUS
 10
22.4223183383
 20
7.4168318604
 11
22.4223183383
 21
8.2598318604
  0
LINE
  5
235
100
AcDbEntity
  8
0
100
AcDbLine
 62
7
  6
CONTINUOUS
 10
23.6723183383
 20
6.4798318604
 11
23.6723183383
 21
8.2598318604
  0
LINE
  5
236
100
AcDbEntity
  8
0
100
AcDbLine
 62
7
  6
CONTINUOUS
 10
23.9223183383
 20
8.3348318604
 11
23.9223183383
 21
8.3198318604
  0
LINE
  5
237
100
AcDbEntity
  8
0
100
AcDbLine
 62
9
  6
CONTINUOUS
 10
24.2266547219
 20
8.3348318604
 11
24.2266546695
 21
8.3741907669
  0
ARC
  5
238
100
AcDbEntity
  8
0
100
AcDbCircle
 62
7
  6
CONTINUOUS
 10
-1.2026815538
 20
6.4798319683
 40
0.3749998382
100
AcDbArc
 50
180.0000164854
 51
269.9999835146
  0
ARC
  5
239
100
AcDbEntity
  8
0
100
AcDbCircle
 62
7
  6
CONTINUOUS
 10
-0.2656819578
 20
7.4168315643
 40
0.0619999733
100
AcDbArc
 50
179.9997263728
 51
270.0002736272
  0
ARC
  5
23A
100
AcDbEntity
  8
0
100
AcDbCircle
 62
7
  6
CONTINUOUS
 10
1.5505925726
 20
7.9097675193
 40
1.35
100
AcDbArc
 50
139.900914728
 51
159.8781861356
  0
ARC
  5
23B
100
AcDbEntity
  8
0
100
AcDbCircle
 62
7
  6
CONTINUOUS
 10
-3.455955896
 20
7.9097675193
 40
1.35
100
AcDbArc
 50
20.1218147962
 51
40.099085272
  0
ARC
  5
23C
100
AcDbEntity
  8
0
100
AcDbCircle
 62
7
  6
CONTINUOUS
 10
0.4223183383
 20
8.8598318604
 40
0.125
100
AcDbArc
 50
319.900914728
 51
360.0
  0
ARC
  5
23D
100
AcDbEntity
  8
0
100
AcDbCircle
 62
7
  6
CONTINUOUS
 10
-2.3276816617
 20
8.8598318604
 40
0.125
100
AcDbArc
 50
180.0
 51
220.099085272
  0
ARC
  5
23E
100
AcDbEntity
  8
0
100
AcDbCircle
 62
7
  6
CONTINUOUS
 10
-0.1376816617
 20
8.3198318604
 40
0.06
100
AcDbArc
 50
270.0
 51
360.0
  0
ARC
  5
23F
100
AcDbEntity
  8
0
100
AcDbCircle
 62
7
  6
CONTINUOUS
 10
-1.7676816617
 20
8.3198318604
 40
0.06
100
AcDbArc
 50
180.0
 51
270.0
  0
ARC
  5
240
100
AcDbEntity
  8
0
100
AcDbCircle
 62
7
  6
CONTINUOUS
 10
-2.1320176101
 20
8.3948318604
 40
0.06
100
AcDbArc
 50
200.121876116
 51
270.0
  0
ARC
  5
241
100
AcDbEntity
  8
0
100
AcDbCircle
 62
7
  6
CONTINUOUS
 10
0.2266542866
 20
8.3948318604
 40
0.06
100
AcDbArc
 50
270.0
 51
339.8779388685
  0
ARC
  5
242
100
AcDbEntity
  8
0
100
AcDbCircle
 62
7
  6
CONTINUOUS
 10
23.2973182304
 20
6.4798319683
 40
0.3749998382
100
AcDbArc
 50
270.0000164854
 51
359.9999835146
  0
ARC
  5
243
100
AcDbEntity
  8
0
100
AcDbCircle
 62
7
  6
CONTINUOUS
 10
22.3603186344
 20
7.4168315643
 40
0.0619999733
100
AcDbArc
 50
269.9997263728
 51
0.0002736272
  0
ARC
  5
244
100
AcDbEntity
  8
0
100
AcDbCircle
 62
7
  6
CONTINUOUS
 10
20.544044104
 20
7.9097675193
 40
1.35
100
AcDbArc
 50
20.1218147962
 51
40.099085272
  0
ARC
  5
245
100
AcDbEntity
  8
0
100
AcDbCircle
 62
7
  6
CONTINUOUS
 10
25.5505925726
 20
7.9097675193
 40
1.35
100
AcDbArc
 50
139.900914728
 51
159.8781861356
  0
ARC
  5
246
100
AcDbEntity
  8
0
100
AcDbCircle
 62
7
  6
CONTINUOUS
 10
21.6723183383
 20
8.8598318604
 40
0.125
100
AcDbArc
 50
180.0
 51
220.099085272
  0
ARC
  5
247
100
AcDbEntity
  8
0
100
AcDbCircle
 62
7
  6
CONTINUOUS
 10
24.4223183383
 20
8.8598318604
 40
0.125
100
AcDbArc
 50
319.900914728
 51
360.0
  0
ARC
  5
248
100
AcDbEntity
  8
0
100
AcDbCircle
 62
7
  6
CONTINUOUS
 10
21.8679823899
 20
8.3948318604
 40
0.06
100
AcDbArc
 50
200.1218761161
 51
270.0
  0
ARC
  5
249
100
AcDbEntity
  8
0
100
AcDbCircle
 62
7
  6
CONTINUOUS
 10
24.2266542866
 20
8.3948318604
 40
0.06
100
AcDbArc
 50
270.0
 51
339.8779388685
  0
ARC
  5
24A
100
AcDbEntity
  8
0
100
AcDbCircle
 62
7
  6
CONTINUOUS
 10
23.8623183383
 20
8.3198318604
 40
0.06
100
AcDbArc
 50
270.0
 51
360.0
  0
ARC
  5
24B
100
AcDbEntity
  8
0
100
AcDbCircle
 62
7
  6
CONTINUOUS
 10
22.2323183383
 20
8.3198318604
 40
0.06
100
AcDbArc
 50
180.0
 51
270.0
  0
SPLINE
  5
24C
100
AcDbEntity
  8
0
100
AcDbSpline
 62
9
  6
CONTINUOUS
 70
0
 71
3
 72
17
 73
13
 74
0
 42
0.0000001
 43
0.0000001
 44
0.0000000001
 40
0.0
 40
0.0
 40
0.0
 40
0.0
 40
0.1596972158
 40
0.3104440692
 40
0.4507563476
 40
0.5798211267
 40
0.6975936424
 40
0.8050829153
 40
0.8557137621
 40
0.9047538238
 40
0.9526815367
 40
1.0
 40
1.0
 40
1.0
 40
1.0
 10
21.6225977789
 20
8.7793179331
 30
0.0
 10
21.6202534555
 20
8.7781628821
 30
0.0
 10
21.6155967855
 20
8.7761109523
 30
0.0
 10
21.6085791896
 20
8.7737975638
 30
0.0
 10
21.601837215
 20
8.7723709426
 30
0.0
 10
21.59550106
 20
8.7718617826
 30
0.0
 10
21.589692229
 20
8.7722865303
 30
0.0
 10
21.5852934263
 20
8.7734504346
 30
0.0
 10
21.5822030977
 20
8.7748610243
 30
0.0
 10
21.5801352845
 20
8.7761215484
 30
0.0
 10
21.5782853354
 20
8.7775988061
 30
0.0
 10
21.5772006525
 20
8.7787255999
 30
0.0
 10
21.5767018777
 20
8.7793179332
 30
0.0
  0
LINE
  5
24D
100
AcDbEntity
  8
0
100
AcDbLine
 62
9
  6
CONTINUOUS
 10
-0.3276816617
 20
7.4168318604
 11
-0.9526816617
 21
6.7298318604
  0
SPLINE
  5
24E
100
AcDbEntity
  8
0
100
AcDbSpline
 62
9
  6
CONTINUOUS
 70
0
 71
3
 72
11
 73
7
 74
0
 42
0.0000001
 43
0.0000001
 44
0.0000000001
 40
0.0
 40
0.0
 40
0.0
 40
0.0
 40
0.2394232357
 40
0.4856974873
 40
0.7391989852
 40
1.0
 40
1.0
 40
1.0
 40
1.0
 10
21.6225977788
 20
8.7793179332
 30
0.0
 10
21.6476853725
 20
8.7507919227
 30
0.0
 10
21.6961886665
 20
8.690770441
 30
0.0
 10
21.7619214867
 20
8.5934610417
 30
0.0
 10
21.8204039911
 20
8.4877196672
 30
0.0
 10
21.8531926945
 20
8.412838005
 30
0.0
 10
21.8679820102
 20
8.3741907463
 30
0.0
  0
LINE
  5
24F
100
AcDbEntity
  8
0
100
AcDbLine
 62
9
  6
CONTINUOUS
 10
-1.5776816617
 20
6.4798318604
 11
-0.9526816617
 21
6.7298318604
  0
SPLINE
  5
250
100
AcDbEntity
  8
0
100
AcDbSpline
 62
9
  6
CONTINUOUS
 70
0
 71
3
 72
20
 73
16
 74
0
 42
0.0000001
 43
0.0000001
 44
0.0000000001
 40
0.0
 40
0.0
 40
0.0
 40
0.0
 40
0.1794081709
 40
0.350096103
 40
0.5072479488
 40
0.5794374839
 40
0.6467663618
 40
0.7088775578
 40
0.7655252184
 40
0.816575734
 40
0.8620810955
 40
0.9023172449
 40
0.9379192131
 40
0.9699598625
 40
1.0
 40
1.0
 40
1.0
 40
1.0
 10
21.8679820728
 20
8.3741904398
 30
0.0
 10
21.8645994597
 20
8.3730977581
 30
0.0
 10
21.8579342312
 20
8.371157655
 30
0.0
 10
21.8481198014
 20
8.3689623237
 30
0.0
 10
21.8402716504
 20
8.3677873223
 30
0.0
 10
21.8344107609
 20
8.3673123488
 30
0.0
 10
21.8304156292
 20
8.3671906513
 30
0.0
 10
21.826727578
 20
8.3672942951
 30
0.0
 10
21.8233757333
 20
8.3676214613
 30
0.0
 10
21.8203859081
 20
8.3681708156
 30
0.0
 10
21.8177798412
 20
8.3689376528
 30
0.0
 10
21.815575802
 20
8.3699201944
 30
0.0
 10
21.8137891017
 20
8.3711180485
 30
0.0
 10
21.8124422046
 20
8.37253305
 30
0.0
 10
21.8118489605
 20
8.3736317427
 30
0.0
 10
21.8116442004
 20
8.3741906162
 30
0.0
  0
SPLINE
  5
251
100
AcDbEntity
  8
0
100
AcDbSpline
 62
9
  6
CONTINUOUS
 70
0
 71
3
 72
11
 73
7
 74
0
 42
0.0000001
 43
0.0000001
 44
0.0000000001
 40
0.0
 40
0.0
 40
0.0
 40
0.0
 40
0.2394232357
 40
0.4856974873
 40
0.7391989852
 40
1.0
 40
1.0
 40
1.0
 40
1.0
 10
-2.3774022212
 20
8.7793179332
 30
0.0
 10
-2.3523146275
 20
8.7507919227
 30
0.0
 10
-2.3038113335
 20
8.690770441
 30
0.0
 10
-2.2380785133
 20
8.5934610417
 30
0.0
 10
-2.1795960089
 20
8.4877196672
 30
0.0
 10
-2.1468073055
 20
8.412838005
 30
0.0
 10
-2.1320179898
 20
8.3741907463
 30
0.0
  0
SPLINE
  5
252
100
AcDbEntity
  8
0
100
AcDbSpline
 62
9
  6
CONTINUOUS
 70
0
 71
3
 72
11
 73
7
 74
0
 42
0.0000001
 43
0.0000001
 44
0.0000000001
 40
0.0
 40
0.0
 40
0.0
 40
0.0
 40
0.2394232755
 40
0.4856975158
 40
0.7391990059
 40
1.0
 40
1.0
 40
1.0
 40
1.0
 10
0.4720388978
 20
8.7793179332
 30
0.0
 10
0.4469513061
 20
8.7507919137
 30
0.0
 10
0.3984479255
 20
8.6907704989
 30
0.0
 10
0.3327151499
 20
8.5934610623
 30
0.0
 10
0.2742326912
 20
8.4877196754
 30
0.0
 10
0.2414439945
 20
8.4128380184
 30
0.0
 10
0.2266546718
 20
8.3741907669
 30
0.0
  0
SPLINE
  5
253
100
AcDbEntity
  8
0
100
AcDbSpline
 62
9
  6
CONTINUOUS
 70
0
 71
3
 72
15
 73
11
 74
0
 42
0.0000001
 43
0.0000001
 44
0.0000000001
 40
0.0
 40
0.0
 40
0.0
 40
0.0
 40
0.1349457842
 40
0.2688803833
 40
0.4006936891
 40
0.5294865704
 40
0.6544298972
 40
0.7748363545
 40
0.8901842284
 40
1.0
 40
1.0
 40
1.0
 40
1.0
 10
0.4873179241
 20
8.8598318604
 30
0.0
 10
0.4873182273
 20
8.8561208439
 30
0.0
 10
0.4871491817
 20
8.8487254191
 30
0.0
 10
0.4863809926
 20
8.8377291587
 30
0.0
 10
0.485110059
 20
8.8269498418
 30
0.0
 10
0.4833720737
 20
8.8164864736
 30
0.0
 10
0.4811810681
 20
8.8064288563
 30
0.0
 10
0.4785588595
 20
8.7968574827
 30
0.0
 10
0.4755501451
 20
8.7878382401
 30
0.0
 10
0.4732505403
 20
8.7820841506
 30
0.0
 10
0.4720388978
 20
8.7793179332
 30
0.0
  0
SPLINE
  5
254
100
AcDbEntity
  8
0
100
AcDbSpline
 62
9
  6
CONTINUOUS
 70
0
 71
3
 72
12
 73
8
 74
0
 42
0.0000001
 43
0.0000001
 44
0.0000000001
 40
0.0
 40
0.0
 40
0.0
 40
0.0
 40
0.2688742123
 40
0.5294670998
 40
0.654443267
 40
0.774876451
 40
1.0
 40
1.0
 40
1.0
 40
1.0
 10
-2.3926812397
 20
8.8598318604
 30
0.0
 10
-2.3926810778
 20
8.8524395964
 30
0.0
 10
-2.3920143817
 20
8.8378740045
 30
0.0
 10
-2.3895071071
 20
8.8200272684
 30
0.0
 10
-2.3865419952
 20
8.8064290075
 30
0.0
 10
-2.3831308727
 20
8.7939466988
 30
0.0
 10
-2.3798795645
 20
8.7849899315
 30
0.0
 10
-2.3774022212
 20
8.7793179332
 30
0.0
  0
SPLINE
  5
255
100
AcDbEntity
  8
0
100
AcDbSpline
 62
9
  6
CONTINUOUS
 70
0
 71
3
 72
17
 73
13
 74
0
 42
0.0000001
 43
0.0000001
 44
0.0000000001
 40
0.0
 40
0.0
 40
0.0
 40
0.0
 40
0.0473184636
 40
0.0952461767
 40
0.1442862384
 40
0.1949170851
 40
0.3024063575
 40
0.4201788727
 40
0.5492436515
 40
0.6895559299
 40
0.8403027836
 40
1.0
 40
1.0
 40
1.0
 40
1.0
 10
24.5179347987
 20
8.7793179331
 30
0.0
 10
24.517436024
 20
8.7787255998
 30
0.0
 10
24.5163513411
 20
8.777598806
 30
0.0
 10
24.514501392
 20
8.7761215483
 30
0.0
 10
24.5124335788
 20
8.7748610242
 30
0.0
 10
24.5093432502
 20
8.7734504345
 30
0.0
 10
24.5049444476
 20
8.7722865302
 30
0.0
 10
24.4991356165
 20
8.7718617826
 30
0.0
 10
24.4927994616
 20
8.7723709427
 30
0.0
 10
24.486057487
 20
8.7737975638
 30
0.0
 10
24.4790398911
 20
8.7761109524
 30
0.0
 10
24.4743832211
 20
8.7781628822
 30
0.0
 10
24.4720388978
 20
8.7793179332
 30
0.0
  0
LINE
  5
256
100
AcDbEntity
  8
0
100
AcDbLine
 62
9
  6
CONTINUOUS
 10
23.0473183383
 20
6.7298318604
 11
22.3603183368
 21
7.3548318604
  0
LINE
  5
257
100
AcDbEntity
  8
0
100
AcDbLine
 62
9
  6
CONTINUOUS
 10
23.0473183383
 20
6.7298318604
 11
23.2973183383
 21
6.1048318604
  0
SPLINE
  5
258
100
AcDbEntity
  8
0
100
AcDbSpline
 62
9
  6
CONTINUOUS
 70
0
 71
3
 72
12
 73
8
 74
0
 42
0.0000001
 43
0.0000001
 44
0.0000000001
 40
0.0
 40
0.0
 40
0.0
 40
0.0
 40
0.2688742123
 40
0.5294670998
 40
0.654443267
 40
0.774876451
 40
1.0
 40
1.0
 40
1.0
 40
1.0
 10
21.6073187603
 20
8.8598318604
 30
0.0
 10
21.6073189222
 20
8.8524395964
 30
0.0
 10
21.6079856183
 20
8.8378740045
 30
0.0
 10
21.6104928929
 20
8.8200272684
 30
0.0
 10
21.6134580048
 20
8.8064290075
 30
0.0
 10
21.6168691273
 20
8.7939466988
 30
0.0
 10
21.6201204355
 20
8.7849899315
 30
0.0
 10
21.6225977788
 20
8.7793179332
 30
0.0
  0
SPLINE
  5
259
100
AcDbEntity
  8
0
100
AcDbSpline
 62
9
  6
CONTINUOUS
 70
0
 71
3
 72
15
 73
11
 74
0
 42
0.0000001
 43
0.0000001
 44
0.0000000001
 40
0.0
 40
0.0
 40
0.0
 40
0.0
 40
0.1349457842
 40
0.2688803833
 40
0.4006936891
 40
0.5294865704
 40
0.6544298972
 40
0.7748363545
 40
0.8901842284
 40
1.0
 40
1.0
 40
1.0
 40
1.0
 10
24.4873179241
 20
8.8598318604
 30
0.0
 10
24.4873182273
 20
8.8561208439
 30
0.0
 10
24.4871491817
 20
8.8487254191
 30
0.0
 10
24.4863809926
 20
8.8377291587
 30
0.0
 10
24.485110059
 20
8.8269498418
 30
0.0
 10
24.4833720737
 20
8.8164864736
 30
0.0
 10
24.4811810681
 20
8.8064288563
 30
0.0
 10
24.4785588595
 20
8.7968574827
 30
0.0
 10
24.4755501451
 20
8.7878382401
 30
0.0
 10
24.4732505403
 20
8.7820841506
 30
0.0
 10
24.4720388978
 20
8.7793179332
 30
0.0
  0
LINE
  5
25A
100
AcDbEntity
  8
0
100
AcDbLine
 62
9
  6
CONTINUOUS
 10
23.0473183383
 20
6.7298318604
 11
23.6723183383
 21
6.4798318604
  0
LINE
  5
25B
100
AcDbEntity
  8
0
100
AcDbLine
 62
9
  6
CONTINUOUS
 10
23.0473183383
 20
6.7298318604
 11
22.4223183381
 21
7.416831862
  0
LINE
  5
25C
100
AcDbEntity
  8
0
100
AcDbLine
 62
9
  6
CONTINUOUS
 10
-0.2656816617
 20
7.3548318604
 11
-0.9526816617
 21
6.7298318604
  0
SPLINE
  5
25D
100
AcDbEntity
  8
0
100
AcDbSpline
 62
9
  6
CONTINUOUS
 70
0
 71
3
 72
11
 73
7
 74
0
 42
0.0000001
 43
0.0000001
 44
0.0000000001
 40
0.0
 40
0.0
 40
0.0
 40
0.0
 40
0.2394232755
 40
0.4856975158
 40
0.7391990059
 40
1.0
 40
1.0
 40
1.0
 40
1.0
 10
24.4720388978
 20
8.7793179332
 30
0.0
 10
24.4469513061
 20
8.7507919137
 30
0.0
 10
24.3984479255
 20
8.6907704989
 30
0.0
 10
24.3327151499
 20
8.5934610623
 30
0.0
 10
24.2742326912
 20
8.4877196754
 30
0.0
 10
24.2414439945
 20
8.4128380184
 30
0.0
 10
24.2266546718
 20
8.3741907669
 30
0.0
  0
SPLINE
  5
25E
100
AcDbEntity
  8
0
100
AcDbSpline
 62
9
  6
CONTINUOUS
 70
0
 71
3
 72
20
 73
16
 74
0
 42
0.0000001
 43
0.0000001
 44
0.0000000001
 40
0.0
 40
0.0
 40
0.0
 40
0.0
 40
0.0300392929
 40
0.0620787683
 40
0.0976805316
 40
0.1379169015
 40
0.1834223497
 40
0.2344728901
 40
0.2911206294
 40
0.3532319525
 40
0.4205609848
 40
0.4927506877
 40
0.6499029609
 40
0.8205914075
 40
1.0
 40
1.0
 40
1.0
 40
1.0
 10
0.2829923945
 20
8.3741904398
 30
0.0
 10
0.2827876412
 20
8.3736315837
 30
0.0
 10
0.2821944172
 20
8.3725329282
 30
0.0
 10
0.2808475222
 20
8.3711179942
 30
0.0
 10
0.279060844
 20
8.3699201673
 30
0.0
 10
0.2768568159
 20
8.3689376144
 30
0.0
 10
0.274250749
 20
8.3681707828
 30
0.0
 10
0.2712609275
 20
8.3676214433
 30
0.0
 10
0.2679090885
 20
8.3672942874
 30
0.0
 10
0.2642210422
 20
8.3671906517
 30
0.0
 10
0.260225915
 20
8.367312357
 30
0.0
 10
0.254365031
 20
8.3677873456
 30
0.0
 10
0.2465168906
 20
8.3689623743
 30
0.0
 10
0.2367024501
 20
8.3711576492
 30
0.0
 10
0.2300372782
 20
8.3730979319
 30
0.0
 10
0.2266546695
 20
8.3741906162
 30
0.0
  0
SPLINE
  5
25F
100
AcDbEntity
  8
0
100
AcDbSpline
 62
9
  6
CONTINUOUS
 70
0
 71
3
 72
17
 73
13
 74
0
 42
0.0000001
 43
0.0000001
 44
0.0000000001
 40
0.0
 40
0.0
 40
0.0
 40
0.0
 40
0.0473184636
 40
0.0952461767
 40
0.1442862384
 40
0.1949170851
 40
0.3024063575
 40
0.4201788727
 40
0.5492436515
 40
0.6895559299
 40
0.8403027836
 40
1.0
 40
1.0
 40
1.0
 40
1.0
 10
0.5179347987
 20
8.7793179331
 30
0.0
 10
0.517436024
 20
8.7787255998
 30
0.0
 10
0.5163513411
 20
8.777598806
 30
0.0
 10
0.514501392
 20
8.7761215483
 30
0.0
 10
0.5124335788
 20
8.7748610242
 30
0.0
 10
0.5093432502
 20
8.7734504345
 30
0.0
 10
0.5049444476
 20
8.7722865302
 30
0.0
 10
0.4991356165
 20
8.7718617826
 30
0.0
 10
0.4927994616
 20
8.7723709427
 30
0.0
 10
0.486057487
 20
8.7737975638
 30
0.0
 10
0.4790398911
 20
8.7761109524
 30
0.0
 10
0.4743832211
 20
8.7781628822
 30
0.0
 10
0.4720388978
 20
8.7793179332
 30
0.0
  0
SPLINE
  5
260
100
AcDbEntity
  8
0
100
AcDbSpline
 62
9
  6
CONTINUOUS
 70
0
 71
3
 72
20
 73
16
 74
0
 42
0.0000001
 43
0.0000001
 44
0.0000000001
 40
0.0
 40
0.0
 40
0.0
 40
0.0
 40
0.0300392929
 40
0.0620787683
 40
0.0976805316
 40
0.1379169015
 40
0.1834223497
 40
0.2344728901
 40
0.2911206294
 40
0.3532319525
 40
0.4205609848
 40
0.4927506877
 40
0.6499029609
 40
0.8205914075
 40
1.0
 40
1.0
 40
1.0
 40
1.0
 10
24.2829923945
 20
8.3741904398
 30
0.0
 10
24.2827876412
 20
8.3736315837
 30
0.0
 10
24.2821944172
 20
8.3725329282
 30
0.0
 10
24.2808475222
 20
8.3711179942
 30
0.0
 10
24.279060844
 20
8.3699201673
 30
0.0
 10
24.2768568159
 20
8.3689376144
 30
0.0
 10
24.274250749
 20
8.3681707828
 30
0.0
 10
24.2712609275
 20
8.3676214433
 30
0.0
 10
24.2679090885
 20
8.3672942874
 30
0.0
 10
24.2642210422
 20
8.3671906517
 30
0.0
 10
24.260225915
 20
8.367312357
 30
0.0
 10
24.254365031
 20
8.3677873456
 30
0.0
 10
24.2465168906
 20
8.3689623743
 30
0.0
 10
24.2367024501
 20
8.3711576492
 30
0.0
 10
24.2300372782
 20
8.3730979319
 30
0.0
 10
24.2266546695
 20
8.3741906162
 30
0.0
  0
SPLINE
  5
261
100
AcDbEntity
  8
0
100
AcDbSpline
 62
9
  6
CONTINUOUS
 70
0
 71
3
 72
20
 73
16
 74
0
 42
0.0000001
 43
0.0000001
 44
0.0000000001
 40
0.0
 40
0.0
 40
0.0
 40
0.0
 40
0.1794081709
 40
0.350096103
 40
0.5072479488
 40
0.5794374839
 40
0.6467663618
 40
0.7088775578
 40
0.7655252184
 40
0.816575734
 40
0.8620810955
 40
0.9023172449
 40
0.9379192131
 40
0.9699598625
 40
1.0
 40
1.0
 40
1.0
 40
1.0
 10
-2.1320179272
 20
8.3741904398
 30
0.0
 10
-2.1354005403
 20
8.3730977581
 30
0.0
 10
-2.1420657688
 20
8.371157655
 30
0.0
 10
-2.1518801986
 20
8.3689623237
 30
0.0
 10
-2.1597283496
 20
8.3677873223
 30
0.0
 10
-2.1655892391
 20
8.3673123488
 30
0.0
 10
-2.1695843708
 20
8.3671906513
 30
0.0
 10
-2.173272422
 20
8.3672942951
 30
0.0
 10
-2.1766242667
 20
8.3676214613
 30
0.0
 10
-2.1796140919
 20
8.3681708156
 30
0.0
 10
-2.1822201588
 20
8.3689376528
 30
0.0
 10
-2.184424198
 20
8.3699201944
 30
0.0
 10
-2.1862108983
 20
8.3711180485
 30
0.0
 10
-2.1875577954
 20
8.37253305
 30
0.0
 10
-2.1881510395
 20
8.3736317427
 30
0.0
 10
-2.1883557996
 20
8.3741906162
 30
0.0
  0
SPLINE
  5
262
100
AcDbEntity
  8
0
100
AcDbSpline
 62
9
  6
CONTINUOUS
 70
0
 71
3
 72
17
 73
13
 74
0
 42
0.0000001
 43
0.0000001
 44
0.0000000001
 40
0.0
 40
0.0
 40
0.0
 40
0.0
 40
0.1596972158
 40
0.3104440692
 40
0.4507563476
 40
0.5798211267
 40
0.6975936424
 40
0.8050829153
 40
0.8557137621
 40
0.9047538238
 40
0.9526815367
 40
1.0
 40
1.0
 40
1.0
 40
1.0
 10
-2.3774022211
 20
8.7793179331
 30
0.0
 10
-2.3797465445
 20
8.7781628821
 30
0.0
 10
-2.3844032145
 20
8.7761109523
 30
0.0
 10
-2.3914208104
 20
8.7737975638
 30
0.0
 10
-2.398162785
 20
8.7723709426
 30
0.0
 10
-2.40449894
 20
8.7718617826
 30
0.0
 10
-2.410307771
 20
8.7722865303
 30
0.0
 10
-2.4147065737
 20
8.7734504346
 30
0.0
 10
-2.4177969023
 20
8.7748610243
 30
0.0
 10
-2.4198647155
 20
8.7761215484
 30
0.0
 10
-2.4217146646
 20
8.7775988061
 30
0.0
 10
-2.4227993475
 20
8.7787255999
 30
0.0
 10
-2.4232981223
 20
8.7793179332
 30
0.0
  0
LINE
  5
263
100
AcDbEntity
  8
0
100
AcDbLine
 62
9
  6
CONTINUOUS
 10
-1.2026816617
 20
6.1048318604
 11
-0.9526816617
 21
6.7298318604
  0
ENDSEC
  0
SECTION
  2
OBJECTS
  0
DICTIONARY
  5
C
100
AcDbDictionary
280
0
281
1
  3
ACAD_GROUP
350
D
  3
ACAD_MLINESTYLE
350
17
  3
ACAD_LAYOUT
350
1A
  3
ACAD_PLOTSETTINGS
350
19
  3
ACAD_PLOTSTYLENAME
350
E
  0
DICTIONARY
  5
D
102
{ACAD_REACTORS
330
C
102
}
100
AcDbDictionary
280
0
281
1
  0
ACDBDICTIONARYWDFLT
  5
E
102
{ACAD_REACTORS
330
C
102
}
100
AcDbDictionary
281
1
  3
Normal
350
F
100
AcDbDictionaryWithDefault
340
F
  0
DICTIONARY
  5
17
102
{ACAD_REACTORS
330
C
102
}
100
AcDbDictionary
280
0
281
1
  3
Standard
350
18
  0
DICTIONARY
  5
19
102
{ACAD_REACTORS
330
C
102
}
100
AcDbDictionary
281
1
  0
DICTIONARY
  5
1A
102
{ACAD_REACTORS
330
C
102
}
100
AcDbDictionary
281
1
  3
Model
350
264
  3
Layout1
350
265
  0
ACDBPLACEHOLDER
  5
F
102
{ACAD_REACTORS
330
E
102
}
  0
MLINESTYLE
  5
18
102
{ACAD_REACTORS
330
17
102
}
100
AcDbMlineStyle
  2
STANDARD
 70
0
  3

 62
256
 51
90.0
 52
90.0
 71
2
 49
0.5
 62
256
  6
BYLAYER
 49
-0.5
 62
256
  6
BYLAYER
  0
LAYOUT
  5
264
102
{ACAD_REACTORS
330
1A
102
}
100
AcDbPlotSettings
  1

  2
none_device
  4
ANSI_C_(22.00_x_17.00_Inches)
  6

 40
0.0
 41
0.0
 42
0.0
 43
0.0
 44
558.8
 45
431.8
 46
0.0
 47
0.0
 48
0.0
 49
0.0
140
0.0
141
0.0
142
1.0
143
1.0
 70
1024
 72
0
 73
0
 74
0
  7

 75
0
147
1.0
148
0.0
149
0.0
100
AcDbLayout
  1
Model
 70
0
 71
0
 10
0.0
 20
0.0
 11
22.0
 21
17.0
 12
0.0
 22
0.0
 32
0.0
 14
0.0
 24
0.0
 34
0.0
 15
0.0
 25
0.0
 35
0.0
146
0.0
 13
0.0
 23
0.0
 33
0.0
 16
1.0
 26
0.0
 36
0.0
 17
0.0
 27
1.0
 37
0.0
 76
0
330
205
345
0
346
0
  0
LAYOUT
  5
265
102
{ACAD_REACTORS
330
1A
102
}
100
AcDbPlotSettings
  1

  2
none_device
  4
ANSI_C_(22.00_x_17.00_Inches)
  6

 40
0.0
 41
0.0
 42
0.0
 43
0.0
 44
558.8
 45
431.8
 46
0.0
 47
0.0
 48
0.0
 49
0.0
140
0.0
141
0.0
142
1.0
143
1.0
 70
0
 72
0
 73
0
 74
0
  7

 75
0
147
1.0
148
0.0
149
0.0
100
AcDbLayout
  1
Layout1
 70
0
 71
1
 10
0.0
 20
0.0
 11
22.0
 21
17.0
 12
0.0
 22
0.0
 32
0.0
 14
0.0
 24
0.0
 34
0.0
 15
0.0
 25
0.0
 35
0.0
146
0.0
 13
0.0
 23
0.0
 33
0.0
 16
1.0
 26
0.0
 36
0.0
 17
0.0
 27
1.0
 37
0.0
 76
0
330
206
345
0
346
0
  0
ENDSEC
  0
EOF
