999
DXF file: E:\BT Custom\CADOUTPUT\_FRONT.dxf
999
Pro/ENGINEER 2018400 by Parametric Technology Corporation
  0
SECTION
  2
HEADER
  9
$ACADVER
  1
AC1018
  9
$DWGCODEPAGE
  3
ANSI_1252
  9
$EXTMAX
 10
22.0
 20
17.0
 30
0.0
  9
$EXTMIN
 10
0.0
 20
0.0
 30
0.0
  9
$LIMMIN
 10
0.0
 20
0.0
  9
$LIMMAX
 10
22.0
 20
17.0
  9
$VIEWCTR
 10
11.0
 20
8.5
  9
$VIEWSIZE
 40
17.0
  9
$CLAYER
  8
0
  9
$LTSCALE
 40
1.21
  9
$CELTYPE
  6
BYLAYER
  9
$DIMSCALE
 40
1.0
  9
$DIMASZ
 40
0.1
  9
$DIMEXO
 40
0.0625
  9
$DIMDLI
 40
0.836
  9
$DIMEXE
 40
0.125
  9
$DIMCEN
 40
0.198
  9
$DIMLFAC
 40
1.0
  9
$DIMBLK
  1
_FILLED
  9
$DIMALT
 70
1
  9
$DIMALTD
 70
2
  9
$DIMALTTD
 70
2
  9
$DIMALTF
 40
25.4
  9
$DIMTXT
 40
0.08
  9
$DIMTOL
 70
1
  9
$DIMLIM
 70
0
  9
$DIMTFAC
 40
1.0
  9
$DIMTP
 40
0.001
  9
$DIMTM
 40
0.001
  9
$DIMGAP
 40
0.09
  9
$DIMDSEP
 70
46
  9
$AUNITS
 70
0
  9
$PDMODE
 70
3
  9
$PDSIZE
 40
0.06
  9
$HANDSEED
  5
28C
  9
$TILEMODE
 70
1
  9
$MEASUREMENT
 70
0
  9
$INSUNITS
 70
1
  0
ENDSEC
  0
SECTION
  2
CLASSES
  0
CLASS
  1
ACDBDICTIONARYWDFLT
  2
AcDbDictionaryWithDefault
  3
AutoCAD 2000
 90
0
 91
1
280
0
281
0
  0
CLASS
  1
ACDBPLACEHOLDER
  2
AcDbPlaceHolder
  3
AutoCAD 2000
 90
0
 91
1
280
0
281
0
  0
CLASS
  1
LAYOUT
  2
AcDbLayout
  3
AutoCAD 2000
 90
0
 91
0
280
0
281
0
  0
ENDSEC
  0
SECTION
  2
TABLES
  0
TABLE
  2
VPORT
  5
8
100
AcDbSymbolTable
 70
2
  0
VPORT
  5
1F4
100
AcDbSymbolTableRecord
100
AcDbViewportTableRecord
  2
*ACTIVE
 70
0
 10
0.0
 20
0.0
 11
1.0
 21
1.0
 12
11.0
 22
8.5
 13
0.0
 23
0.0
 14
1.0
 24
1.0
 15
0.0
 25
0.0
 16
0.0
 26
0.0
 36
1.0
 17
0.0
 27
0.0
 37
0.0
 40
17.0
 41
1.2941176471
 42
50.0
 43
0.0
 44
0.0
 50
0.0
 51
0.0
 71
0
 72
100
 73
1
 74
1
 75
0
 76
0
 77
0
 78
0
  0
ENDTAB
  0
TABLE
  2
LTYPE
  5
5
100
AcDbSymbolTable
 70
6
  0
LTYPE
  5
14
100
AcDbSymbolTableRecord
100
AcDbLinetypeTableRecord
  2
BYBLOCK
 70
0
  3

 72
65
 73
0
 40
0.0
  0
LTYPE
  5
15
100
AcDbSymbolTableRecord
100
AcDbLinetypeTableRecord
  2
BYLAYER
 70
0
  3

 72
65
 73
0
 40
0.0
  0
LTYPE
  5
16
100
AcDbSymbolTableRecord
100
AcDbLinetypeTableRecord
  2
CONTINUOUS
 70
64
  3
Solid line
 72
65
 73
0
 40
0.0
  0
LTYPE
  5
1F5
100
AcDbSymbolTableRecord
100
AcDbLinetypeTableRecord
  2
CENTER
 70
64
  3
____ _ ____ _ ____ _ ____ _ ____ _ ____ _ ____
 72
65
 73
4
 40
0.6
 49
0.375
 74
0
 49
-0.075
 74
0
 49
0.075
 74
0
 49
-0.075
 74
0
  0
LTYPE
  5
1F6
100
AcDbSymbolTableRecord
100
AcDbLinetypeTableRecord
  2
HIDDEN
 70
64
  3
- - - - - - - - - - - - - - - - - - - -
 72
65
 73
2
 40
0.2
 49
0.1
 74
0
 49
-0.1
 74
0
  0
LTYPE
  5
1F7
100
AcDbSymbolTableRecord
100
AcDbLinetypeTableRecord
  2
PHANTOM
 70
64
  3
_____ _ _ _____ _ _ _____ _ _ _____
 72
65
 73
6
 40
0.8
 49
0.45
 74
0
 49
-0.05
 74
0
 49
0.1
 74
0
 49
-0.05
 74
0
 49
0.1
 74
0
 49
-0.05
 74
0
  0
LTYPE
  5
1F8
100
AcDbSymbolTableRecord
100
AcDbLinetypeTableRecord
  2
DOT
 70
64
  3
. . . . . . . . . . . . . . . . . . . .
 72
65
 73
2
 40
0.2
 49
0.1
 74
0
 49
-0.1
 74
0
  0
LTYPE
  5
1F9
100
AcDbSymbolTableRecord
100
AcDbLinetypeTableRecord
  2
DASHED
 70
64
  3
- - - - - - - - - - - - - - - - - - - -
 72
65
 73
2
 40
0.2
 49
0.1
 74
0
 49
-0.1
 74
0
  0
ENDTAB
  0
TABLE
  2
LAYER
  5
2
100
AcDbSymbolTable
 70
36
  0
LAYER
  5
10
100
AcDbSymbolTableRecord
100
AcDbLayerTableRecord
  2
0
 70
0
 62
7
  6
CONTINUOUS
370
-3
390
F
  0
LAYER
  5
1FA
100
AcDbSymbolTableRecord
100
AcDbLayerTableRecord
  2
DEFAULT_1
 70
0
 62
7
  6
CENTER
370
-3
390
F
  0
LAYER
  5
1FB
100
AcDbSymbolTableRecord
100
AcDbLayerTableRecord
  2
DEFAULT_2
 70
0
 62
8
  6
HIDDEN
370
-3
390
F
  0
LAYER
  5
1FC
100
AcDbSymbolTableRecord
100
AcDbLayerTableRecord
  2
DEFAULT_3
 70
0
 62
7
  6
PHANTOM
370
-3
390
F
  0
LAYER
  5
1FD
100
AcDbSymbolTableRecord
100
AcDbLayerTableRecord
  2
ALL_FEATURES
 70
0
 62
7
  6
CONTINUOUS
370
-3
390
F
  0
LAYER
  5
1FE
100
AcDbSymbolTableRecord
100
AcDbLayerTableRecord
  2
AXES_FEATURES
 70
0
 62
7
  6
CONTINUOUS
370
-3
390
F
  0
LAYER
  5
1FF
100
AcDbSymbolTableRecord
100
AcDbLayerTableRecord
  2
DEFAULT_COORDINATE_SYSTEM
 70
0
 62
7
  6
CONTINUOUS
370
-3
390
F
  0
LAYER
  5
200
100
AcDbSymbolTableRecord
100
AcDbLayerTableRecord
  2
DEFAULT_DATUM_AXES
 70
0
 62
7
  6
CONTINUOUS
370
-3
390
F
  0
LAYER
  5
201
100
AcDbSymbolTableRecord
100
AcDbLayerTableRecord
  2
DEFAULT_DATUM_PLANES
 70
0
 62
7
  6
CONTINUOUS
370
-3
390
F
  0
LAYER
  5
202
100
AcDbSymbolTableRecord
100
AcDbLayerTableRecord
  2
DIMENSIONS
 70
0
 62
7
  6
CONTINUOUS
370
-3
390
F
  0
ENDTAB
  0
TABLE
  2
STYLE
  5
3
100
AcDbSymbolTable
 70
1
  0
STYLE
  5
11
100
AcDbSymbolTableRecord
100
AcDbTextStyleTableRecord
  2
STANDARD
 70
0
 40
0.0
 41
0.8
 50
0.0
 71
0
 42
0.2
  3
txt
  4

  0
STYLE
  5
203
100
AcDbSymbolTableRecord
100
AcDbTextStyleTableRecord
  2
TEXTSTYLE_1
 70
0
 40
0.0
 41
0.8
 50
0.0
 71
0
 42
0.2
  3
gdt
  4

  0
ENDTAB
  0
TABLE
  2
VIEW
  5
6
100
AcDbSymbolTable
 70
0
  0
ENDTAB
  0
TABLE
  2
UCS
  5
7
100
AcDbSymbolTable
 70
0
  0
ENDTAB
  0
TABLE
  2
APPID
  5
9
100
AcDbSymbolTable
 70
1
  0
APPID
  5
204
100
AcDbSymbolTableRecord
100
AcDbRegAppTableRecord
  2
ACAD
 70
0
  0
ENDTAB
  0
TABLE
  2
BLOCK_RECORD
  5
1
100
AcDbSymbolTable
 70
0
  0
BLOCK_RECORD
  5
205
100
AcDbSymbolTableRecord
100
AcDbBlockTableRecord
  2
*Model_Space
  0
BLOCK_RECORD
  5
206
100
AcDbSymbolTableRecord
100
AcDbBlockTableRecord
  2
*Paper_Space
  0
BLOCK_RECORD
  5
207
100
AcDbSymbolTableRecord
100
AcDbBlockTableRecord
  2
_FILLED
  0
ENDTAB
  0
TABLE
  2
DIMSTYLE
  5
A
100
AcDbSymbolTable
 70
1
100
AcDbDimStyleTable
 71
0
  0
DIMSTYLE
105
208
100
AcDbSymbolTableRecord
100
AcDbDimStyleTableRecord
  2
STANDARD
 70
0
  3

  4

 40
1.0
 41
0.1
 42
0.0625
 43
0.38
 44
0.125
 45
0.0
 46
0.0
 47
0.001
 48
0.001
140
0.08
141
0.09
142
0.0
143
25.4
144
1.0
145
0.0
146
1.0
147
0.09
 71
1.0
 72
0.0
 73
1
 74
1
 75
0
 76
0
 77
0
 78
4
 79
1
170
1
171
2
172
0
173
0
174
0
175
0
176
0
177
0
178
0
270
2
179
3
271
3
272
3
273
2
274
2
275
0
280
0
281
0
282
0
283
1
284
4
285
0
286
0
287
3
288
0
340
11
278
46
341
207
342
207
343
207
344
207
  0
ENDTAB
  0
ENDSEC
  0
SECTION
  2
BLOCKS
  0
BLOCK
  5
20
100
AcDbEntity
  8
0
100
AcDbBlockBegin
  2
*Model_Space
 70
0
 10
0.0
 20
0.0
 30
0.0
  3
*Model_Space
  1

  0
ENDBLK
  5
21
100
AcDbEntity
  8
0
100
AcDbBlockEnd
  0
BLOCK
  5
1C
100
AcDbEntity
  8
0
100
AcDbBlockBegin
  2
*Paper_Space
 70
0
 10
0.0
 20
0.0
 30
0.0
  3
*Paper_Space
  1

  0
ENDBLK
  5
1D
100
AcDbEntity
  8
0
100
AcDbBlockEnd
  0
BLOCK
  5
209
100
AcDbEntity
  8
0
100
AcDbBlockBegin
  2
_FILLED
 70
64
 10
0.0
 20
0.0
  3
_FILLED
  1

  0
SOLID
  5
20A
100
AcDbEntity
  8
0
  6
BYBLOCK
 62
0
100
AcDbTrace
 10
0.0
 20
0.0
 11
-1.0
 21
0.2
 12
-1.0
 22
-0.2
 13
-1.0
 23
-0.2
  0
ENDBLK
  5
20B
100
AcDbEntity
  8
0
  6
BYBLOCK
 62
0
100
AcDbBlockEnd
  0
ENDSEC
  0
SECTION
  2
ENTITIES
  0
LINE
  5
20C
100
AcDbEntity
  8
0
100
AcDbLine
 62
7
  6
CONTINUOUS
 10
-6.5623076573
 20
10.7076385546
 11
-6.5623076573
 21
7.8276741572
  0
LINE
  5
20D
100
AcDbEntity
  8
0
100
AcDbLine
 62
9
  6
CONTINUOUS
 10
-6.5329241178
 20
10.6923900616
 11
-6.5329241178
 21
7.8429489427
  0
LINE
  5
20E
100
AcDbEntity
  8
0
100
AcDbLine
 62
9
  6
CONTINUOUS
 10
-6.2979813839
 20
10.4470058357
 11
-6.2979813763
 21
8.0883331741
  0
LINE
  5
20F
100
AcDbEntity
  8
0
100
AcDbLine
 62
9
  6
CONTINUOUS
 10
-6.2416439227
 20
10.5033431621
 11
-6.2416439884
 21
8.0319957755
  0
LINE
  5
210
100
AcDbEntity
  8
0
100
AcDbLine
 62
7
  6
CONTINUOUS
 10
-3.9573076573
 20
8.6426695021
 11
-3.9573076573
 21
9.8926695021
  0
LINE
  5
211
100
AcDbEntity
  8
0
100
AcDbLine
 62
7
  6
CONTINUOUS
 10
-3.9373076573
 20
8.6626695021
 11
-3.9373076573
 21
9.8726695021
  0
LINE
  5
212
100
AcDbEntity
  8
0
100
AcDbLine
 62
7
  6
CONTINUOUS
 10
-3.9173076573
 20
8.6426695021
 11
-3.9173076573
 21
9.8926695021
  0
LINE
  5
213
100
AcDbEntity
  8
0
100
AcDbLine
 62
9
  6
CONTINUOUS
 10
-3.8829707871
 20
8.0319955544
 11
-3.8829717089
 21
8.6426695021
  0
LINE
  5
214
100
AcDbEntity
  8
0
100
AcDbLine
 62
9
  6
CONTINUOUS
 10
-3.8829717089
 20
9.8926695021
 11
-3.8829713261
 21
10.5033432287
  0
LINE
  5
215
100
AcDbEntity
  8
0
100
AcDbLine
 62
9
  6
CONTINUOUS
 10
-3.8266337883
 20
8.0883327313
 11
-3.8266338235
 21
8.6426695021
  0
LINE
  5
216
100
AcDbEntity
  8
0
100
AcDbLine
 62
9
  6
CONTINUOUS
 10
-3.826633903
 20
9.8926695021
 11
-3.8266339382
 21
10.4470058302
  0
LINE
  5
217
100
AcDbEntity
  8
0
100
AcDbLine
 62
9
  6
CONTINUOUS
 10
-3.5916911967
 20
7.8429489427
 11
-3.5916911967
 21
8.6426695021
  0
LINE
  5
218
100
AcDbEntity
  8
0
100
AcDbLine
 62
9
  6
CONTINUOUS
 10
-3.5916911967
 20
9.8926695021
 11
-3.5916911967
 21
10.6923900616
  0
LINE
  5
219
100
AcDbEntity
  8
0
100
AcDbLine
 62
7
  6
CONTINUOUS
 10
-3.5623076573
 20
7.8276797682
 11
-3.5623076573
 21
8.6426695021
  0
LINE
  5
21A
100
AcDbEntity
  8
0
100
AcDbLine
 62
7
  6
CONTINUOUS
 10
-3.5623076573
 20
9.8926695021
 11
-3.5623076573
 21
10.7076648471
  0
LINE
  5
21B
100
AcDbEntity
  8
0
100
AcDbLine
 62
7
  6
CONTINUOUS
 10
-3.9373076573
 20
9.8726695021
 11
-3.917307661
 21
9.8926694984
  0
LINE
  5
21C
100
AcDbEntity
  8
0
100
AcDbLine
 62
7
  6
CONTINUOUS
 10
-3.9373076573
 20
8.6626695021
 11
-3.917307661
 21
8.6426695059
  0
LINE
  5
21D
100
AcDbEntity
  8
0
100
AcDbLine
 62
7
  6
CONTINUOUS
 10
-3.9373076573
 20
8.6626695021
 11
-3.9573076573
 21
8.6426695021
  0
LINE
  5
21E
100
AcDbEntity
  8
0
100
AcDbLine
 62
7
  6
CONTINUOUS
 10
-3.9373076573
 20
9.8726695021
 11
-3.9573076573
 21
9.8926695021
  0
LINE
  5
21F
100
AcDbEntity
  8
0
100
AcDbLine
 62
7
  6
CONTINUOUS
 10
28.3776206755
 20
7.7676695021
 11
25.4977232903
 21
7.7676695021
  0
LINE
  5
220
100
AcDbEntity
  8
0
100
AcDbLine
 62
7
  6
CONTINUOUS
 10
-3.6223793245
 20
7.7676695021
 11
-6.5022767097
 21
7.7676695021
  0
LINE
  5
221
100
AcDbEntity
  8
0
100
AcDbLine
 62
9
  6
CONTINUOUS
 10
-6.4870282167
 20
7.7970530416
 11
-3.6375870978
 21
7.7970530416
  0
LINE
  5
222
100
AcDbEntity
  8
0
100
AcDbLine
 62
9
  6
CONTINUOUS
 10
25.5129717833
 20
7.7970530416
 11
28.3624129022
 21
7.7970530416
  0
LINE
  5
223
100
AcDbEntity
  8
0
100
AcDbLine
 62
9
  6
CONTINUOUS
 10
-6.2416439908
 20
8.0319957755
 11
-3.8829708766
 21
8.0319956386
  0
LINE
  5
224
100
AcDbEntity
  8
0
100
AcDbLine
 62
9
  6
CONTINUOUS
 10
25.7583560092
 20
8.0319957755
 11
28.1170291234
 21
8.0319956386
  0
LINE
  5
225
100
AcDbEntity
  8
0
100
AcDbLine
 62
9
  6
CONTINUOUS
 10
-6.2979813172
 20
8.0883332367
 11
-3.8266337883
 21
8.0883327278
  0
LINE
  5
226
100
AcDbEntity
  8
0
100
AcDbLine
 62
9
  6
CONTINUOUS
 10
28.1733662117
 20
8.0883327278
 11
25.7020186828
 21
8.0883332367
  0
LINE
  5
227
100
AcDbEntity
  8
0
100
AcDbLine
 62
7
  6
CONTINUOUS
 10
-3.9173076573
 20
8.6426695021
 11
25.7926923427
 21
8.6426695021
  0
LINE
  5
228
100
AcDbEntity
  8
0
100
AcDbLine
 62
7
  6
CONTINUOUS
 10
-3.9573076573
 20
8.6426695021
 11
-5.0622991182
 21
8.6426695021
  0
LINE
  5
229
100
AcDbEntity
  8
0
100
AcDbLine
 62
7
  6
CONTINUOUS
 10
25.8326923427
 20
8.6426695021
 11
26.9376826505
 21
8.6426695021
  0
LINE
  5
22A
100
AcDbEntity
  8
0
100
AcDbLine
 62
7
  6
CONTINUOUS
 10
-3.9173076573
 20
9.8926695021
 11
25.7926923427
 21
9.8926695021
  0
LINE
  5
22B
100
AcDbEntity
  8
0
100
AcDbLine
 62
7
  6
CONTINUOUS
 10
-3.9573076573
 20
9.8926695021
 11
-5.062297965
 21
9.8926695021
  0
LINE
  5
22C
100
AcDbEntity
  8
0
100
AcDbLine
 62
7
  6
CONTINUOUS
 10
25.8326923427
 20
9.8926695021
 11
26.9376838037
 21
9.8926695021
  0
LINE
  5
22D
100
AcDbEntity
  8
0
100
AcDbLine
 62
9
  6
CONTINUOUS
 10
-3.8266339973
 20
10.4470057676
 11
-6.2979813839
 21
10.4470058333
  0
LINE
  5
22E
100
AcDbEntity
  8
0
100
AcDbLine
 62
9
  6
CONTINUOUS
 10
25.7020186161
 20
10.4470058333
 11
28.1733660027
 21
10.4470057676
  0
LINE
  5
22F
100
AcDbEntity
  8
0
100
AcDbLine
 62
9
  6
CONTINUOUS
 10
28.1170286762
 20
10.5033432287
 11
25.7583560147
 21
10.5033432212
  0
LINE
  5
230
100
AcDbEntity
  8
0
100
AcDbLine
 62
9
  6
CONTINUOUS
 10
-3.8829713238
 20
10.5033432287
 11
-6.2416439853
 21
10.5033432212
  0
LINE
  5
231
100
AcDbEntity
  8
0
100
AcDbLine
 62
9
  6
CONTINUOUS
 10
28.3624129022
 20
10.7382859627
 11
25.5129717833
 21
10.7382859627
  0
LINE
  5
232
100
AcDbEntity
  8
0
100
AcDbLine
 62
9
  6
CONTINUOUS
 10
-3.6375870978
 20
10.7382859627
 11
-6.4870282167
 21
10.7382859627
  0
LINE
  5
233
100
AcDbEntity
  8
0
100
AcDbLine
 62
7
  6
CONTINUOUS
 10
28.3776613952
 20
10.7676695021
 11
25.4976969978
 21
10.7676695021
  0
LINE
  5
234
100
AcDbEntity
  8
0
100
AcDbLine
 62
7
  6
CONTINUOUS
 10
-3.6223386048
 20
10.7676695021
 11
-6.5023030022
 21
10.7676695021
  0
LINE
  5
235
100
AcDbEntity
  8
0
100
AcDbLine
 62
7
  6
CONTINUOUS
 10
25.8126923427
 20
9.8726695021
 11
25.8326923427
 21
9.8926695021
  0
LINE
  5
236
100
AcDbEntity
  8
0
100
AcDbLine
 62
7
  6
CONTINUOUS
 10
25.8126923427
 20
8.6626695021
 11
25.8326923427
 21
8.6426695021
  0
LINE
  5
237
100
AcDbEntity
  8
0
100
AcDbLine
 62
7
  6
CONTINUOUS
 10
25.8126923427
 20
8.6626695021
 11
25.7926923466
 21
8.642669506
  0
LINE
  5
238
100
AcDbEntity
  8
0
100
AcDbLine
 62
7
  6
CONTINUOUS
 10
25.8126923427
 20
9.8726695021
 11
25.7926923466
 21
9.8926694982
  0
LINE
  5
239
100
AcDbEntity
  8
0
100
AcDbLine
 62
7
  6
CONTINUOUS
 10
25.4376923427
 20
10.7076385546
 11
25.4376923427
 21
9.8926695021
  0
LINE
  5
23A
100
AcDbEntity
  8
0
100
AcDbLine
 62
7
  6
CONTINUOUS
 10
25.4376923427
 20
8.6426695021
 11
25.4376923427
 21
7.8276741572
  0
LINE
  5
23B
100
AcDbEntity
  8
0
100
AcDbLine
 62
9
  6
CONTINUOUS
 10
25.4670758822
 20
10.6923900616
 11
25.4670758822
 21
9.8926695021
  0
LINE
  5
23C
100
AcDbEntity
  8
0
100
AcDbLine
 62
9
  6
CONTINUOUS
 10
25.4670758822
 20
8.6426695021
 11
25.4670758822
 21
7.8429489427
  0
LINE
  5
23D
100
AcDbEntity
  8
0
100
AcDbLine
 62
9
  6
CONTINUOUS
 10
25.7020186161
 20
10.4470058357
 11
25.7020186179
 21
9.8926695021
  0
LINE
  5
23E
100
AcDbEntity
  8
0
100
AcDbLine
 62
9
  6
CONTINUOUS
 10
25.7020186219
 20
8.6426695021
 11
25.7020186237
 21
8.0883331741
  0
LINE
  5
23F
100
AcDbEntity
  8
0
100
AcDbLine
 62
9
  6
CONTINUOUS
 10
25.7583560773
 20
10.5033431621
 11
25.7583563944
 21
9.8926695021
  0
LINE
  5
240
100
AcDbEntity
  8
0
100
AcDbLine
 62
9
  6
CONTINUOUS
 10
25.7583563944
 20
8.6426695021
 11
25.7583560116
 21
8.0319957755
  0
LINE
  5
241
100
AcDbEntity
  8
0
100
AcDbLine
 62
7
  6
CONTINUOUS
 10
25.7926923427
 20
9.8926695021
 11
25.7926923427
 21
8.6426695021
  0
LINE
  5
242
100
AcDbEntity
  8
0
100
AcDbLine
 62
7
  6
CONTINUOUS
 10
25.8126923427
 20
9.8726695021
 11
25.8126923427
 21
8.6626695021
  0
LINE
  5
243
100
AcDbEntity
  8
0
100
AcDbLine
 62
7
  6
CONTINUOUS
 10
25.8326923427
 20
9.8926695021
 11
25.8326923427
 21
8.6426695021
  0
LINE
  5
244
100
AcDbEntity
  8
0
100
AcDbLine
 62
9
  6
CONTINUOUS
 10
28.1170292129
 20
8.0319955544
 11
28.1170286739
 21
10.5033432287
  0
LINE
  5
245
100
AcDbEntity
  8
0
100
AcDbLine
 62
9
  6
CONTINUOUS
 10
28.1733662117
 20
8.0883327313
 11
28.1733660618
 21
10.4470058302
  0
LINE
  5
246
100
AcDbEntity
  8
0
100
AcDbLine
 62
9
  6
CONTINUOUS
 10
28.4083088033
 20
7.8429489427
 11
28.4083088033
 21
10.6923900616
  0
LINE
  5
247
100
AcDbEntity
  8
0
100
AcDbLine
 62
7
  6
CONTINUOUS
 10
28.4376923427
 20
7.8276797682
 11
28.4376923427
 21
10.7076648471
  0
ARC
  5
248
100
AcDbEntity
  8
0
100
AcDbCircle
 62
7
  6
CONTINUOUS
 10
-5.0623076573
 20
9.2676695021
 40
0.875
100
AcDbArc
 50
45.7334028339
 51
314.2665971598
  0
ARC
  5
249
100
AcDbEntity
  8
0
100
AcDbCircle
 62
7
  6
CONTINUOUS
 10
26.9376923427
 20
9.2676695021
 40
0.875
100
AcDbArc
 50
225.6090280797
 51
134.3909719159
  0
ARC
  5
24A
100
AcDbEntity
  8
0
100
AcDbCircle
 62
9
  6
CONTINUOUS
 10
-5.0623076573
 20
9.2676695021
 40
0.815
100
AcDbArc
 50
50.1691154926
 51
309.8308844891
  0
ARC
  5
24B
100
AcDbEntity
  8
0
100
AcDbCircle
 62
9
  6
CONTINUOUS
 10
26.9376923427
 20
9.2676695021
 40
0.815
100
AcDbArc
 50
230.0786130909
 51
129.9213869252
  0
ARC
  5
24C
100
AcDbEntity
  8
0
100
AcDbCircle
 62
7
  6
CONTINUOUS
 10
-5.0623076573
 20
9.2676695021
 40
0.625
100
AcDbArc
 50
90.0
 51
270.0
  0
ARC
  5
24D
100
AcDbEntity
  8
0
100
AcDbCircle
 62
7
  6
CONTINUOUS
 10
26.9376923427
 20
9.2676695021
 40
0.625
100
AcDbArc
 50
270.0
 51
90.0
  0
ARC
  5
24E
100
AcDbEntity
  8
0
100
AcDbCircle
 62
7
  6
CONTINUOUS
 10
-3.6223211233
 20
7.8276908875
 40
0.0600153113
100
AcDbArc
 50
269.9444417036
 51
359.9893842491
  0
ARC
  5
24F
100
AcDbEntity
  8
0
100
AcDbCircle
 62
7
  6
CONTINUOUS
 10
28.3776788767
 20
7.8276908875
 40
0.0600153113
100
AcDbArc
 50
269.9444417014
 51
359.9893842522
  0
ARC
  5
250
100
AcDbEntity
  8
0
100
AcDbCircle
 62
7
  6
CONTINUOUS
 10
-3.6223080793
 20
10.7076690801
 40
0.0599996104
100
AcDbArc
 50
359.9959577646
 51
90.0291494741
  0
ARC
  5
251
100
AcDbEntity
  8
0
100
AcDbCircle
 62
7
  6
CONTINUOUS
 10
-6.5023072352
 20
10.7076690801
 40
0.0599996104
100
AcDbArc
 50
89.99595776
 51
180.029149474
  0
ARC
  5
252
100
AcDbEntity
  8
0
100
AcDbCircle
 62
7
  6
CONTINUOUS
 10
-6.5023072352
 20
7.8276699242
 40
0.0599996104
100
AcDbArc
 50
179.99595776
 51
270.0291495547
  0
ARC
  5
253
100
AcDbEntity
  8
0
100
AcDbCircle
 62
7
  6
CONTINUOUS
 10
28.3776919207
 20
10.7076690801
 40
0.0599996104
100
AcDbArc
 50
359.9959577646
 51
90.0291494741
  0
ARC
  5
254
100
AcDbEntity
  8
0
100
AcDbCircle
 62
7
  6
CONTINUOUS
 10
25.4976927648
 20
10.7076690801
 40
0.0599996104
100
AcDbArc
 50
89.99595776
 51
180.029149474
  0
ARC
  5
255
100
AcDbEntity
  8
0
100
AcDbCircle
 62
7
  6
CONTINUOUS
 10
25.4976927648
 20
7.8276699242
 40
0.0599996104
100
AcDbArc
 50
179.99595776
 51
270.0291495547
  0
SPLINE
  5
256
100
AcDbEntity
  8
0
100
AcDbSpline
 62
9
  6
CONTINUOUS
 70
0
 71
3
 72
38
 73
34
 74
0
 42
0.0000001
 43
0.0000001
 44
0.0000000001
 40
0.0
 40
0.0
 40
0.0
 40
0.0
 40
0.0442984747
 40
0.0884894713
 40
0.1324480478
 40
0.1760659892
 40
0.2192365879
 40
0.2618522734
 40
0.3038127643
 40
0.34502523
 40
0.3854006044
 40
0.4248552965
 40
0.4633164115
 40
0.5007177062
 40
0.5369959146
 40
0.5721001611
 40
0.6386166634
 40
0.6699678028
 40
0.7000181486
 40
0.7287610787
 40
0.7561941797
 40
0.7823229645
 40
0.8071684589
 40
0.8307629591
 40
0.8531510741
 40
0.8743930096
 40
0.8945716865
 40
0.9137856014
 40
0.9321423573
 40
0.9497676921
 40
0.96681229
 40
0.9834662752
 40
1.0
 40
1.0
 40
1.0
 40
1.0
 10
-5.3123076573
 20
9.2676695021
 30
0.0
 10
-5.312308184
 20
9.2782876065
 30
0.0
 10
-5.3120860462
 20
9.2994986648
 30
0.0
 10
-5.3111163948
 20
9.331232883
 30
0.0
 10
-5.3095179106
 20
9.3627787116
 30
0.0
 10
-5.3072530417
 20
9.3940386253
 30
0.0
 10
-5.3043574876
 20
9.4249228147
 30
0.0
 10
-5.3008850914
 20
9.4553477292
 30
0.0
 10
-5.2968013931
 20
9.4852235337
 30
0.0
 10
-5.2920957633
 20
9.5144638504
 30
0.0
 10
-5.2868425198
 20
9.5429999733
 30
0.0
 10
-5.2810674201
 20
9.5707622222
 30
0.0
 10
-5.274743693
 20
9.5976733643
 30
0.0
 10
-5.2679015374
 20
9.6236705547
 30
0.0
 10
-5.2605981854
 20
9.648705497
 30
0.0
 10
-5.2504380935
 20
9.6801621659
 30
0.0
 10
-5.239247222
 20
9.7100345011
 30
0.0
 10
-5.227022644
 20
9.7381591133
 30
0.0
 10
-5.2176761176
 20
9.7576464782
 30
0.0
 10
-5.2079819088
 20
9.7759068398
 30
0.0
 10
-5.1979759966
 20
9.7929169075
 30
0.0
 10
-5.1876893175
 20
9.8086547125
 30
0.0
 10
-5.1771433674
 20
9.8230965844
 30
0.0
 10
-5.1663596737
 20
9.8362220163
 30
0.0
 10
-5.1553633449
 20
9.8480158534
 30
0.0
 10
-5.1441755476
 20
9.8584643034
 30
0.0
 10
-5.1328130136
 20
9.8675517027
 30
0.0
 10
-5.1212961613
 20
9.8752631331
 30
0.0
 10
-5.109655428
 20
9.8815929429
 30
0.0
 10
-5.0979197794
 20
9.8865323745
 30
0.0
 10
-5.0861110571
 20
9.8900710922
 30
0.0
 10
-5.0742336205
 20
9.8921981205
 30
0.0
 10
-5.0662707012
 20
9.8926678972
 30
0.0
 10
-5.0623076573
 20
9.8926695021
 30
0.0
  0
SPLINE
  5
257
100
AcDbEntity
  8
0
100
AcDbSpline
 62
9
  6
CONTINUOUS
 70
0
 71
3
 72
38
 73
34
 74
0
 42
0.0000001
 43
0.0000001
 44
0.0000000001
 40
0.0
 40
0.0
 40
0.0
 40
0.0
 40
0.0165357821
 40
0.0331891649
 40
0.0502328702
 40
0.0678575948
 40
0.0862140335
 40
0.1054280152
 40
0.1256071513
 40
0.1468493791
 40
0.1692371301
 40
0.1928311851
 40
0.2176768168
 40
0.2438059345
 40
0.2712390332
 40
0.2999818188
 40
0.3300321757
 40
0.3613833996
 40
0.4278998752
 40
0.4630040591
 40
0.499282268
 40
0.5366836021
 40
0.5751446942
 40
0.6145993456
 40
0.6549747518
 40
0.6961872273
 40
0.7381476663
 40
0.7807633767
 40
0.8239340346
 40
0.8675519303
 40
0.9115105021
 40
0.9557015494
 40
1.0
 40
1.0
 40
1.0
 40
1.0
 10
26.9376923427
 20
9.8926695021
 30
0.0
 10
26.9416558798
 20
9.8926678069
 30
0.0
 10
26.9496191467
 20
9.8921981589
 30
0.0
 10
26.9614967429
 20
9.8900711789
 30
0.0
 10
26.9733049254
 20
9.8865324
 30
0.0
 10
26.9850400645
 20
9.8815928879
 30
0.0
 10
26.9966805207
 20
9.8752630095
 30
0.0
 10
27.0081974134
 20
9.8675515677
 30
0.0
 10
27.0195603638
 20
9.8584643876
 30
0.0
 10
27.0307485059
 20
9.848016149
 30
0.0
 10
27.0417443858
 20
9.8362220385
 30
0.0
 10
27.0525273971
 20
9.8230962706
 30
0.0
 10
27.0630736145
 20
9.80865461
 30
0.0
 10
27.073360993
 20
9.7929171196
 30
0.0
 10
27.0833668402
 20
9.7759069463
 30
0.0
 10
27.0930606225
 20
9.7576463992
 30
0.0
 10
27.1024072437
 20
9.7381591011
 30
0.0
 10
27.114632302
 20
9.7100346784
 30
0.0
 10
27.125823117
 20
9.6801623001
 30
0.0
 10
27.1359826604
 20
9.6487054778
 30
0.0
 10
27.1432859759
 20
9.6236705374
 30
0.0
 10
27.150128731
 20
9.5976735012
 30
0.0
 10
27.1564524277
 20
9.5707623475
 30
0.0
 10
27.1622267078
 20
9.5429999369
 30
0.0
 10
27.1674802077
 20
9.5144638723
 30
0.0
 10
27.1721866504
 20
9.4852236802
 30
0.0
 10
27.1762690785
 20
9.4553476916
 30
0.0
 10
27.1797402945
 20
9.4249226537
 30
0.0
 10
27.18263825
 20
9.3940386945
 30
0.0
 10
27.1849042508
 20
9.3627788299
 30
0.0
 10
27.186499918
 20
9.331232853
 30
0.0
 10
27.1874697516
 20
9.2994986634
 30
0.0
 10
27.1876930888
 20
9.2782876008
 30
0.0
 10
27.1876923427
 20
9.2676695021
 30
0.0
  0
SPLINE
  5
258
100
AcDbEntity
  8
0
100
AcDbSpline
 62
9
  6
CONTINUOUS
 70
0
 71
3
 72
38
 73
34
 74
0
 42
0.0000001
 43
0.0000001
 44
0.0000000001
 40
0.0
 40
0.0
 40
0.0
 40
0.0
 40
0.0442984747
 40
0.0884894713
 40
0.1324480478
 40
0.1760659892
 40
0.2192365879
 40
0.2618522734
 40
0.3038127643
 40
0.34502523
 40
0.3854006044
 40
0.4248552965
 40
0.4633164115
 40
0.5007177062
 40
0.5369959146
 40
0.5721001611
 40
0.6386166634
 40
0.6699678028
 40
0.7000181486
 40
0.7287610787
 40
0.7561941797
 40
0.7823229645
 40
0.8071684589
 40
0.8307629591
 40
0.8531510741
 40
0.8743930096
 40
0.8945716865
 40
0.9137856014
 40
0.9321423573
 40
0.9497676921
 40
0.96681229
 40
0.9834662752
 40
1.0
 40
1.0
 40
1.0
 40
1.0
 10
27.1876923427
 20
9.2676695021
 30
0.0
 10
27.1876928695
 20
9.2570513978
 30
0.0
 10
27.1874707316
 20
9.2358403395
 30
0.0
 10
27.1865010803
 20
9.2041061213
 30
0.0
 10
27.1849025961
 20
9.1725602927
 30
0.0
 10
27.1826377272
 20
9.1413003789
 30
0.0
 10
27.1797421731
 20
9.1104161896
 30
0.0
 10
27.1762697769
 20
9.0799912751
 30
0.0
 10
27.1721860785
 20
9.0501154706
 30
0.0
 10
27.1674804487
 20
9.0208751539
 30
0.0
 10
27.1622272053
 20
8.992339031
 30
0.0
 10
27.1564521056
 20
8.9645767821
 30
0.0
 10
27.1501283784
 20
8.93766564
 30
0.0
 10
27.1432862229
 20
8.9116684496
 30
0.0
 10
27.1359828709
 20
8.8866335073
 30
0.0
 10
27.1258227789
 20
8.8551768384
 30
0.0
 10
27.1146319075
 20
8.8253045032
 30
0.0
 10
27.1024073295
 20
8.7971798909
 30
0.0
 10
27.0930608031
 20
8.7776925261
 30
0.0
 10
27.0833665943
 20
8.7594321645
 30
0.0
 10
27.073360682
 20
8.7424220968
 30
0.0
 10
27.0630740029
 20
8.7266842918
 30
0.0
 10
27.0525280529
 20
8.7122424199
 30
0.0
 10
27.0417443592
 20
8.6991169879
 30
0.0
 10
27.0307480304
 20
8.6873231509
 30
0.0
 10
27.0195602331
 20
8.6768747008
 30
0.0
 10
27.0081976991
 20
8.6677873016
 30
0.0
 10
26.9966808468
 20
8.6600758712
 30
0.0
 10
26.9850401134
 20
8.6537460614
 30
0.0
 10
26.9733044648
 20
8.6488066298
 30
0.0
 10
26.9614957426
 20
8.6452679121
 30
0.0
 10
26.949618306
 20
8.6431408838
 30
0.0
 10
26.9416553867
 20
8.6426711071
 30
0.0
 10
26.9376923427
 20
8.6426695021
 30
0.0
  0
SPLINE
  5
259
100
AcDbEntity
  8
0
100
AcDbSpline
 62
9
  6
CONTINUOUS
 70
0
 71
3
 72
15
 73
11
 74
0
 42
0.0000001
 43
0.0000001
 44
0.0000000001
 40
0.0
 40
0.0
 40
0.0
 40
0.0
 40
0.1198962898
 40
0.2441050052
 40
0.3712855684
 40
0.5000000001
 40
0.6287144318
 40
0.7558949948
 40
0.8801037102
 40
1.0
 40
1.0
 40
1.0
 40
1.0
 10
25.4670758823
 20
7.8429489427
 30
0.0
 10
25.468093485
 20
7.8404961758
 30
0.0
 10
25.4704487597
 20
7.8356162467
 30
0.0
 10
25.4747626778
 20
7.828600734
 30
0.0
 10
25.4798462992
 20
7.8218745108
 30
0.0
 10
25.4855960999
 20
7.8155732593
 30
0.0
 10
25.4918973514
 20
7.8098234586
 30
0.0
 10
25.4986235745
 20
7.8047398371
 30
0.0
 10
25.5056390872
 20
7.800425919
 30
0.0
 10
25.5105190163
 20
7.7980706443
 30
0.0
 10
25.5129717833
 20
7.7970530416
 30
0.0
  0
SPLINE
  5
25A
100
AcDbEntity
  8
0
100
AcDbSpline
 62
9
  6
CONTINUOUS
 70
0
 71
3
 72
15
 73
11
 74
0
 42
0.0000001
 43
0.0000001
 44
0.0000000001
 40
0.0
 40
0.0
 40
0.0
 40
0.0
 40
0.1223054985
 40
0.2468213766
 40
0.3729786216
 40
0.5000002477
 40
0.6270218649
 40
0.7531790782
 40
0.8776949607
 40
1.0
 40
1.0
 40
1.0
 40
1.0
 10
25.7020182865
 20
8.0883332367
 30
0.0
 10
25.7024282091
 20
8.0848696225
 30
0.0
 10
25.7038863767
 20
8.0779404739
 30
0.0
 10
25.7078306413
 20
8.0680117425
 30
0.0
 10
25.7134227084
 20
8.0587495983
 30
0.0
 10
25.7204797582
 20
8.0504569126
 30
0.0
 10
25.728772435
 20
8.0433998574
 30
0.0
 10
25.738034567
 20
8.0378077646
 30
0.0
 10
25.7479632939
 20
8.0338635414
 30
0.0
 10
25.7548924106
 20
8.0324052874
 30
0.0
 10
25.7583560116
 20
8.0319953643
 30
0.0
  0
LINE
  5
25B
100
AcDbEntity
  8
0
100
AcDbLine
 62
9
  6
CONTINUOUS
 10
-3.5916911967
 20
10.6923900616
 11
-3.8266339382
 21
10.4470058302
  0
LINE
  5
25C
100
AcDbEntity
  8
0
100
AcDbLine
 62
9
  6
CONTINUOUS
 10
-3.8266337883
 20
8.0883327313
 11
-3.5916911967
 21
7.8429489427
  0
LINE
  5
25D
100
AcDbEntity
  8
0
100
AcDbLine
 62
9
  6
CONTINUOUS
 10
-3.5916911967
 20
7.8429489427
 11
-3.5623076571
 21
7.8276704391
  0
LINE
  5
25E
100
AcDbEntity
  8
0
100
AcDbLine
 62
9
  6
CONTINUOUS
 10
-3.5623076573
 20
10.7076690801
 11
-3.5916911967
 21
10.6923900616
  0
LINE
  5
25F
100
AcDbEntity
  8
0
100
AcDbLine
 62
9
  6
CONTINUOUS
 10
-6.4870282167
 20
10.7382859627
 11
-6.2416439853
 21
10.5033432212
  0
LINE
  5
260
100
AcDbEntity
  8
0
100
AcDbLine
 62
9
  6
CONTINUOUS
 10
-3.6375870978
 20
10.7382859627
 11
-3.8829713238
 21
10.5033432287
  0
LINE
  5
261
100
AcDbEntity
  8
0
100
AcDbLine
 62
9
  6
CONTINUOUS
 10
-3.6223080714
 20
10.7676695021
 11
-3.6375870978
 21
10.7382859627
  0
LINE
  5
262
100
AcDbEntity
  8
0
100
AcDbLine
 62
9
  6
CONTINUOUS
 10
-6.5023072352
 20
10.7676695021
 11
-6.4870282167
 21
10.7382859627
  0
LINE
  5
263
100
AcDbEntity
  8
0
100
AcDbLine
 62
9
  6
CONTINUOUS
 10
-6.5329241178
 20
7.8429489427
 11
-6.2979813763
 21
8.0883331741
  0
LINE
  5
264
100
AcDbEntity
  8
0
100
AcDbLine
 62
9
  6
CONTINUOUS
 10
-6.5329241178
 20
10.6923900616
 11
-6.2979813839
 21
10.4470058357
  0
LINE
  5
265
100
AcDbEntity
  8
0
100
AcDbLine
 62
9
  6
CONTINUOUS
 10
-6.5623076573
 20
10.707669088
 11
-6.5329241178
 21
10.6923900616
  0
LINE
  5
266
100
AcDbEntity
  8
0
100
AcDbLine
 62
9
  6
CONTINUOUS
 10
-6.5623076573
 20
7.8276699242
 11
-6.5329241178
 21
7.8429489427
  0
LINE
  5
267
100
AcDbEntity
  8
0
100
AcDbLine
 62
9
  6
CONTINUOUS
 10
-3.8829708766
 20
8.0319956386
 11
-3.6375870978
 21
7.7970530416
  0
LINE
  5
268
100
AcDbEntity
  8
0
100
AcDbLine
 62
9
  6
CONTINUOUS
 10
-6.4870282167
 20
7.7970530416
 11
-6.2416439908
 21
8.0319957755
  0
LINE
  5
269
100
AcDbEntity
  8
0
100
AcDbLine
 62
9
  6
CONTINUOUS
 10
-6.5023072431
 20
7.7676695021
 11
-6.4870282167
 21
7.7970530416
  0
LINE
  5
26A
100
AcDbEntity
  8
0
100
AcDbLine
 62
9
  6
CONTINUOUS
 10
-3.6375870978
 20
7.7970530416
 11
-3.6223085556
 21
7.7676694977
  0
SPLINE
  5
26B
100
AcDbEntity
  8
0
100
AcDbSpline
 62
9
  6
CONTINUOUS
 70
0
 71
3
 72
15
 73
11
 74
0
 42
0.0000001
 43
0.0000001
 44
0.0000000001
 40
0.0
 40
0.0
 40
0.0
 40
0.0
 40
0.1223054985
 40
0.2468213766
 40
0.3729786216
 40
0.5000002477
 40
0.6270218649
 40
0.7531790782
 40
0.8776949607
 40
1.0
 40
1.0
 40
1.0
 40
1.0
 10
-3.8266336011
 20
10.4470057676
 30
0.0
 10
-3.8270435236
 20
10.4504693818
 30
0.0
 10
-3.8285016913
 20
10.4573985304
 30
0.0
 10
-3.8324459558
 20
10.4673272618
 30
0.0
 10
-3.838038023
 20
10.476589406
 30
0.0
 10
-3.8450950727
 20
10.4848820917
 30
0.0
 10
-3.8533877495
 20
10.4919391468
 30
0.0
 10
-3.8626498815
 20
10.4975312397
 30
0.0
 10
-3.8725786085
 20
10.5014754629
 30
0.0
 10
-3.8795077252
 20
10.5029337169
 30
0.0
 10
-3.8829713261
 20
10.50334364
 30
0.0
  0
SPLINE
  5
26C
100
AcDbEntity
  8
0
100
AcDbSpline
 62
9
  6
CONTINUOUS
 70
0
 71
3
 72
15
 73
11
 74
0
 42
0.0000001
 43
0.0000001
 44
0.0000000001
 40
0.0
 40
0.0
 40
0.0
 40
0.0
 40
0.1198962898
 40
0.2441050052
 40
0.3712855684
 40
0.5000000001
 40
0.6287144318
 40
0.7558949948
 40
0.8801037102
 40
1.0
 40
1.0
 40
1.0
 40
1.0
 10
-3.5916911968
 20
10.6923900615
 30
0.0
 10
-3.5927087996
 20
10.6948428285
 30
0.0
 10
-3.5950640742
 20
10.6997227576
 30
0.0
 10
-3.5993779923
 20
10.7067382703
 30
0.0
 10
-3.6044616138
 20
10.7134644935
 30
0.0
 10
-3.6102114144
 20
10.719765745
 30
0.0
 10
-3.6165126659
 20
10.7255155457
 30
0.0
 10
-3.623238889
 20
10.7305991671
 30
0.0
 10
-3.6302544018
 20
10.7349130853
 30
0.0
 10
-3.6351343309
 20
10.7372683599
 30
0.0
 10
-3.6375870978
 20
10.7382859627
 30
0.0
  0
SPLINE
  5
26D
100
AcDbEntity
  8
0
100
AcDbSpline
 62
9
  6
CONTINUOUS
 70
0
 71
3
 72
15
 73
11
 74
0
 42
0.0000001
 43
0.0000001
 44
0.0000000001
 40
0.0
 40
0.0
 40
0.0
 40
0.0
 40
0.1223067516
 40
0.2468220838
 40
0.3729787113
 40
0.4999995931
 40
0.6270204747
 40
0.7531771208
 40
0.8776923983
 40
1.0
 40
1.0
 40
1.0
 40
1.0
 10
-3.8829707871
 20
8.0319949544
 30
0.0
 10
-3.8795071188
 20
8.0324048543
 30
0.0
 10
-3.8725778506
 20
8.0338627157
 30
0.0
 10
-3.8626490886
 20
8.0378070865
 30
0.0
 10
-3.853386909
 20
8.0433990655
 30
0.0
 10
-3.8450942398
 20
8.0504561197
 30
0.0
 10
-3.8380371643
 20
8.058748777
 30
0.0
 10
-3.8324452005
 20
8.0680109566
 30
0.0
 10
-3.8285007244
 20
8.0779397128
 30
0.0
 10
-3.8270430038
 20
8.0848690354
 30
0.0
 10
-3.8266331008
 20
8.0883327278
 30
0.0
  0
SPLINE
  5
26E
100
AcDbEntity
  8
0
100
AcDbSpline
 62
9
  6
CONTINUOUS
 70
0
 71
3
 72
15
 73
11
 74
0
 42
0.0000001
 43
0.0000001
 44
0.0000000001
 40
0.0
 40
0.0
 40
0.0
 40
0.0
 40
0.1198963385
 40
0.2441050609
 40
0.3712856046
 40
0.500000005
 40
0.6287144066
 40
0.7558949523
 40
0.8801036733
 40
1.0
 40
1.0
 40
1.0
 40
1.0
 10
-3.5916911968
 20
7.8429489427
 30
0.0
 10
-3.592708795
 20
7.840496172
 30
0.0
 10
-3.5950640616
 20
7.835616236
 30
0.0
 10
-3.5993779724
 20
7.8286007152
 30
0.0
 10
-3.6044615899
 20
7.8218744875
 30
0.0
 10
-3.61021139
 20
7.8155732348
 30
0.0
 10
-3.6165126439
 20
7.809823436
 30
0.0
 10
-3.6232388723
 20
7.8047398193
 30
0.0
 10
-3.6302543927
 20
7.8004259085
 30
0.0
 10
-3.6351343277
 20
7.7980706406
 30
0.0
 10
-3.6375870978
 20
7.7970530416
 30
0.0
  0
SPLINE
  5
26F
100
AcDbEntity
  8
0
100
AcDbSpline
 62
9
  6
CONTINUOUS
 70
0
 71
3
 72
15
 73
11
 74
0
 42
0.0000001
 43
0.0000001
 44
0.0000000001
 40
0.0
 40
0.0
 40
0.0
 40
0.0
 40
0.1223054985
 40
0.2468213766
 40
0.3729786216
 40
0.5000002477
 40
0.6270218649
 40
0.7531790782
 40
0.8776949607
 40
1.0
 40
1.0
 40
1.0
 40
1.0
 10
-6.2416439227
 20
10.5033435584
 30
0.0
 10
-6.2451075369
 20
10.5029336358
 30
0.0
 10
-6.2520366855
 20
10.5014754682
 30
0.0
 10
-6.2619654169
 20
10.4975312036
 30
0.0
 10
-6.2712275611
 20
10.4919391364
 30
0.0
 10
-6.2795202468
 20
10.4848820867
 30
0.0
 10
-6.286577302
 20
10.4765894099
 30
0.0
 10
-6.2921693948
 20
10.4673272779
 30
0.0
 10
-6.296113618
 20
10.4573985509
 30
0.0
 10
-6.297571872
 20
10.4504694342
 30
0.0
 10
-6.2979817951
 20
10.4470058333
 30
0.0
  0
SPLINE
  5
270
100
AcDbEntity
  8
0
100
AcDbSpline
 62
9
  6
CONTINUOUS
 70
0
 71
3
 72
15
 73
11
 74
0
 42
0.0000001
 43
0.0000001
 44
0.0000000001
 40
0.0
 40
0.0
 40
0.0
 40
0.0
 40
0.1198962898
 40
0.2441050052
 40
0.3712855684
 40
0.5000000001
 40
0.6287144318
 40
0.7558949948
 40
0.8801037102
 40
1.0
 40
1.0
 40
1.0
 40
1.0
 10
-6.4870282167
 20
10.7382859626
 30
0.0
 10
-6.4894809836
 20
10.7372683599
 30
0.0
 10
-6.4943609127
 20
10.7349130852
 30
0.0
 10
-6.5013764254
 20
10.7305991671
 30
0.0
 10
-6.5081026486
 20
10.7255155457
 30
0.0
 10
-6.5144039001
 20
10.719765745
 30
0.0
 10
-6.5201537008
 20
10.7134644935
 30
0.0
 10
-6.5252373223
 20
10.7067382704
 30
0.0
 10
-6.5295512404
 20
10.6997227576
 30
0.0
 10
-6.5319065151
 20
10.6948428285
 30
0.0
 10
-6.5329241178
 20
10.6923900616
 30
0.0
  0
SPLINE
  5
271
100
AcDbEntity
  8
0
100
AcDbSpline
 62
9
  6
CONTINUOUS
 70
0
 71
3
 72
15
 73
11
 74
0
 42
0.0000001
 43
0.0000001
 44
0.0000000001
 40
0.0
 40
0.0
 40
0.0
 40
0.0
 40
0.1223054985
 40
0.2468213766
 40
0.3729786216
 40
0.5000002477
 40
0.6270218649
 40
0.7531790782
 40
0.8776949607
 40
1.0
 40
1.0
 40
1.0
 40
1.0
 10
-6.2979817135
 20
8.0883332367
 30
0.0
 10
-6.2975717909
 20
8.0848696225
 30
0.0
 10
-6.2961136233
 20
8.0779404739
 30
0.0
 10
-6.2921693587
 20
8.0680117425
 30
0.0
 10
-6.2865772916
 20
8.0587495983
 30
0.0
 10
-6.2795202418
 20
8.0504569126
 30
0.0
 10
-6.271227565
 20
8.0433998574
 30
0.0
 10
-6.261965433
 20
8.0378077646
 30
0.0
 10
-6.2520367061
 20
8.0338635414
 30
0.0
 10
-6.2451075894
 20
8.0324052874
 30
0.0
 10
-6.2416439884
 20
8.0319953643
 30
0.0
  0
SPLINE
  5
272
100
AcDbEntity
  8
0
100
AcDbSpline
 62
9
  6
CONTINUOUS
 70
0
 71
3
 72
15
 73
11
 74
0
 42
0.0000001
 43
0.0000001
 44
0.0000000001
 40
0.0
 40
0.0
 40
0.0
 40
0.0
 40
0.1198962898
 40
0.2441050052
 40
0.3712855684
 40
0.5000000001
 40
0.6287144318
 40
0.7558949948
 40
0.8801037102
 40
1.0
 40
1.0
 40
1.0
 40
1.0
 10
-6.5329241177
 20
7.8429489427
 30
0.0
 10
-6.531906515
 20
7.8404961758
 30
0.0
 10
-6.5295512403
 20
7.8356162467
 30
0.0
 10
-6.5252373222
 20
7.828600734
 30
0.0
 10
-6.5201537008
 20
7.8218745108
 30
0.0
 10
-6.5144039001
 20
7.8155732593
 30
0.0
 10
-6.5081026486
 20
7.8098234586
 30
0.0
 10
-6.5013764255
 20
7.8047398371
 30
0.0
 10
-6.4943609128
 20
7.800425919
 30
0.0
 10
-6.4894809837
 20
7.7980706443
 30
0.0
 10
-6.4870282167
 20
7.7970530416
 30
0.0
  0
LINE
  5
273
100
AcDbEntity
  8
0
100
AcDbLine
 62
9
  6
CONTINUOUS
 10
28.4083088033
 20
10.6923900616
 11
28.1733660618
 21
10.4470058302
  0
LINE
  5
274
100
AcDbEntity
  8
0
100
AcDbLine
 62
9
  6
CONTINUOUS
 10
28.1733662117
 20
8.0883327313
 11
28.4083088033
 21
7.8429489427
  0
LINE
  5
275
100
AcDbEntity
  8
0
100
AcDbLine
 62
9
  6
CONTINUOUS
 10
28.4083088033
 20
7.8429489427
 11
28.4376923429
 21
7.8276704391
  0
LINE
  5
276
100
AcDbEntity
  8
0
100
AcDbLine
 62
9
  6
CONTINUOUS
 10
28.4376923427
 20
10.7076690801
 11
28.4083088033
 21
10.6923900616
  0
LINE
  5
277
100
AcDbEntity
  8
0
100
AcDbLine
 62
9
  6
CONTINUOUS
 10
25.5129717833
 20
10.7382859627
 11
25.7583560147
 21
10.5033432212
  0
LINE
  5
278
100
AcDbEntity
  8
0
100
AcDbLine
 62
9
  6
CONTINUOUS
 10
28.3624129022
 20
10.7382859627
 11
28.1170286762
 21
10.5033432287
  0
LINE
  5
279
100
AcDbEntity
  8
0
100
AcDbLine
 62
9
  6
CONTINUOUS
 10
28.3776919286
 20
10.7676695021
 11
28.3624129022
 21
10.7382859627
  0
LINE
  5
27A
100
AcDbEntity
  8
0
100
AcDbLine
 62
9
  6
CONTINUOUS
 10
25.4976927648
 20
10.7676695021
 11
25.5129717833
 21
10.7382859627
  0
LINE
  5
27B
100
AcDbEntity
  8
0
100
AcDbLine
 62
9
  6
CONTINUOUS
 10
25.4670758822
 20
7.8429489427
 11
25.7020186237
 21
8.0883331741
  0
LINE
  5
27C
100
AcDbEntity
  8
0
100
AcDbLine
 62
9
  6
CONTINUOUS
 10
25.4670758822
 20
10.6923900616
 11
25.7020186161
 21
10.4470058357
  0
LINE
  5
27D
100
AcDbEntity
  8
0
100
AcDbLine
 62
9
  6
CONTINUOUS
 10
25.4376923427
 20
10.707669088
 11
25.4670758822
 21
10.6923900616
  0
LINE
  5
27E
100
AcDbEntity
  8
0
100
AcDbLine
 62
9
  6
CONTINUOUS
 10
25.4376923427
 20
7.8276699242
 11
25.4670758822
 21
7.8429489427
  0
LINE
  5
27F
100
AcDbEntity
  8
0
100
AcDbLine
 62
9
  6
CONTINUOUS
 10
28.1170291234
 20
8.0319956386
 11
28.3624129022
 21
7.7970530416
  0
LINE
  5
280
100
AcDbEntity
  8
0
100
AcDbLine
 62
9
  6
CONTINUOUS
 10
25.5129717833
 20
7.7970530416
 11
25.7583560092
 21
8.0319957755
  0
LINE
  5
281
100
AcDbEntity
  8
0
100
AcDbLine
 62
9
  6
CONTINUOUS
 10
25.4976927569
 20
7.7676695021
 11
25.5129717833
 21
7.7970530416
  0
LINE
  5
282
100
AcDbEntity
  8
0
100
AcDbLine
 62
9
  6
CONTINUOUS
 10
28.3624129022
 20
7.7970530416
 11
28.3776914444
 21
7.7676694977
  0
SPLINE
  5
283
100
AcDbEntity
  8
0
100
AcDbSpline
 62
9
  6
CONTINUOUS
 70
0
 71
3
 72
15
 73
11
 74
0
 42
0.0000001
 43
0.0000001
 44
0.0000000001
 40
0.0
 40
0.0
 40
0.0
 40
0.0
 40
0.1223054985
 40
0.2468213766
 40
0.3729786216
 40
0.5000002477
 40
0.6270218649
 40
0.7531790782
 40
0.8776949607
 40
1.0
 40
1.0
 40
1.0
 40
1.0
 10
28.1733663989
 20
10.4470057676
 30
0.0
 10
28.1729564764
 20
10.4504693818
 30
0.0
 10
28.1714983087
 20
10.4573985304
 30
0.0
 10
28.1675540442
 20
10.4673272618
 30
0.0
 10
28.161961977
 20
10.476589406
 30
0.0
 10
28.1549049273
 20
10.4848820917
 30
0.0
 10
28.1466122505
 20
10.4919391468
 30
0.0
 10
28.1373501185
 20
10.4975312397
 30
0.0
 10
28.1274213915
 20
10.5014754629
 30
0.0
 10
28.1204922748
 20
10.5029337169
 30
0.0
 10
28.1170286739
 20
10.50334364
 30
0.0
  0
SPLINE
  5
284
100
AcDbEntity
  8
0
100
AcDbSpline
 62
9
  6
CONTINUOUS
 70
0
 71
3
 72
15
 73
11
 74
0
 42
0.0000001
 43
0.0000001
 44
0.0000000001
 40
0.0
 40
0.0
 40
0.0
 40
0.0
 40
0.1198962898
 40
0.2441050052
 40
0.3712855684
 40
0.5000000001
 40
0.6287144318
 40
0.7558949948
 40
0.8801037102
 40
1.0
 40
1.0
 40
1.0
 40
1.0
 10
28.4083088032
 20
10.6923900615
 30
0.0
 10
28.4072912004
 20
10.6948428285
 30
0.0
 10
28.4049359258
 20
10.6997227576
 30
0.0
 10
28.4006220077
 20
10.7067382703
 30
0.0
 10
28.3955383862
 20
10.7134644935
 30
0.0
 10
28.3897885856
 20
10.719765745
 30
0.0
 10
28.3834873341
 20
10.7255155457
 30
0.0
 10
28.376761111
 20
10.7305991671
 30
0.0
 10
28.3697455982
 20
10.7349130853
 30
0.0
 10
28.3648656691
 20
10.7372683599
 30
0.0
 10
28.3624129022
 20
10.7382859627
 30
0.0
  0
SPLINE
  5
285
100
AcDbEntity
  8
0
100
AcDbSpline
 62
9
  6
CONTINUOUS
 70
0
 71
3
 72
15
 73
11
 74
0
 42
0.0000001
 43
0.0000001
 44
0.0000000001
 40
0.0
 40
0.0
 40
0.0
 40
0.0
 40
0.1223067516
 40
0.2468220838
 40
0.3729787113
 40
0.4999995931
 40
0.6270204747
 40
0.7531771208
 40
0.8776923983
 40
1.0
 40
1.0
 40
1.0
 40
1.0
 10
28.1170292129
 20
8.0319949544
 30
0.0
 10
28.1204928812
 20
8.0324048543
 30
0.0
 10
28.1274221494
 20
8.0338627157
 30
0.0
 10
28.1373509114
 20
8.0378070865
 30
0.0
 10
28.146613091
 20
8.0433990655
 30
0.0
 10
28.1549057602
 20
8.0504561197
 30
0.0
 10
28.1619628357
 20
8.058748777
 30
0.0
 10
28.1675547995
 20
8.0680109566
 30
0.0
 10
28.1714992756
 20
8.0779397128
 30
0.0
 10
28.1729569962
 20
8.0848690354
 30
0.0
 10
28.1733668992
 20
8.0883327278
 30
0.0
  0
SPLINE
  5
286
100
AcDbEntity
  8
0
100
AcDbSpline
 62
9
  6
CONTINUOUS
 70
0
 71
3
 72
38
 73
34
 74
0
 42
0.0000001
 43
0.0000001
 44
0.0000000001
 40
0.0
 40
0.0
 40
0.0
 40
0.0
 40
0.0165357821
 40
0.0331891649
 40
0.0502328702
 40
0.0678575948
 40
0.0862140335
 40
0.1054280152
 40
0.1256071513
 40
0.1468493791
 40
0.1692371301
 40
0.1928311851
 40
0.2176768168
 40
0.2438059345
 40
0.2712390332
 40
0.2999818188
 40
0.3300321757
 40
0.3613833996
 40
0.4278998752
 40
0.4630040591
 40
0.499282268
 40
0.5366836021
 40
0.5751446942
 40
0.6145993456
 40
0.6549747518
 40
0.6961872273
 40
0.7381476663
 40
0.7807633767
 40
0.8239340346
 40
0.8675519303
 40
0.9115105021
 40
0.9557015494
 40
1.0
 40
1.0
 40
1.0
 40
1.0
 10
-5.0623076573
 20
8.6426695021
 30
0.0
 10
-5.0662711943
 20
8.6426711974
 30
0.0
 10
-5.0742344612
 20
8.6431408454
 30
0.0
 10
-5.0861120574
 20
8.6452678254
 30
0.0
 10
-5.09792024
 20
8.6488066042
 30
0.0
 10
-5.109655379
 20
8.6537461164
 30
0.0
 10
-5.1212958353
 20
8.6600759948
 30
0.0
 10
-5.1328127279
 20
8.6677874366
 30
0.0
 10
-5.1441756784
 20
8.6768746167
 30
0.0
 10
-5.1553638204
 20
8.6873228553
 30
0.0
 10
-5.1663597003
 20
8.6991169658
 30
0.0
 10
-5.1771427116
 20
8.7122427337
 30
0.0
 10
-5.187688929
 20
8.7266843943
 30
0.0
 10
-5.1979763076
 20
8.7424218847
 30
0.0
 10
-5.2079821547
 20
8.759432058
 30
0.0
 10
-5.217675937
 20
8.777692605
 30
0.0
 10
-5.2270225582
 20
8.7971799032
 30
0.0
 10
-5.2392476165
 20
8.8253043259
 30
0.0
 10
-5.2504384315
 20
8.8551767042
 30
0.0
 10
-5.2605979749
 20
8.8866335265
 30
0.0
 10
-5.2679012905
 20
8.9116684669
 30
0.0
 10
-5.2747440455
 20
8.9376655031
 30
0.0
 10
-5.2810677423
 20
8.9645766567
 30
0.0
 10
-5.2868420223
 20
8.9923390673
 30
0.0
 10
-5.2920955222
 20
9.020875132
 30
0.0
 10
-5.2968019649
 20
9.0501153241
 30
0.0
 10
-5.300884393
 20
9.0799913126
 30
0.0
 10
-5.3043556091
 20
9.1104163506
 30
0.0
 10
-5.3072535645
 20
9.1413003098
 30
0.0
 10
-5.3095195654
 20
9.1725601743
 30
0.0
 10
-5.3111152325
 20
9.2041061513
 30
0.0
 10
-5.3120850662
 20
9.2358403409
 30
0.0
 10
-5.3123084034
 20
9.2570514035
 30
0.0
 10
-5.3123076573
 20
9.2676695021
 30
0.0
  0
SPLINE
  5
287
100
AcDbEntity
  8
0
100
AcDbSpline
 62
9
  6
CONTINUOUS
 70
0
 71
3
 72
15
 73
11
 74
0
 42
0.0000001
 43
0.0000001
 44
0.0000000001
 40
0.0
 40
0.0
 40
0.0
 40
0.0
 40
0.1198963385
 40
0.2441050609
 40
0.3712856046
 40
0.500000005
 40
0.6287144066
 40
0.7558949523
 40
0.8801036733
 40
1.0
 40
1.0
 40
1.0
 40
1.0
 10
28.4083088032
 20
7.8429489427
 30
0.0
 10
28.407291205
 20
7.840496172
 30
0.0
 10
28.4049359384
 20
7.835616236
 30
0.0
 10
28.4006220276
 20
7.8286007152
 30
0.0
 10
28.3955384101
 20
7.8218744875
 30
0.0
 10
28.38978861
 20
7.8155732348
 30
0.0
 10
28.3834873561
 20
7.809823436
 30
0.0
 10
28.3767611277
 20
7.8047398193
 30
0.0
 10
28.3697456073
 20
7.8004259085
 30
0.0
 10
28.3648656723
 20
7.7980706406
 30
0.0
 10
28.3624129022
 20
7.7970530416
 30
0.0
  0
SPLINE
  5
288
100
AcDbEntity
  8
0
100
AcDbSpline
 62
9
  6
CONTINUOUS
 70
0
 71
3
 72
15
 73
11
 74
0
 42
0.0000001
 43
0.0000001
 44
0.0000000001
 40
0.0
 40
0.0
 40
0.0
 40
0.0
 40
0.1223054985
 40
0.2468213766
 40
0.3729786216
 40
0.5000002477
 40
0.6270218649
 40
0.7531790782
 40
0.8776949607
 40
1.0
 40
1.0
 40
1.0
 40
1.0
 10
25.7583560773
 20
10.5033435584
 30
0.0
 10
25.7548924631
 20
10.5029336358
 30
0.0
 10
25.7479633145
 20
10.5014754682
 30
0.0
 10
25.7380345831
 20
10.4975312036
 30
0.0
 10
25.7287724389
 20
10.4919391364
 30
0.0
 10
25.7204797532
 20
10.4848820867
 30
0.0
 10
25.713422698
 20
10.4765894099
 30
0.0
 10
25.7078306052
 20
10.4673272779
 30
0.0
 10
25.703886382
 20
10.4573985509
 30
0.0
 10
25.702428128
 20
10.4504694342
 30
0.0
 10
25.7020182049
 20
10.4470058333
 30
0.0
  0
SPLINE
  5
289
100
AcDbEntity
  8
0
100
AcDbSpline
 62
9
  6
CONTINUOUS
 70
0
 71
3
 72
15
 73
11
 74
0
 42
0.0000001
 43
0.0000001
 44
0.0000000001
 40
0.0
 40
0.0
 40
0.0
 40
0.0
 40
0.1198962898
 40
0.2441050052
 40
0.3712855684
 40
0.5000000001
 40
0.6287144318
 40
0.7558949948
 40
0.8801037102
 40
1.0
 40
1.0
 40
1.0
 40
1.0
 10
25.5129717833
 20
10.7382859626
 30
0.0
 10
25.5105190164
 20
10.7372683599
 30
0.0
 10
25.5056390873
 20
10.7349130852
 30
0.0
 10
25.4986235746
 20
10.7305991671
 30
0.0
 10
25.4918973514
 20
10.7255155457
 30
0.0
 10
25.4855960999
 20
10.719765745
 30
0.0
 10
25.4798462992
 20
10.7134644935
 30
0.0
 10
25.4747626777
 20
10.7067382704
 30
0.0
 10
25.4704487596
 20
10.6997227576
 30
0.0
 10
25.4680934849
 20
10.6948428285
 30
0.0
 10
25.4670758822
 20
10.6923900616
 30
0.0
  0
ENDSEC
  0
SECTION
  2
OBJECTS
  0
DICTIONARY
  5
C
100
AcDbDictionary
280
0
281
1
  3
ACAD_GROUP
350
D
  3
ACAD_MLINESTYLE
350
17
  3
ACAD_LAYOUT
350
1A
  3
ACAD_PLOTSETTINGS
350
19
  3
ACAD_PLOTSTYLENAME
350
E
  0
DICTIONARY
  5
D
102
{ACAD_REACTORS
330
C
102
}
100
AcDbDictionary
280
0
281
1
  0
ACDBDICTIONARYWDFLT
  5
E
102
{ACAD_REACTORS
330
C
102
}
100
AcDbDictionary
281
1
  3
Normal
350
F
100
AcDbDictionaryWithDefault
340
F
  0
DICTIONARY
  5
17
102
{ACAD_REACTORS
330
C
102
}
100
AcDbDictionary
280
0
281
1
  3
Standard
350
18
  0
DICTIONARY
  5
19
102
{ACAD_REACTORS
330
C
102
}
100
AcDbDictionary
281
1
  0
DICTIONARY
  5
1A
102
{ACAD_REACTORS
330
C
102
}
100
AcDbDictionary
281
1
  3
Model
350
28A
  3
Layout1
350
28B
  0
ACDBPLACEHOLDER
  5
F
102
{ACAD_REACTORS
330
E
102
}
  0
MLINESTYLE
  5
18
102
{ACAD_REACTORS
330
17
102
}
100
AcDbMlineStyle
  2
STANDARD
 70
0
  3

 62
256
 51
90.0
 52
90.0
 71
2
 49
0.5
 62
256
  6
BYLAYER
 49
-0.5
 62
256
  6
BYLAYER
  0
LAYOUT
  5
28A
102
{ACAD_REACTORS
330
1A
102
}
100
AcDbPlotSettings
  1

  2
none_device
  4
ANSI_C_(22.00_x_17.00_Inches)
  6

 40
0.0
 41
0.0
 42
0.0
 43
0.0
 44
558.8
 45
431.8
 46
0.0
 47
0.0
 48
0.0
 49
0.0
140
0.0
141
0.0
142
1.0
143
1.0
 70
1024
 72
0
 73
0
 74
0
  7

 75
0
147
1.0
148
0.0
149
0.0
100
AcDbLayout
  1
Model
 70
0
 71
0
 10
0.0
 20
0.0
 11
22.0
 21
17.0
 12
0.0
 22
0.0
 32
0.0
 14
0.0
 24
0.0
 34
0.0
 15
0.0
 25
0.0
 35
0.0
146
0.0
 13
0.0
 23
0.0
 33
0.0
 16
1.0
 26
0.0
 36
0.0
 17
0.0
 27
1.0
 37
0.0
 76
0
330
205
345
0
346
0
  0
LAYOUT
  5
28B
102
{ACAD_REACTORS
330
1A
102
}
100
AcDbPlotSettings
  1

  2
none_device
  4
ANSI_C_(22.00_x_17.00_Inches)
  6

 40
0.0
 41
0.0
 42
0.0
 43
0.0
 44
558.8
 45
431.8
 46
0.0
 47
0.0
 48
0.0
 49
0.0
140
0.0
141
0.0
142
1.0
143
1.0
 70
0
 72
0
 73
0
 74
0
  7

 75
0
147
1.0
148
0.0
149
0.0
100
AcDbLayout
  1
Layout1
 70
0
 71
1
 10
0.0
 20
0.0
 11
22.0
 21
17.0
 12
0.0
 22
0.0
 32
0.0
 14
0.0
 24
0.0
 34
0.0
 15
0.0
 25
0.0
 35
0.0
146
0.0
 13
0.0
 23
0.0
 33
0.0
 16
1.0
 26
0.0
 36
0.0
 17
0.0
 27
1.0
 37
0.0
 76
0
330
206
345
0
346
0
  0
ENDSEC
  0
EOF
