999
DXF file: E:\BT Custom\CADOUTPUT\_RIGHT.dxf
999
Pro/ENGINEER 2018400 by Parametric Technology Corporation
  0
SECTION
  2
HEADER
  9
$ACADVER
  1
AC1018
  9
$DWGCODEPAGE
  3
ANSI_1252
  9
$EXTMAX
 10
22.0
 20
17.0
 30
0.0
  9
$EXTMIN
 10
0.0
 20
0.0
 30
0.0
  9
$LIMMIN
 10
0.0
 20
0.0
  9
$LIMMAX
 10
22.0
 20
17.0
  9
$VIEWCTR
 10
11.0
 20
8.5
  9
$VIEWSIZE
 40
17.0
  9
$CLAYER
  8
0
  9
$LTSCALE
 40
1.21
  9
$CELTYPE
  6
BYLAYER
  9
$DIMSCALE
 40
1.0
  9
$DIMASZ
 40
0.1
  9
$DIMEXO
 40
0.0625
  9
$DIMDLI
 40
0.836
  9
$DIMEXE
 40
0.125
  9
$DIMCEN
 40
0.198
  9
$DIMLFAC
 40
1.0
  9
$DIMBLK
  1
_FILLED
  9
$DIMALT
 70
1
  9
$DIMALTD
 70
2
  9
$DIMALTTD
 70
2
  9
$DIMALTF
 40
25.4
  9
$DIMTXT
 40
0.08
  9
$DIMTOL
 70
1
  9
$DIMLIM
 70
0
  9
$DIMTFAC
 40
1.0
  9
$DIMTP
 40
0.001
  9
$DIMTM
 40
0.001
  9
$DIMGAP
 40
0.09
  9
$DIMDSEP
 70
46
  9
$AUNITS
 70
0
  9
$PDMODE
 70
3
  9
$PDSIZE
 40
0.06
  9
$HANDSEED
  5
22D
  9
$TILEMODE
 70
1
  9
$MEASUREMENT
 70
0
  9
$INSUNITS
 70
1
  0
ENDSEC
  0
SECTION
  2
CLASSES
  0
CLASS
  1
ACDBDICTIONARYWDFLT
  2
AcDbDictionaryWithDefault
  3
AutoCAD 2000
 90
0
 91
1
280
0
281
0
  0
CLASS
  1
ACDBPLACEHOLDER
  2
AcDbPlaceHolder
  3
AutoCAD 2000
 90
0
 91
1
280
0
281
0
  0
CLASS
  1
LAYOUT
  2
AcDbLayout
  3
AutoCAD 2000
 90
0
 91
0
280
0
281
0
  0
ENDSEC
  0
SECTION
  2
TABLES
  0
TABLE
  2
VPORT
  5
8
100
AcDbSymbolTable
 70
2
  0
VPORT
  5
1F4
100
AcDbSymbolTableRecord
100
AcDbViewportTableRecord
  2
*ACTIVE
 70
0
 10
0.0
 20
0.0
 11
1.0
 21
1.0
 12
11.0
 22
8.5
 13
0.0
 23
0.0
 14
1.0
 24
1.0
 15
0.0
 25
0.0
 16
0.0
 26
0.0
 36
1.0
 17
0.0
 27
0.0
 37
0.0
 40
17.0
 41
1.2941176471
 42
50.0
 43
0.0
 44
0.0
 50
0.0
 51
0.0
 71
0
 72
100
 73
1
 74
1
 75
0
 76
0
 77
0
 78
0
  0
ENDTAB
  0
TABLE
  2
LTYPE
  5
5
100
AcDbSymbolTable
 70
6
  0
LTYPE
  5
14
100
AcDbSymbolTableRecord
100
AcDbLinetypeTableRecord
  2
BYBLOCK
 70
0
  3

 72
65
 73
0
 40
0.0
  0
LTYPE
  5
15
100
AcDbSymbolTableRecord
100
AcDbLinetypeTableRecord
  2
BYLAYER
 70
0
  3

 72
65
 73
0
 40
0.0
  0
LTYPE
  5
16
100
AcDbSymbolTableRecord
100
AcDbLinetypeTableRecord
  2
CONTINUOUS
 70
64
  3
Solid line
 72
65
 73
0
 40
0.0
  0
LTYPE
  5
1F5
100
AcDbSymbolTableRecord
100
AcDbLinetypeTableRecord
  2
CENTER
 70
64
  3
____ _ ____ _ ____ _ ____ _ ____ _ ____ _ ____
 72
65
 73
4
 40
0.6
 49
0.375
 74
0
 49
-0.075
 74
0
 49
0.075
 74
0
 49
-0.075
 74
0
  0
LTYPE
  5
1F6
100
AcDbSymbolTableRecord
100
AcDbLinetypeTableRecord
  2
HIDDEN
 70
64
  3
- - - - - - - - - - - - - - - - - - - -
 72
65
 73
2
 40
0.2
 49
0.1
 74
0
 49
-0.1
 74
0
  0
LTYPE
  5
1F7
100
AcDbSymbolTableRecord
100
AcDbLinetypeTableRecord
  2
PHANTOM
 70
64
  3
_____ _ _ _____ _ _ _____ _ _ _____
 72
65
 73
6
 40
0.8
 49
0.45
 74
0
 49
-0.05
 74
0
 49
0.1
 74
0
 49
-0.05
 74
0
 49
0.1
 74
0
 49
-0.05
 74
0
  0
LTYPE
  5
1F8
100
AcDbSymbolTableRecord
100
AcDbLinetypeTableRecord
  2
DOT
 70
64
  3
. . . . . . . . . . . . . . . . . . . .
 72
65
 73
2
 40
0.2
 49
0.1
 74
0
 49
-0.1
 74
0
  0
LTYPE
  5
1F9
100
AcDbSymbolTableRecord
100
AcDbLinetypeTableRecord
  2
DASHED
 70
64
  3
- - - - - - - - - - - - - - - - - - - -
 72
65
 73
2
 40
0.2
 49
0.1
 74
0
 49
-0.1
 74
0
  0
ENDTAB
  0
TABLE
  2
LAYER
  5
2
100
AcDbSymbolTable
 70
36
  0
LAYER
  5
10
100
AcDbSymbolTableRecord
100
AcDbLayerTableRecord
  2
0
 70
0
 62
7
  6
CONTINUOUS
370
-3
390
F
  0
LAYER
  5
1FA
100
AcDbSymbolTableRecord
100
AcDbLayerTableRecord
  2
DEFAULT_1
 70
0
 62
7
  6
CENTER
370
-3
390
F
  0
LAYER
  5
1FB
100
AcDbSymbolTableRecord
100
AcDbLayerTableRecord
  2
DEFAULT_2
 70
0
 62
8
  6
HIDDEN
370
-3
390
F
  0
LAYER
  5
1FC
100
AcDbSymbolTableRecord
100
AcDbLayerTableRecord
  2
DEFAULT_3
 70
0
 62
7
  6
PHANTOM
370
-3
390
F
  0
LAYER
  5
1FD
100
AcDbSymbolTableRecord
100
AcDbLayerTableRecord
  2
ALL_FEATURES
 70
0
 62
7
  6
CONTINUOUS
370
-3
390
F
  0
LAYER
  5
1FE
100
AcDbSymbolTableRecord
100
AcDbLayerTableRecord
  2
AXES_FEATURES
 70
0
 62
7
  6
CONTINUOUS
370
-3
390
F
  0
LAYER
  5
1FF
100
AcDbSymbolTableRecord
100
AcDbLayerTableRecord
  2
DEFAULT_COORDINATE_SYSTEM
 70
0
 62
7
  6
CONTINUOUS
370
-3
390
F
  0
LAYER
  5
200
100
AcDbSymbolTableRecord
100
AcDbLayerTableRecord
  2
DEFAULT_DATUM_AXES
 70
0
 62
7
  6
CONTINUOUS
370
-3
390
F
  0
LAYER
  5
201
100
AcDbSymbolTableRecord
100
AcDbLayerTableRecord
  2
DEFAULT_DATUM_PLANES
 70
0
 62
7
  6
CONTINUOUS
370
-3
390
F
  0
LAYER
  5
202
100
AcDbSymbolTableRecord
100
AcDbLayerTableRecord
  2
DIMENSIONS
 70
0
 62
7
  6
CONTINUOUS
370
-3
390
F
  0
ENDTAB
  0
TABLE
  2
STYLE
  5
3
100
AcDbSymbolTable
 70
1
  0
STYLE
  5
11
100
AcDbSymbolTableRecord
100
AcDbTextStyleTableRecord
  2
STANDARD
 70
0
 40
0.0
 41
0.8
 50
0.0
 71
0
 42
0.2
  3
txt
  4

  0
STYLE
  5
203
100
AcDbSymbolTableRecord
100
AcDbTextStyleTableRecord
  2
TEXTSTYLE_1
 70
0
 40
0.0
 41
0.8
 50
0.0
 71
0
 42
0.2
  3
gdt
  4

  0
ENDTAB
  0
TABLE
  2
VIEW
  5
6
100
AcDbSymbolTable
 70
0
  0
ENDTAB
  0
TABLE
  2
UCS
  5
7
100
AcDbSymbolTable
 70
0
  0
ENDTAB
  0
TABLE
  2
APPID
  5
9
100
AcDbSymbolTable
 70
1
  0
APPID
  5
204
100
AcDbSymbolTableRecord
100
AcDbRegAppTableRecord
  2
ACAD
 70
0
  0
ENDTAB
  0
TABLE
  2
BLOCK_RECORD
  5
1
100
AcDbSymbolTable
 70
0
  0
BLOCK_RECORD
  5
205
100
AcDbSymbolTableRecord
100
AcDbBlockTableRecord
  2
*Model_Space
  0
BLOCK_RECORD
  5
206
100
AcDbSymbolTableRecord
100
AcDbBlockTableRecord
  2
*Paper_Space
  0
BLOCK_RECORD
  5
207
100
AcDbSymbolTableRecord
100
AcDbBlockTableRecord
  2
_FILLED
  0
ENDTAB
  0
TABLE
  2
DIMSTYLE
  5
A
100
AcDbSymbolTable
 70
1
100
AcDbDimStyleTable
 71
0
  0
DIMSTYLE
105
208
100
AcDbSymbolTableRecord
100
AcDbDimStyleTableRecord
  2
STANDARD
 70
0
  3

  4

 40
1.0
 41
0.1
 42
0.0625
 43
0.38
 44
0.125
 45
0.0
 46
0.0
 47
0.001
 48
0.001
140
0.08
141
0.09
142
0.0
143
25.4
144
1.0
145
0.0
146
1.0
147
0.09
 71
1.0
 72
0.0
 73
1
 74
1
 75
0
 76
0
 77
0
 78
4
 79
1
170
1
171
2
172
0
173
0
174
0
175
0
176
0
177
0
178
0
270
2
179
3
271
3
272
3
273
2
274
2
275
0
280
0
281
0
282
0
283
1
284
4
285
0
286
0
287
3
288
0
340
11
278
46
341
207
342
207
343
207
344
207
  0
ENDTAB
  0
ENDSEC
  0
SECTION
  2
BLOCKS
  0
BLOCK
  5
20
100
AcDbEntity
  8
0
100
AcDbBlockBegin
  2
*Model_Space
 70
0
 10
0.0
 20
0.0
 30
0.0
  3
*Model_Space
  1

  0
ENDBLK
  5
21
100
AcDbEntity
  8
0
100
AcDbBlockEnd
  0
BLOCK
  5
1C
100
AcDbEntity
  8
0
100
AcDbBlockBegin
  2
*Paper_Space
 70
0
 10
0.0
 20
0.0
 30
0.0
  3
*Paper_Space
  1

  0
ENDBLK
  5
1D
100
AcDbEntity
  8
0
100
AcDbBlockEnd
  0
BLOCK
  5
209
100
AcDbEntity
  8
0
100
AcDbBlockBegin
  2
_FILLED
 70
64
 10
0.0
 20
0.0
  3
_FILLED
  1

  0
SOLID
  5
20A
100
AcDbEntity
  8
0
  6
BYBLOCK
 62
0
100
AcDbTrace
 10
0.0
 20
0.0
 11
-1.0
 21
0.2
 12
-1.0
 22
-0.2
 13
-1.0
 23
-0.2
  0
ENDBLK
  5
20B
100
AcDbEntity
  8
0
  6
BYBLOCK
 62
0
100
AcDbBlockEnd
  0
ENDSEC
  0
SECTION
  2
ENTITIES
  0
LINE
  5
20C
100
AcDbEntity
  8
0
100
AcDbLine
 62
9
  6
CONTINUOUS
 10
11.5624834891
 20
7.8305551171
 11
11.6018427842
 21
7.8305550297
  0
LINE
  5
20D
100
AcDbEntity
  8
0
100
AcDbLine
 62
7
  6
CONTINUOUS
 10
11.5474834891
 20
8.134891804
 11
11.5624834891
 21
8.134891804
  0
LINE
  5
20E
100
AcDbEntity
  8
0
100
AcDbLine
 62
7
  6
CONTINUOUS
 10
9.9574931814
 20
8.384891804
 11
11.4874834891
 21
8.384891804
  0
LINE
  5
20F
100
AcDbEntity
  8
0
100
AcDbLine
 62
7
  6
CONTINUOUS
 10
9.9574834891
 20
9.634891804
 11
11.4874834891
 21
9.634891804
  0
LINE
  5
210
100
AcDbEntity
  8
0
100
AcDbLine
 62
7
  6
CONTINUOUS
 10
11.4874834891
 20
9.824891804
 11
11.4874834891
 21
8.194891804
  0
LINE
  5
211
100
AcDbEntity
  8
0
100
AcDbLine
 62
9
  6
CONTINUOUS
 10
11.5474834891
 20
8.134891804
 11
11.5474834891
 21
9.884891804
  0
LINE
  5
212
100
AcDbEntity
  8
0
100
AcDbLine
 62
7
  6
CONTINUOUS
 10
11.5624834891
 20
7.8305558557
 11
11.5624834891
 21
10.1892277524
  0
LINE
  5
213
100
AcDbEntity
  8
0
100
AcDbLine
 62
9
  6
CONTINUOUS
 10
11.6018427842
 20
7.8305550332
 11
11.601842375
 21
10.1892281321
  0
LINE
  5
214
100
AcDbEntity
  8
0
100
AcDbLine
 62
7
  6
CONTINUOUS
 10
11.5474834891
 20
9.884891804
 11
11.5624834891
 21
9.884891804
  0
LINE
  5
215
100
AcDbEntity
  8
0
100
AcDbLine
 62
9
  6
CONTINUOUS
 10
11.5624834891
 20
10.1892281895
 11
11.6018422137
 21
10.1892280695
  0
LINE
  5
216
100
AcDbEntity
  8
0
100
AcDbLine
 62
9
  6
CONTINUOUS
 10
12.0069695619
 20
7.5851712446
 11
12.0069695619
 21
10.4346123635
  0
LINE
  5
217
100
AcDbEntity
  8
0
100
AcDbLine
 62
7
  6
CONTINUOUS
 10
12.0874834891
 20
7.509891804
 11
12.0874834891
 21
10.509891804
  0
ARC
  5
218
100
AcDbEntity
  8
0
100
AcDbCircle
 62
7
  6
CONTINUOUS
 10
9.9574834891
 20
9.009891804
 40
0.625
100
AcDbArc
 50
90.0
 51
270.0
  0
ARC
  5
219
100
AcDbEntity
  8
0
100
AcDbCircle
 62
7
  6
CONTINUOUS
 10
11.137419148
 20
6.5066175698
 40
1.35
100
AcDbArc
 50
49.900914728
 51
69.8781683074
  0
ARC
  5
21A
100
AcDbEntity
  8
0
100
AcDbCircle
 62
7
  6
CONTINUOUS
 10
12.0874834891
 20
7.634891804
 40
0.125
100
AcDbArc
 50
229.900914728
 51
270.0
  0
ARC
  5
21B
100
AcDbEntity
  8
0
100
AcDbCircle
 62
7
  6
CONTINUOUS
 10
11.5474834891
 20
8.194891804
 40
0.06
100
AcDbArc
 50
180.0
 51
270.0
  0
ARC
  5
21C
100
AcDbEntity
  8
0
100
AcDbCircle
 62
7
  6
CONTINUOUS
 10
11.6224834891
 20
7.8305558557
 40
0.06
100
AcDbArc
 50
180.0
 51
249.8787378849
  0
ARC
  5
21D
100
AcDbEntity
  8
0
100
AcDbCircle
 62
7
  6
CONTINUOUS
 10
11.137419148
 20
11.5131660383
 40
1.35
100
AcDbArc
 50
290.1218147962
 51
310.099085272
  0
ARC
  5
21E
100
AcDbEntity
  8
0
100
AcDbCircle
 62
7
  6
CONTINUOUS
 10
12.0874834891
 20
10.384891804
 40
0.125
100
AcDbArc
 50
90.0
 51
130.099085272
  0
ARC
  5
21F
100
AcDbEntity
  8
0
100
AcDbCircle
 62
7
  6
CONTINUOUS
 10
11.5474834891
 20
9.824891804
 40
0.06
100
AcDbArc
 50
90.0
 51
180.0
  0
ARC
  5
220
100
AcDbEntity
  8
0
100
AcDbCircle
 62
7
  6
CONTINUOUS
 10
11.6224834891
 20
10.1892277524
 40
0.06
100
AcDbArc
 50
110.1218761161
 51
180.0
  0
SPLINE
  5
221
100
AcDbEntity
  8
0
100
AcDbSpline
 62
9
  6
CONTINUOUS
 70
0
 71
3
 72
17
 73
13
 74
0
 42
0.0000001
 43
0.0000001
 44
0.0000000001
 40
0.0
 40
0.0
 40
0.0
 40
0.0
 40
0.1596973824
 40
0.3104443902
 40
0.4507567907
 40
0.5798216412
 40
0.6975941586
 40
0.8050833479
 40
0.8557141183
 40
0.9047540808
 40
0.9526816738
 40
1.0
 40
1.0
 40
1.0
 40
1.0
 10
12.0069695618
 20
7.5851712446
 30
0.0
 10
12.0058145157
 20
7.5828269171
 30
0.0
 10
12.0037625947
 20
7.5781702399
 30
0.0
 10
12.0014492154
 20
7.5711526367
 30
0.0
 10
12.0000225994
 20
7.5644106583
 30
0.0
 10
11.9995134405
 20
7.5580745029
 30
0.0
 10
11.9999381854
 20
7.5522656744
 30
0.0
 10
12.0011020845
 20
7.5478668751
 30
0.0
 10
12.0025126689
 20
7.5447765504
 30
0.0
 10
12.0037731883
 20
7.5427087411
 30
0.0
 10
12.0052504406
 20
7.5408587964
 30
0.0
 10
12.0063772306
 20
7.5397741166
 30
0.0
 10
12.0069695619
 20
7.5392753435
 30
0.0
  0
SPLINE
  5
222
100
AcDbEntity
  8
0
100
AcDbSpline
 62
9
  6
CONTINUOUS
 70
0
 71
3
 72
20
 73
16
 74
0
 42
0.0000001
 43
0.0000001
 44
0.0000000001
 40
0.0
 40
0.0
 40
0.0
 40
0.0
 40
0.0300391301
 40
0.0620714521
 40
0.0976688185
 40
0.1379078245
 40
0.1834120656
 40
0.2344648991
 40
0.2911099121
 40
0.3532251834
 40
0.4205526828
 40
0.4927444718
 40
0.6499006419
 40
0.8205839768
 40
1.0
 40
1.0
 40
1.0
 40
1.0
 10
11.6018427795
 20
7.7742172563
 30
0.0
 10
11.6012839332
 20
7.774422007
 30
0.0
 10
11.6001853031
 20
7.7750149916
 30
0.0
 10
11.5987708982
 20
7.7763620943
 30
0.0
 10
11.5975731433
 20
7.7781485412
 30
0.0
 10
11.5965908147
 20
7.780352579
 30
0.0
 10
11.5958236027
 20
7.7829585752
 30
0.0
 10
11.5952747429
 20
7.7859484267
 30
0.0
 10
11.5949472062
 20
7.7893002478
 30
0.0
 10
11.5948439463
 20
7.7929882651
 30
0.0
 10
11.5949653095
 20
7.7969834382
 30
0.0
 10
11.595440595
 20
7.8028443258
 30
0.0
 10
11.596615238
 20
7.810692445
 30
0.0
 10
11.5988109031
 20
7.820506788
 30
0.0
 10
11.6007499002
 20
7.8271722923
 30
0.0
 10
11.6018425324
 20
7.8305550297
 30
0.0
  0
SPLINE
  5
223
100
AcDbEntity
  8
0
100
AcDbSpline
 62
9
  6
CONTINUOUS
 70
0
 71
3
 72
17
 73
13
 74
0
 42
0.0000001
 43
0.0000001
 44
0.0000000001
 40
0.0
 40
0.0
 40
0.0
 40
0.0
 40
0.1596972158
 40
0.3104440692
 40
0.4507563476
 40
0.5798211267
 40
0.6975936424
 40
0.8050829153
 40
0.8557137621
 40
0.9047538238
 40
0.9526815367
 40
1.0
 40
1.0
 40
1.0
 40
1.0
 10
12.0069695618
 20
10.4346123634
 30
0.0
 10
12.0058145108
 20
10.4369566868
 30
0.0
 10
12.003762581
 20
10.4416133568
 30
0.0
 10
12.0014491925
 20
10.4486309527
 30
0.0
 10
12.0000225714
 20
10.4553729273
 30
0.0
 10
11.9995134114
 20
10.4617090823
 30
0.0
 10
11.999938159
 20
10.4675179134
 30
0.0
 10
12.0011020633
 20
10.4719167161
 30
0.0
 10
12.002512653
 20
10.4750070446
 30
0.0
 10
12.0037731772
 20
10.4770748579
 30
0.0
 10
12.0052504349
 20
10.4789248069
 30
0.0
 10
12.0063772287
 20
10.4800094898
 30
0.0
 10
12.0069695619
 20
10.4805082646
 30
0.0
  0
SPLINE
  5
224
100
AcDbEntity
  8
0
100
AcDbSpline
 62
9
  6
CONTINUOUS
 70
0
 71
3
 72
20
 73
16
 74
0
 42
0.0000001
 43
0.0000001
 44
0.0000000001
 40
0.0
 40
0.0
 40
0.0
 40
0.0
 40
0.1794125258
 40
0.3500934459
 40
0.5072471819
 40
0.5794379766
 40
0.6467646044
 40
0.7088791166
 40
0.7655235429
 40
0.8165761566
 40
0.8620804322
 40
0.9023189073
 40
0.9379168838
 40
0.9699551339
 40
1.0
 40
1.0
 40
1.0
 40
1.0
 10
11.6018420685
 20
10.1892280695
 30
0.0
 10
11.6007493595
 20
10.1926107672
 30
0.0
 10
11.5988092413
 20
10.1992759407
 30
0.0
 10
11.5966139672
 20
10.2090903851
 30
0.0
 10
11.5954391004
 20
10.2169384665
 30
0.0
 10
11.5949638191
 20
10.2227993636
 30
0.0
 10
11.5948424547
 20
10.2267945461
 30
0.0
 10
11.5949457223
 20
10.2304825768
 30
0.0
 10
11.5952732748
 20
10.233834418
 30
0.0
 10
11.5958221831
 20
10.2368242948
 30
0.0
 10
11.5965894711
 20
10.2394302967
 30
0.0
 10
11.5975717963
 20
10.2416343736
 30
0.0
 10
11.598769658
 20
10.2434209509
 30
0.0
 10
11.60018443
 20
10.2447680713
 30
0.0
 10
11.601283283
 20
10.2453611495
 30
0.0
 10
11.6018422449
 20
10.2455659419
 30
0.0
  0
SPLINE
  5
225
100
AcDbEntity
  8
0
100
AcDbSpline
 62
9
  6
CONTINUOUS
 70
0
 71
3
 72
36
 73
32
 74
0
 42
0.0000001
 43
0.0000001
 44
0.0000000001
 40
0.0
 40
0.0
 40
0.0
 40
0.0
 40
0.0165341577
 40
0.0331870338
 40
0.0502338123
 40
0.0678615181
 40
0.1053935822
 40
0.1255713592
 40
0.1468156605
 40
0.1692066744
 40
0.1928023398
 40
0.2176482271
 40
0.2437786075
 40
0.2999415129
 40
0.3299942571
 40
0.3613486837
 40
0.3939846831
 40
0.4278743284
 40
0.4992533925
 40
0.5366553852
 40
0.5751185112
 40
0.6145753645
 40
0.654951685
 40
0.696165807
 40
0.7381285231
 40
0.7807459633
 40
0.8239183837
 40
0.8675391921
 40
0.9115010991
 40
0.955696728
 40
1.0
 40
1.0
 40
1.0
 40
1.0
 10
9.9574834891
 20
9.634891804
 30
0.0
 10
9.9535205425
 20
9.634890109
 30
0.0
 10
9.9455581329
 20
9.634420728
 30
0.0
 10
9.9336811495
 20
9.6322934169
 30
0.0
 10
9.9218716995
 20
9.6287541874
 30
0.0
 10
9.9058948841
 20
9.6220313003
 30
0.0
 10
9.8904036165
 20
9.6125159656
 30
0.0
 10
9.875618884
 20
9.6006865133
 30
0.0
 10
9.8644279657
 20
9.5902380545
 30
0.0
 10
9.8534296205
 20
9.5784458483
 30
0.0
 10
9.8426459968
 20
9.5653198717
 30
0.0
 10
9.8321009203
 20
9.5508773601
 30
0.0
 10
9.8180448495
 20
9.5293755856
 30
0.0
 10
9.8049632891
 20
9.5057916413
 30
0.0
 10
9.7927683431
 20
9.4803834853
 30
0.0
 10
9.7837725294
 20
9.459709926
 30
0.0
 10
9.7751593148
 20
9.4378834885
 30
0.0
 10
9.7640286097
 20
9.4067556571
 30
0.0
 10
9.7540211816
 20
9.374033263
 30
0.0
 10
9.7450524469
 20
9.3398975319
 30
0.0
 10
9.7387246676
 20
9.3129874385
 30
0.0
 10
9.732936456
 20
9.2852281491
 30
0.0
 10
9.7276921226
 20
9.2566905142
 30
0.0
 10
9.7230021029
 20
9.2274481718
 30
0.0
 10
9.718906289
 20
9.1975743892
 30
0.0
 10
9.7154189669
 20
9.1671511923
 30
0.0
 10
9.7125380314
 20
9.1362655255
 30
0.0
 10
9.7102843623
 20
9.105004633
 30
0.0
 10
9.7086735391
 20
9.0734584977
 30
0.0
 10
9.7077017447
 20
9.0417227783
 30
0.0
 10
9.7074835673
 20
9.0205105198
 30
0.0
 10
9.7074834891
 20
9.009891804
 30
0.0
  0
SPLINE
  5
226
100
AcDbEntity
  8
0
100
AcDbSpline
 62
9
  6
CONTINUOUS
 70
0
 71
3
 72
37
 73
33
 74
0
 42
0.0000001
 43
0.0000001
 44
0.0000000001
 40
0.0
 40
0.0
 40
0.0
 40
0.0
 40
0.0443026784
 40
0.0884977082
 40
0.1324590213
 40
0.176079241
 40
0.2192510736
 40
0.2618679366
 40
0.3038300819
 40
0.3450436512
 40
0.3854194211
 40
0.4248757321
 40
0.4633384037
 40
0.5007399172
 40
0.5721178883
 40
0.6060072507
 40
0.6386427268
 40
0.6699965639
 40
0.7000490802
 40
0.728791895
 40
0.7562245961
 40
0.7823544265
 40
0.8072002059
 40
0.8307958775
 40
0.853186682
 40
0.8744303664
 40
0.8946074289
 40
0.9321395632
 40
0.9497674556
 40
0.9668145711
 40
0.983467918
 40
1.0
 40
1.0
 40
1.0
 40
1.0
 10
9.7074834891
 20
9.009891804
 30
0.0
 10
9.7074835555
 20
8.9992730878
 30
0.0
 10
9.7077015982
 20
8.9780608292
 30
0.0
 10
9.7086733677
 20
8.9463251076
 30
0.0
 10
9.7102844871
 20
8.9147789898
 30
0.0
 10
9.7125381711
 20
8.8835181037
 30
0.0
 10
9.7154189092
 20
8.8526324226
 30
0.0
 10
9.7189060401
 20
8.8222092071
 30
0.0
 10
9.7230019635
 20
8.7923354385
 30
0.0
 10
9.7276922786
 20
8.7630931494
 30
0.0
 10
9.7329361385
 20
8.7345554376
 30
0.0
 10
9.7387240494
 20
8.7067960638
 30
0.0
 10
9.7450531113
 20
8.6798862463
 30
0.0
 10
9.754021946
 20
8.6457505921
 30
0.0
 10
9.7640276052
 20
8.613027556
 30
0.0
 10
9.7751601608
 20
8.5819004685
 30
0.0
 10
9.7837728416
 20
8.5600736464
 30
0.0
 10
9.7927675787
 20
8.5394004119
 30
0.0
 10
9.8021199704
 20
8.5199158696
 30
0.0
 10
9.8118093041
 20
8.5016533678
 30
0.0
 10
9.8218131764
 20
8.4846427245
 30
0.0
 10
9.8321004651
 20
8.4689058682
 30
0.0
 10
9.8426457951
 20
8.4544637191
 30
0.0
 10
9.8534299056
 20
8.4413378731
 30
0.0
 10
9.8644283247
 20
8.4295457406
 30
0.0
 10
9.875618888
 20
8.4190971522
 30
0.0
 10
9.8904032435
 20
8.4072672834
 30
0.0
 10
9.9058949114
 20
8.3977522695
 30
0.0
 10
9.9218721549
 20
8.3910294616
 30
0.0
 10
9.9336820287
 20
8.3874902381
 30
0.0
 10
9.9455588554
 20
8.3853629276
 30
0.0
 10
9.9535209867
 20
8.3848934088
 30
0.0
 10
9.9574834891
 20
8.384891804
 30
0.0
  0
SPLINE
  5
227
100
AcDbEntity
  8
0
100
AcDbSpline
 62
9
  6
CONTINUOUS
 70
0
 71
3
 72
12
 73
8
 74
0
 42
0.0000001
 43
0.0000001
 44
0.0000000001
 40
0.0
 40
0.0
 40
0.0
 40
0.0
 40
0.2394075412
 40
0.4856637108
 40
0.7391481929
 40
0.8686760967
 40
1.0
 40
1.0
 40
1.0
 40
1.0
 10
12.0069695619
 20
10.4346123635
 30
0.0
 10
11.97844336
 20
10.4095246015
 30
0.0
 10
11.918420261
 20
10.3610208004
 30
0.0
 10
11.8211171961
 20
10.2952895983
 30
0.0
 10
11.7336044087
 20
10.246893481
 30
0.0
 10
11.6596171029
 20
10.2123912345
 30
0.0
 10
11.6213042457
 20
10.1966756914
 30
0.0
 10
11.601842375
 20
10.1892281321
 30
0.0
  0
SPLINE
  5
228
100
AcDbEntity
  8
0
100
AcDbSpline
 62
9
  6
CONTINUOUS
 70
0
 71
3
 72
11
 73
7
 74
0
 42
0.0000001
 43
0.0000001
 44
0.0000000001
 40
0.0
 40
0.0
 40
0.0
 40
0.0
 40
0.2607983107
 40
0.5143011809
 40
0.7605750956
 40
1.0
 40
1.0
 40
1.0
 40
1.0
 10
11.6018427842
 20
7.8305550332
 30
0.0
 10
11.6404899287
 20
7.8157667548
 30
0.0
 10
11.7153708343
 20
7.782976967
 30
0.0
 10
11.8211122759
 20
7.7244955426
 30
0.0
 10
11.9184217296
 20
7.6587622418
 30
0.0
 10
11.9784435256
 20
7.6102591425
 30
0.0
 10
12.0069695619
 20
7.5851712446
 30
0.0
  0
SPLINE
  5
229
100
AcDbEntity
  8
0
100
AcDbSpline
 62
9
  6
CONTINUOUS
 70
0
 71
3
 72
14
 73
10
 74
0
 42
0.0000001
 43
0.0000001
 44
0.0000000001
 40
0.0
 40
0.0
 40
0.0
 40
0.0
 40
0.1098366691
 40
0.2251816721
 40
0.3455924371
 40
0.4705490379
 40
0.5993557165
 40
0.7311777346
 40
1.0
 40
1.0
 40
1.0
 40
1.0
 10
12.0069695619
 20
7.5851712446
 30
0.0
 10
12.0097371026
 20
7.5839617272
 30
0.0
 10
12.0154897218
 20
7.5816587517
 30
0.0
 10
12.0245088699
 20
7.5786491596
 30
0.0
 10
12.0340815183
 20
7.5760330355
 30
0.0
 10
12.0441376091
 20
7.5738355102
 30
0.0
 10
12.0546012059
 20
7.5720942324
 30
0.0
 10
12.069064763
 20
7.5703980676
 30
0.0
 10
12.0800913862
 20
7.5698929289
 30
0.0
 10
12.0874834891
 20
7.569892741
 30
0.0
  0
SPLINE
  5
22A
100
AcDbEntity
  8
0
100
AcDbSpline
 62
9
  6
CONTINUOUS
 70
0
 71
3
 72
14
 73
10
 74
0
 42
0.0000001
 43
0.0000001
 44
0.0000000001
 40
0.0
 40
0.0
 40
0.0
 40
0.0
 40
0.2688223543
 40
0.4006446231
 40
0.5294511427
 40
0.6544077618
 40
0.774818813
 40
0.89016423
 40
1.0
 40
1.0
 40
1.0
 40
1.0
 10
12.0874834891
 20
10.449891382
 30
0.0
 10
12.0800913845
 20
10.4498912202
 30
0.0
 10
12.0690647529
 20
10.4493855696
 30
0.0
 10
12.0546012729
 20
10.4476889313
 30
0.0
 10
12.0441375348
 20
10.4459484929
 30
0.0
 10
12.0340814646
 20
10.4437507961
 30
0.0
 10
12.0245088604
 20
10.4411344371
 30
0.0
 10
12.0154899089
 20
10.4381242377
 30
0.0
 10
12.0097373534
 20
10.4358212443
 30
0.0
 10
12.0069695619
 20
10.4346123635
 30
0.0
  0
ENDSEC
  0
SECTION
  2
OBJECTS
  0
DICTIONARY
  5
C
100
AcDbDictionary
280
0
281
1
  3
ACAD_GROUP
350
D
  3
ACAD_MLINESTYLE
350
17
  3
ACAD_LAYOUT
350
1A
  3
ACAD_PLOTSETTINGS
350
19
  3
ACAD_PLOTSTYLENAME
350
E
  0
DICTIONARY
  5
D
102
{ACAD_REACTORS
330
C
102
}
100
AcDbDictionary
280
0
281
1
  0
ACDBDICTIONARYWDFLT
  5
E
102
{ACAD_REACTORS
330
C
102
}
100
AcDbDictionary
281
1
  3
Normal
350
F
100
AcDbDictionaryWithDefault
340
F
  0
DICTIONARY
  5
17
102
{ACAD_REACTORS
330
C
102
}
100
AcDbDictionary
280
0
281
1
  3
Standard
350
18
  0
DICTIONARY
  5
19
102
{ACAD_REACTORS
330
C
102
}
100
AcDbDictionary
281
1
  0
DICTIONARY
  5
1A
102
{ACAD_REACTORS
330
C
102
}
100
AcDbDictionary
281
1
  3
Model
350
22B
  3
Layout1
350
22C
  0
ACDBPLACEHOLDER
  5
F
102
{ACAD_REACTORS
330
E
102
}
  0
MLINESTYLE
  5
18
102
{ACAD_REACTORS
330
17
102
}
100
AcDbMlineStyle
  2
STANDARD
 70
0
  3

 62
256
 51
90.0
 52
90.0
 71
2
 49
0.5
 62
256
  6
BYLAYER
 49
-0.5
 62
256
  6
BYLAYER
  0
LAYOUT
  5
22B
102
{ACAD_REACTORS
330
1A
102
}
100
AcDbPlotSettings
  1

  2
none_device
  4
ANSI_C_(22.00_x_17.00_Inches)
  6

 40
0.0
 41
0.0
 42
0.0
 43
0.0
 44
558.8
 45
431.8
 46
0.0
 47
0.0
 48
0.0
 49
0.0
140
0.0
141
0.0
142
1.0
143
1.0
 70
1024
 72
0
 73
0
 74
0
  7

 75
0
147
1.0
148
0.0
149
0.0
100
AcDbLayout
  1
Model
 70
0
 71
0
 10
0.0
 20
0.0
 11
22.0
 21
17.0
 12
0.0
 22
0.0
 32
0.0
 14
0.0
 24
0.0
 34
0.0
 15
0.0
 25
0.0
 35
0.0
146
0.0
 13
0.0
 23
0.0
 33
0.0
 16
1.0
 26
0.0
 36
0.0
 17
0.0
 27
1.0
 37
0.0
 76
0
330
205
345
0
346
0
  0
LAYOUT
  5
22C
102
{ACAD_REACTORS
330
1A
102
}
100
AcDbPlotSettings
  1

  2
none_device
  4
ANSI_C_(22.00_x_17.00_Inches)
  6

 40
0.0
 41
0.0
 42
0.0
 43
0.0
 44
558.8
 45
431.8
 46
0.0
 47
0.0
 48
0.0
 49
0.0
140
0.0
141
0.0
142
1.0
143
1.0
 70
0
 72
0
 73
0
 74
0
  7

 75
0
147
1.0
148
0.0
149
0.0
100
AcDbLayout
  1
Layout1
 70
0
 71
1
 10
0.0
 20
0.0
 11
22.0
 21
17.0
 12
0.0
 22
0.0
 32
0.0
 14
0.0
 24
0.0
 34
0.0
 15
0.0
 25
0.0
 35
0.0
146
0.0
 13
0.0
 23
0.0
 33
0.0
 16
1.0
 26
0.0
 36
0.0
 17
0.0
 27
1.0
 37
0.0
 76
0
330
206
345
0
346
0
  0
ENDSEC
  0
EOF
