999
DXF file: E:\BT Custom\CADOUTPUT\_RIGHT.dxf
999
Pro/ENGINEER 2018400 by Parametric Technology Corporation
  0
SECTION
  2
HEADER
  9
$ACADVER
  1
AC1018
  9
$DWGCODEPAGE
  3
ANSI_1252
  9
$EXTMAX
 10
22.0
 20
17.0
 30
0.0
  9
$EXTMIN
 10
0.0
 20
0.0
 30
0.0
  9
$LIMMIN
 10
0.0
 20
0.0
  9
$LIMMAX
 10
22.0
 20
17.0
  9
$VIEWCTR
 10
11.0
 20
8.5
  9
$VIEWSIZE
 40
17.0
  9
$CLAYER
  8
0
  9
$LTSCALE
 40
1.21
  9
$CELTYPE
  6
BYLAYER
  9
$DIMSCALE
 40
1.0
  9
$DIMASZ
 40
0.1
  9
$DIMEXO
 40
0.0625
  9
$DIMDLI
 40
0.836
  9
$DIMEXE
 40
0.125
  9
$DIMCEN
 40
0.198
  9
$DIMLFAC
 40
1.0
  9
$DIMBLK
  1
_FILLED
  9
$DIMALT
 70
1
  9
$DIMALTD
 70
2
  9
$DIMALTTD
 70
2
  9
$DIMALTF
 40
25.4
  9
$DIMTXT
 40
0.08
  9
$DIMTOL
 70
1
  9
$DIMLIM
 70
0
  9
$DIMTFAC
 40
1.0
  9
$DIMTP
 40
0.001
  9
$DIMTM
 40
0.001
  9
$DIMGAP
 40
0.09
  9
$DIMDSEP
 70
46
  9
$AUNITS
 70
0
  9
$PDMODE
 70
3
  9
$PDSIZE
 40
0.06
  9
$HANDSEED
  5
22D
  9
$TILEMODE
 70
1
  9
$MEASUREMENT
 70
0
  9
$INSUNITS
 70
1
  0
ENDSEC
  0
SECTION
  2
CLASSES
  0
CLASS
  1
ACDBDICTIONARYWDFLT
  2
AcDbDictionaryWithDefault
  3
AutoCAD 2000
 90
0
 91
1
280
0
281
0
  0
CLASS
  1
ACDBPLACEHOLDER
  2
AcDbPlaceHolder
  3
AutoCAD 2000
 90
0
 91
1
280
0
281
0
  0
CLASS
  1
LAYOUT
  2
AcDbLayout
  3
AutoCAD 2000
 90
0
 91
0
280
0
281
0
  0
ENDSEC
  0
SECTION
  2
TABLES
  0
TABLE
  2
VPORT
  5
8
100
AcDbSymbolTable
 70
2
  0
VPORT
  5
1F4
100
AcDbSymbolTableRecord
100
AcDbViewportTableRecord
  2
*ACTIVE
 70
0
 10
0.0
 20
0.0
 11
1.0
 21
1.0
 12
11.0
 22
8.5
 13
0.0
 23
0.0
 14
1.0
 24
1.0
 15
0.0
 25
0.0
 16
0.0
 26
0.0
 36
1.0
 17
0.0
 27
0.0
 37
0.0
 40
17.0
 41
1.2941176471
 42
50.0
 43
0.0
 44
0.0
 50
0.0
 51
0.0
 71
0
 72
100
 73
1
 74
1
 75
0
 76
0
 77
0
 78
0
  0
ENDTAB
  0
TABLE
  2
LTYPE
  5
5
100
AcDbSymbolTable
 70
6
  0
LTYPE
  5
14
100
AcDbSymbolTableRecord
100
AcDbLinetypeTableRecord
  2
BYBLOCK
 70
0
  3

 72
65
 73
0
 40
0.0
  0
LTYPE
  5
15
100
AcDbSymbolTableRecord
100
AcDbLinetypeTableRecord
  2
BYLAYER
 70
0
  3

 72
65
 73
0
 40
0.0
  0
LTYPE
  5
16
100
AcDbSymbolTableRecord
100
AcDbLinetypeTableRecord
  2
CONTINUOUS
 70
64
  3
Solid line
 72
65
 73
0
 40
0.0
  0
LTYPE
  5
1F5
100
AcDbSymbolTableRecord
100
AcDbLinetypeTableRecord
  2
CENTER
 70
64
  3
____ _ ____ _ ____ _ ____ _ ____ _ ____ _ ____
 72
65
 73
4
 40
0.6
 49
0.375
 74
0
 49
-0.075
 74
0
 49
0.075
 74
0
 49
-0.075
 74
0
  0
LTYPE
  5
1F6
100
AcDbSymbolTableRecord
100
AcDbLinetypeTableRecord
  2
HIDDEN
 70
64
  3
- - - - - - - - - - - - - - - - - - - -
 72
65
 73
2
 40
0.2
 49
0.1
 74
0
 49
-0.1
 74
0
  0
LTYPE
  5
1F7
100
AcDbSymbolTableRecord
100
AcDbLinetypeTableRecord
  2
PHANTOM
 70
64
  3
_____ _ _ _____ _ _ _____ _ _ _____
 72
65
 73
6
 40
0.8
 49
0.45
 74
0
 49
-0.05
 74
0
 49
0.1
 74
0
 49
-0.05
 74
0
 49
0.1
 74
0
 49
-0.05
 74
0
  0
LTYPE
  5
1F8
100
AcDbSymbolTableRecord
100
AcDbLinetypeTableRecord
  2
DOT
 70
64
  3
. . . . . . . . . . . . . . . . . . . .
 72
65
 73
2
 40
0.2
 49
0.1
 74
0
 49
-0.1
 74
0
  0
LTYPE
  5
1F9
100
AcDbSymbolTableRecord
100
AcDbLinetypeTableRecord
  2
DASHED
 70
64
  3
- - - - - - - - - - - - - - - - - - - -
 72
65
 73
2
 40
0.2
 49
0.1
 74
0
 49
-0.1
 74
0
  0
ENDTAB
  0
TABLE
  2
LAYER
  5
2
100
AcDbSymbolTable
 70
36
  0
LAYER
  5
10
100
AcDbSymbolTableRecord
100
AcDbLayerTableRecord
  2
0
 70
0
 62
7
  6
CONTINUOUS
370
-3
390
F
  0
LAYER
  5
1FA
100
AcDbSymbolTableRecord
100
AcDbLayerTableRecord
  2
DEFAULT_1
 70
0
 62
7
  6
CENTER
370
-3
390
F
  0
LAYER
  5
1FB
100
AcDbSymbolTableRecord
100
AcDbLayerTableRecord
  2
DEFAULT_2
 70
0
 62
8
  6
HIDDEN
370
-3
390
F
  0
LAYER
  5
1FC
100
AcDbSymbolTableRecord
100
AcDbLayerTableRecord
  2
DEFAULT_3
 70
0
 62
7
  6
PHANTOM
370
-3
390
F
  0
LAYER
  5
1FD
100
AcDbSymbolTableRecord
100
AcDbLayerTableRecord
  2
ALL_FEATURES
 70
0
 62
7
  6
CONTINUOUS
370
-3
390
F
  0
LAYER
  5
1FE
100
AcDbSymbolTableRecord
100
AcDbLayerTableRecord
  2
AXES_FEATURES
 70
0
 62
7
  6
CONTINUOUS
370
-3
390
F
  0
LAYER
  5
1FF
100
AcDbSymbolTableRecord
100
AcDbLayerTableRecord
  2
DEFAULT_COORDINATE_SYSTEM
 70
0
 62
7
  6
CONTINUOUS
370
-3
390
F
  0
LAYER
  5
200
100
AcDbSymbolTableRecord
100
AcDbLayerTableRecord
  2
DEFAULT_DATUM_AXES
 70
0
 62
7
  6
CONTINUOUS
370
-3
390
F
  0
LAYER
  5
201
100
AcDbSymbolTableRecord
100
AcDbLayerTableRecord
  2
DEFAULT_DATUM_PLANES
 70
0
 62
7
  6
CONTINUOUS
370
-3
390
F
  0
LAYER
  5
202
100
AcDbSymbolTableRecord
100
AcDbLayerTableRecord
  2
DIMENSIONS
 70
0
 62
7
  6
CONTINUOUS
370
-3
390
F
  0
ENDTAB
  0
TABLE
  2
STYLE
  5
3
100
AcDbSymbolTable
 70
1
  0
STYLE
  5
11
100
AcDbSymbolTableRecord
100
AcDbTextStyleTableRecord
  2
STANDARD
 70
0
 40
0.0
 41
0.8
 50
0.0
 71
0
 42
0.2
  3
txt
  4

  0
STYLE
  5
203
100
AcDbSymbolTableRecord
100
AcDbTextStyleTableRecord
  2
TEXTSTYLE_1
 70
0
 40
0.0
 41
0.8
 50
0.0
 71
0
 42
0.2
  3
gdt
  4

  0
ENDTAB
  0
TABLE
  2
VIEW
  5
6
100
AcDbSymbolTable
 70
0
  0
ENDTAB
  0
TABLE
  2
UCS
  5
7
100
AcDbSymbolTable
 70
0
  0
ENDTAB
  0
TABLE
  2
APPID
  5
9
100
AcDbSymbolTable
 70
1
  0
APPID
  5
204
100
AcDbSymbolTableRecord
100
AcDbRegAppTableRecord
  2
ACAD
 70
0
  0
ENDTAB
  0
TABLE
  2
BLOCK_RECORD
  5
1
100
AcDbSymbolTable
 70
0
  0
BLOCK_RECORD
  5
205
100
AcDbSymbolTableRecord
100
AcDbBlockTableRecord
  2
*Model_Space
  0
BLOCK_RECORD
  5
206
100
AcDbSymbolTableRecord
100
AcDbBlockTableRecord
  2
*Paper_Space
  0
BLOCK_RECORD
  5
207
100
AcDbSymbolTableRecord
100
AcDbBlockTableRecord
  2
_FILLED
  0
ENDTAB
  0
TABLE
  2
DIMSTYLE
  5
A
100
AcDbSymbolTable
 70
1
100
AcDbDimStyleTable
 71
0
  0
DIMSTYLE
105
208
100
AcDbSymbolTableRecord
100
AcDbDimStyleTableRecord
  2
STANDARD
 70
0
  3

  4

 40
1.0
 41
0.1
 42
0.0625
 43
0.38
 44
0.125
 45
0.0
 46
0.0
 47
0.001
 48
0.001
140
0.08
141
0.09
142
0.0
143
25.4
144
1.0
145
0.0
146
1.0
147
0.09
 71
1.0
 72
0.0
 73
1
 74
1
 75
0
 76
0
 77
0
 78
4
 79
1
170
1
171
2
172
0
173
0
174
0
175
0
176
0
177
0
178
0
270
2
179
3
271
3
272
3
273
2
274
2
275
0
280
0
281
0
282
0
283
1
284
4
285
0
286
0
287
3
288
0
340
11
278
46
341
207
342
207
343
207
344
207
  0
ENDTAB
  0
ENDSEC
  0
SECTION
  2
BLOCKS
  0
BLOCK
  5
20
100
AcDbEntity
  8
0
100
AcDbBlockBegin
  2
*Model_Space
 70
0
 10
0.0
 20
0.0
 30
0.0
  3
*Model_Space
  1

  0
ENDBLK
  5
21
100
AcDbEntity
  8
0
100
AcDbBlockEnd
  0
BLOCK
  5
1C
100
AcDbEntity
  8
0
100
AcDbBlockBegin
  2
*Paper_Space
 70
0
 10
0.0
 20
0.0
 30
0.0
  3
*Paper_Space
  1

  0
ENDBLK
  5
1D
100
AcDbEntity
  8
0
100
AcDbBlockEnd
  0
BLOCK
  5
209
100
AcDbEntity
  8
0
100
AcDbBlockBegin
  2
_FILLED
 70
64
 10
0.0
 20
0.0
  3
_FILLED
  1

  0
SOLID
  5
20A
100
AcDbEntity
  8
0
  6
BYBLOCK
 62
0
100
AcDbTrace
 10
0.0
 20
0.0
 11
-1.0
 21
0.2
 12
-1.0
 22
-0.2
 13
-1.0
 23
-0.2
  0
ENDBLK
  5
20B
100
AcDbEntity
  8
0
  6
BYBLOCK
 62
0
100
AcDbBlockEnd
  0
ENDSEC
  0
SECTION
  2
ENTITIES
  0
LINE
  5
20C
100
AcDbEntity
  8
0
100
AcDbLine
 62
9
  6
CONTINUOUS
 10
11.5624834891
 20
7.8305551171
 11
11.6018427842
 21
7.8305550297
  0
LINE
  5
20D
100
AcDbEntity
  8
0
100
AcDbLine
 62
7
  6
CONTINUOUS
 10
11.5474834891
 20
8.134891804
 11
11.5624834891
 21
8.134891804
  0
LINE
  5
20E
100
AcDbEntity
  8
0
100
AcDbLine
 62
7
  6
CONTINUOUS
 10
9.9574931814
 20
8.384891804
 11
11.4874834891
 21
8.384891804
  0
LINE
  5
20F
100
AcDbEntity
  8
0
100
AcDbLine
 62
7
  6
CONTINUOUS
 10
9.9574834891
 20
9.634891804
 11
11.4874834891
 21
9.634891804
  0
LINE
  5
210
100
AcDbEntity
  8
0
100
AcDbLine
 62
7
  6
CONTINUOUS
 10
11.4874834891
 20
8.194891804
 11
11.4874834891
 21
9.824891804
  0
LINE
  5
211
100
AcDbEntity
  8
0
100
AcDbLine
 62
9
  6
CONTINUOUS
 10
11.5474834891
 20
8.134891804
 11
11.5474834891
 21
9.884891804
  0
LINE
  5
212
100
AcDbEntity
  8
0
100
AcDbLine
 62
7
  6
CONTINUOUS
 10
11.5624834891
 20
7.8305558557
 11
11.5624834891
 21
10.1892277524
  0
LINE
  5
213
100
AcDbEntity
  8
0
100
AcDbLine
 62
9
  6
CONTINUOUS
 10
11.6018427842
 20
7.8305550332
 11
11.601842375
 21
10.1892281321
  0
LINE
  5
214
100
AcDbEntity
  8
0
100
AcDbLine
 62
7
  6
CONTINUOUS
 10
11.5474834891
 20
9.884891804
 11
11.5624834891
 21
9.884891804
  0
LINE
  5
215
100
AcDbEntity
  8
0
100
AcDbLine
 62
9
  6
CONTINUOUS
 10
11.5624834891
 20
10.1892281895
 11
11.6018422137
 21
10.1892280695
  0
LINE
  5
216
100
AcDbEntity
  8
0
100
AcDbLine
 62
9
  6
CONTINUOUS
 10
12.0069695619
 20
7.5851712446
 11
12.0069695619
 21
10.4346123635
  0
LINE
  5
217
100
AcDbEntity
  8
0
100
AcDbLine
 62
7
  6
CONTINUOUS
 10
12.0874834891
 20
7.509891804
 11
12.0874834891
 21
10.509891804
  0
ARC
  5
218
100
AcDbEntity
  8
0
100
AcDbCircle
 62
7
  6
CONTINUOUS
 10
9.9574834891
 20
9.009891804
 40
0.625
100
AcDbArc
 50
90.0
 51
270.0
  0
ARC
  5
219
100
AcDbEntity
  8
0
100
AcDbCircle
 62
7
  6
CONTINUOUS
 10
11.137419148
 20
6.5066175698
 40
1.35
100
AcDbArc
 50
49.900914728
 51
69.8781683074
  0
ARC
  5
21A
100
AcDbEntity
  8
0
100
AcDbCircle
 62
7
  6
CONTINUOUS
 10
11.5474834891
 20
8.194891804
 40
0.06
100
AcDbArc
 50
180.0
 51
270.0
  0
ARC
  5
21B
100
AcDbEntity
  8
0
100
AcDbCircle
 62
7
  6
CONTINUOUS
 10
11.6224834891
 20
7.8305558557
 40
0.06
100
AcDbArc
 50
180.0
 51
249.8787378849
  0
ARC
  5
21C
100
AcDbEntity
  8
0
100
AcDbCircle
 62
7
  6
CONTINUOUS
 10
12.0874834891
 20
7.634891804
 40
0.125
100
AcDbArc
 50
229.900914728
 51
270.0
  0
ARC
  5
21D
100
AcDbEntity
  8
0
100
AcDbCircle
 62
7
  6
CONTINUOUS
 10
11.5474834891
 20
9.824891804
 40
0.06
100
AcDbArc
 50
90.0
 51
180.0
  0
ARC
  5
21E
100
AcDbEntity
  8
0
100
AcDbCircle
 62
7
  6
CONTINUOUS
 10
11.137419148
 20
11.5131660383
 40
1.35
100
AcDbArc
 50
290.1218147962
 51
310.099085272
  0
ARC
  5
21F
100
AcDbEntity
  8
0
100
AcDbCircle
 62
7
  6
CONTINUOUS
 10
12.0874834891
 20
10.384891804
 40
0.125
100
AcDbArc
 50
90.0
 51
130.099085272
  0
ARC
  5
220
100
AcDbEntity
  8
0
100
AcDbCircle
 62
7
  6
CONTINUOUS
 10
11.6224834891
 20
10.1892277524
 40
0.06
100
AcDbArc
 50
110.1218761161
 51
180.0
  0
SPLINE
  5
221
100
AcDbEntity
  8
0
100
AcDbSpline
 62
9
  6
CONTINUOUS
 70
0
 71
3
 72
21
 73
17
 74
0
 42
0.0000001
 43
0.0000001
 44
0.0000000001
 40
0.0
 40
0.0
 40
0.0
 40
0.0
 40
0.1794063771
 40
0.3500838008
 40
0.4306425731
 40
0.5072625437
 40
0.5794506154
 40
0.6467760413
 40
0.708887675
 40
0.7655314392
 40
0.8165811628
 40
0.8620842701
 40
0.9023238381
 40
0.9379179879
 40
0.9699507533
 40
1.0
 40
1.0
 40
1.0
 40
1.0
 10
11.6018420685
 20
10.1892280695
 30
0.0
 10
11.6007493616
 20
10.1926107607
 30
0.0
 10
11.5988095769
 20
10.1992756263
 30
0.0
 10
11.5969445668
 20
10.2076093777
 30
0.0
 10
11.5958772721
 20
10.2140187722
 30
0.0
 10
11.5953097817
 20
10.2185292946
 30
0.0
 10
11.594963922
 20
10.2227994063
 30
0.0
 10
11.594842366
 20
10.2267945488
 30
0.0
 10
11.5949457744
 20
10.2304826076
 30
0.0
 10
11.5952732135
 20
10.2338344395
 30
0.0
 10
11.5958221969
 20
10.2368243076
 30
0.0
 10
11.5965894085
 20
10.2394303589
 30
0.0
 10
11.5975718382
 20
10.2416344112
 30
0.0
 10
11.5987697032
 20
10.2434208226
 30
0.0
 10
11.6001841762
 20
10.2447682412
 30
0.0
 10
11.6012831834
 20
10.245361113
 30
0.0
 10
11.6018422449
 20
10.2455659419
 30
0.0
  0
SPLINE
  5
222
100
AcDbEntity
  8
0
100
AcDbSpline
 62
9
  6
CONTINUOUS
 70
0
 71
3
 72
17
 73
13
 74
0
 42
0.0000001
 43
0.0000001
 44
0.0000000001
 40
0.0
 40
0.0
 40
0.0
 40
0.0
 40
0.1597077658
 40
0.3104383858
 40
0.450758519
 40
0.5798210557
 40
0.6975931507
 40
0.8050858532
 40
0.8557169371
 40
0.9047475621
 40
0.9526697813
 40
1.0
 40
1.0
 40
1.0
 40
1.0
 10
12.0069695618
 20
10.4346123634
 30
0.0
 10
12.0058144332
 20
10.4369568443
 30
0.0
 10
12.0037624232
 20
10.4416133946
 30
0.0
 10
12.001449287
 20
10.4486311062
 30
0.0
 10
12.0000224056
 20
10.4553728647
 30
0.0
 10
11.9995134696
 20
10.4617091225
 30
0.0
 10
11.9999379734
 20
10.4675179989
 30
0.0
 10
12.0011021585
 20
10.4719167981
 30
0.0
 10
12.0025127021
 20
10.475007039
 30
0.0
 10
12.0037729847
 20
10.4770747103
 30
0.0
 10
12.0052500727
 20
10.4789247498
 30
0.0
 10
12.0063770808
 20
10.4800093653
 30
0.0
 10
12.0069695619
 20
10.4805082646
 30
0.0
  0
SPLINE
  5
223
100
AcDbEntity
  8
0
100
AcDbSpline
 62
9
  6
CONTINUOUS
 70
0
 71
3
 72
21
 73
17
 74
0
 42
0.0000001
 43
0.0000001
 44
0.0000000001
 40
0.0
 40
0.0
 40
0.0
 40
0.0
 40
0.0300420136
 40
0.0620697738
 40
0.0976644671
 40
0.1379038524
 40
0.1834068856
 40
0.2344570002
 40
0.291101321
 40
0.3532136907
 40
0.4205400257
 40
0.4927291297
 40
0.5693502086
 40
0.6499102568
 40
0.8205900572
 40
1.0
 40
1.0
 40
1.0
 40
1.0
 10
11.6018427795
 20
7.7742172563
 30
0.0
 10
11.6012838615
 20
7.7744220332
 30
0.0
 10
11.6001850999
 20
7.7750148284
 30
0.0
 10
11.5987709768
 20
7.7763622165
 30
0.0
 10
11.5975731267
 20
7.7781484746
 30
0.0
 10
11.5965907739
 20
7.7803525365
 30
0.0
 10
11.5958236276
 20
7.7829585604
 30
0.0
 10
11.5952746699
 20
7.7859484028
 30
0.0
 10
11.5949472588
 20
7.7893002178
 30
0.0
 10
11.5948438623
 20
7.7929882625
 30
0.0
 10
11.5949654145
 20
7.7969833951
 30
0.0
 10
11.5953112501
 20
7.8012535027
 30
0.0
 10
11.5958787405
 20
7.8057640195
 30
0.0
 10
11.5969458696
 20
7.81217344
 30
0.0
 10
11.5988113144
 20
7.8205070811
 30
0.0
 10
11.600749902
 20
7.827172298
 30
0.0
 10
11.6018425324
 20
7.8305550297
 30
0.0
  0
SPLINE
  5
224
100
AcDbEntity
  8
0
100
AcDbSpline
 62
9
  6
CONTINUOUS
 70
0
 71
3
 72
38
 73
34
 74
0
 42
0.0000001
 43
0.0000001
 44
0.0000000001
 40
0.0
 40
0.0
 40
0.0
 40
0.0
 40
0.0165223591
 40
0.0331774041
 40
0.050237735
 40
0.0678621311
 40
0.0862134843
 40
0.105429947
 40
0.1256083654
 40
0.146849448
 40
0.169239883
 40
0.1928337898
 40
0.2176785273
 40
0.2438097063
 40
0.2712405201
 40
0.2999809889
 40
0.3613770956
 40
0.3940109566
 40
0.4278984775
 40
0.4630044377
 40
0.4992830138
 40
0.5366822885
 40
0.5751440305
 40
0.5947522668
 40
0.6145998108
 40
0.6549739893
 40
0.696186025
 40
0.7381467494
 40
0.780762045
 40
0.8239317468
 40
0.8675512464
 40
0.9115107578
 40
1.0
 40
1.0
 40
1.0
 40
1.0
 10
9.9574834891
 20
9.634891804
 30
0.0
 10
9.953523187
 20
9.6348901102
 30
0.0
 10
9.9455626814
 20
9.6344210532
 30
0.0
 10
9.9336844686
 20
9.6322919166
 30
0.0
 10
9.9218708251
 20
9.628756781
 30
0.0
 10
9.9101330845
 20
9.6238159795
 30
0.0
 10
9.8984950278
 20
9.6174835384
 30
0.0
 10
9.8869772892
 20
9.6097750178
 30
0.0
 10
9.8756149241
 20
9.6006867133
 30
0.0
 10
9.8644284832
 20
9.590236675
 30
0.0
 10
9.8534286344
 20
9.5784459423
 30
0.0
 10
9.8426466299
 20
9.5653187245
 30
0.0
 10
9.8321024615
 20
9.5508755399
 30
0.0
 10
9.8218095768
 20
9.5351421086
 30
0.0
 10
9.8118092771
 20
9.5181289789
 30
0.0
 10
9.798604962
 20
9.4932259557
 30
0.0
 10
9.7864111322
 20
9.4664078893
 30
0.0
 10
9.7751595089
 20
9.43788246
 30
0.0
 10
9.7669603281
 20
9.4149396339
 30
0.0
 10
9.759186765
 20
9.3909302098
 30
0.0
 10
9.7518751765
 20
9.3658977756
 30
0.0
 10
9.745057651
 20
9.3398944356
 30
0.0
 10
9.7398158387
 20
9.3176168806
 30
0.0
 10
9.735879424
 20
9.2993596738
 30
0.0
 10
9.7320830215
 20
9.2806048777
 30
0.0
 10
9.7276940869
 20
9.2566888836
 30
0.0
 10
9.7230012201
 20
9.2274472134
 30
0.0
 10
9.7189080905
 20
9.1975731202
 30
0.0
 10
9.7154186644
 20
9.1671504292
 30
0.0
 10
9.7125355697
 20
9.1362650053
 30
0.0
 10
9.7102875017
 20
9.1050036025
 30
0.0
 10
9.708131238
 20
9.0628543303
 30
0.0
 10
9.7074836453
 20
9.0311021022
 30
0.0
 10
9.7074834891
 20
9.009891804
 30
0.0
  0
SPLINE
  5
225
100
AcDbEntity
  8
0
100
AcDbSpline
 62
9
  6
CONTINUOUS
 70
0
 71
3
 72
17
 73
13
 74
0
 42
0.0000001
 43
0.0000001
 44
0.0000000001
 40
0.0
 40
0.0
 40
0.0
 40
0.0
 40
0.1597079327
 40
0.3104387066
 40
0.4507589622
 40
0.5798215702
 40
0.6975936669
 40
0.8050862859
 40
0.8557172932
 40
0.9047478191
 40
0.9526699184
 40
1.0
 40
1.0
 40
1.0
 40
1.0
 10
12.0069695618
 20
7.5851712446
 30
0.0
 10
12.0058144381
 20
7.5828267595
 30
0.0
 10
12.0037624369
 20
7.578170202
 30
0.0
 10
12.0014493099
 20
7.5711524832
 30
0.0
 10
12.0000224337
 20
7.5644107209
 30
0.0
 10
11.9995134988
 20
7.5580744627
 30
0.0
 10
11.9999379998
 20
7.5522655889
 30
0.0
 10
12.0011021797
 20
7.547866793
 30
0.0
 10
12.0025127181
 20
7.544776556
 30
0.0
 10
12.0037729959
 20
7.5427088887
 30
0.0
 10
12.0052500784
 20
7.5408588535
 30
0.0
 10
12.0063770828
 20
7.5397742411
 30
0.0
 10
12.0069695619
 20
7.5392753435
 30
0.0
  0
SPLINE
  5
226
100
AcDbEntity
  8
0
100
AcDbSpline
 62
9
  6
CONTINUOUS
 70
0
 71
3
 72
40
 73
36
 74
0
 42
0.0000001
 43
0.0000001
 44
0.0000000001
 40
0.0
 40
0.0
 40
0.0
 40
0.0
 40
0.0884887111
 40
0.132447977
 40
0.1760672127
 40
0.2192366565
 40
0.2618517104
 40
0.303812171
 40
0.3450239713
 40
0.3653213117
 40
0.3853986006
 40
0.4052460259
 40
0.4248541396
 40
0.4633156562
 40
0.500714791
 40
0.5369930795
 40
0.5720987646
 40
0.6059862995
 40
0.6386198453
 40
0.7000157762
 40
0.7287559186
 40
0.7561862987
 40
0.7823173751
 40
0.8071620975
 40
0.8307559956
 40
0.8531464025
 40
0.874387366
 40
0.8945652419
 40
0.9137810589
 40
0.9230603686
 40
0.9321385784
 40
0.9497639864
 40
0.9668235666
 40
0.9834788429
 40
1.0
 40
1.0
 40
1.0
 40
1.0
 10
9.7074834891
 20
9.009891804
 30
0.0
 10
9.7074836217
 20
8.9886815096
 30
0.0
 10
9.7081311741
 20
8.9569292708
 30
0.0
 10
9.710288036
 20
8.9147800426
 30
0.0
 10
9.7125350998
 20
8.8835185645
 30
0.0
 10
9.7154190277
 20
8.852633222
 30
0.0
 10
9.7189082369
 20
8.8222104942
 30
0.0
 10
9.7230007586
 20
8.792336414
 30
0.0
 10
9.7269311591
 20
8.7678463202
 30
0.0
 10
9.7303556725
 20
8.748592299
 30
0.0
 10
9.7330481816
 20
8.7344103605
 30
0.0
 10
9.7358793995
 20
8.7204239422
 30
0.0
 10
9.7398155409
 20
8.7021666959
 30
0.0
 10
9.7450571915
 20
8.6798890661
 30
0.0
 10
9.7518761091
 20
8.6538860978
 30
0.0
 10
9.7591866768
 20
8.6288534066
 30
0.0
 10
9.7669594197
 20
8.6048436662
 30
0.0
 10
9.7751605569
 20
8.5819015488
 30
0.0
 10
9.7864105454
 20
8.553375413
 30
0.0
 10
9.798605818
 20
8.5265579946
 30
0.0
 10
9.8118094962
 20
8.5016547393
 30
0.0
 10
9.821809076
 20
8.4846412787
 30
0.0
 10
9.8321021888
 20
8.4689080116
 30
0.0
 10
9.8426465379
 20
8.4544648763
 30
0.0
 10
9.8534287362
 20
8.4413376885
 30
0.0
 10
9.8644286572
 20
8.4295470104
 30
0.0
 10
9.8756152026
 20
8.4190969636
 30
0.0
 10
9.8869767177
 20
8.4100088922
 30
0.0
 10
9.8966859301
 20
8.403510179
 30
0.0
 10
9.9045027934
 20
8.399031073
 30
0.0
 10
9.9121849077
 20
8.3951040899
 30
0.0
 10
9.9218718414
 20
8.3910270627
 30
0.0
 10
9.933685171
 20
8.3874916574
 30
0.0
 10
9.945563159
 20
8.3853625809
 30
0.0
 10
9.953523452
 20
8.3848934078
 30
0.0
 10
9.9574834891
 20
8.384891804
 30
0.0
  0
SPLINE
  5
227
100
AcDbEntity
  8
0
100
AcDbSpline
 62
9
  6
CONTINUOUS
 70
0
 71
3
 72
13
 73
9
 74
0
 42
0.0000001
 43
0.0000001
 44
0.0000000001
 40
0.0
 40
0.0
 40
0.0
 40
0.0
 40
0.2393920578
 40
0.4856334237
 40
0.6114826946
 40
0.7391667476
 40
0.8686835598
 40
1.0
 40
1.0
 40
1.0
 40
1.0
 10
12.0069695619
 20
10.4346123635
 30
0.0
 10
11.9784433481
 20
10.4095245911
 30
0.0
 10
11.91842357
 20
10.3610225557
 30
0.0
 10
11.8379078149
 20
10.3066338309
 30
0.0
 10
11.7693755424
 20
10.2666746036
 30
0.0
 10
11.715511419
 20
10.2384566844
 30
0.0
 10
11.6596163114
 20
10.2123907018
 30
0.0
 10
11.6213044065
 20
10.1966757529
 30
0.0
 10
11.601842375
 20
10.1892281321
 30
0.0
  0
SPLINE
  5
228
100
AcDbEntity
  8
0
100
AcDbSpline
 62
9
  6
CONTINUOUS
 70
0
 71
3
 72
13
 73
9
 74
0
 42
0.0000001
 43
0.0000001
 44
0.0000000001
 40
0.0
 40
0.0
 40
0.0
 40
0.0
 40
0.1313163909
 40
0.2608332086
 40
0.3885172235
 40
0.514366576
 40
0.7606078532
 40
1.0
 40
1.0
 40
1.0
 40
1.0
 10
11.6018427842
 20
7.8305550332
 30
0.0
 10
11.6213049536
 20
7.82310786
 30
0.0
 10
11.659616836
 20
7.8073929354
 30
0.0
 10
11.7155116628
 20
7.7813265866
 30
0.0
 10
11.7693760202
 20
7.753109228
 30
0.0
 10
11.837907683
 20
7.7131491388
 30
0.0
 10
11.9184238371
 20
7.6587612555
 30
0.0
 10
11.9784435092
 20
7.610259157
 30
0.0
 10
12.0069695619
 20
7.5851712446
 30
0.0
  0
SPLINE
  5
229
100
AcDbEntity
  8
0
100
AcDbSpline
 62
9
  6
CONTINUOUS
 70
0
 71
3
 72
15
 73
11
 74
0
 42
0.0000001
 43
0.0000001
 44
0.0000000001
 40
0.0
 40
0.0
 40
0.0
 40
0.0
 40
0.1098345471
 40
0.2251635445
 40
0.3455703807
 40
0.470516906
 40
0.599312283
 40
0.7311282005
 40
0.865034515
 40
1.0
 40
1.0
 40
1.0
 40
1.0
 10
12.0069695619
 20
7.5851712446
 30
0.0
 10
12.0097372506
 20
7.5839616625
 30
0.0
 10
12.0154898033
 20
7.5816585826
 30
0.0
 10
12.0245093848
 20
7.5786501594
 30
0.0
 10
12.0340811343
 20
7.576031168
 30
0.0
 10
12.0441380676
 20
7.5738365339
 30
0.0
 10
12.0546012857
 20
7.5720955797
 30
0.0
 10
12.0653805088
 20
7.5708284171
 30
0.0
 10
12.0763768073
 20
7.57006421
 30
0.0
 10
12.0837719239
 20
7.5698928354
 30
0.0
 10
12.0874834891
 20
7.569892741
 30
0.0
  0
SPLINE
  5
22A
100
AcDbEntity
  8
0
100
AcDbSpline
 62
9
  6
CONTINUOUS
 70
0
 71
3
 72
13
 73
9
 74
0
 42
0.0000001
 43
0.0000001
 44
0.0000000001
 40
0.0
 40
0.0
 40
0.0
 40
0.0
 40
0.2688442847
 40
0.4006826874
 40
0.529499499
 40
0.6544673301
 40
0.774893844
 40
1.0
 40
1.0
 40
1.0
 40
1.0
 10
12.0874834891
 20
10.449891382
 30
0.0
 10
12.0800914863
 20
10.4498912202
 30
0.0
 10
12.069064838
 20
10.449386533
 30
0.0
 10
12.0546013974
 20
10.4476889607
 30
0.0
 10
12.0441381946
 20
10.4459467009
 30
0.0
 10
12.0340806566
 20
10.4437524632
 30
0.0
 10
12.0215990137
 20
10.4403393179
 30
0.0
 10
12.012641553
 20
10.4370897037
 30
0.0
 10
12.0069695619
 20
10.4346123635
 30
0.0
  0
ENDSEC
  0
SECTION
  2
OBJECTS
  0
DICTIONARY
  5
C
100
AcDbDictionary
280
0
281
1
  3
ACAD_GROUP
350
D
  3
ACAD_MLINESTYLE
350
17
  3
ACAD_LAYOUT
350
1A
  3
ACAD_PLOTSETTINGS
350
19
  3
ACAD_PLOTSTYLENAME
350
E
  0
DICTIONARY
  5
D
102
{ACAD_REACTORS
330
C
102
}
100
AcDbDictionary
280
0
281
1
  0
ACDBDICTIONARYWDFLT
  5
E
102
{ACAD_REACTORS
330
C
102
}
100
AcDbDictionary
281
1
  3
Normal
350
F
100
AcDbDictionaryWithDefault
340
F
  0
DICTIONARY
  5
17
102
{ACAD_REACTORS
330
C
102
}
100
AcDbDictionary
280
0
281
1
  3
Standard
350
18
  0
DICTIONARY
  5
19
102
{ACAD_REACTORS
330
C
102
}
100
AcDbDictionary
281
1
  0
DICTIONARY
  5
1A
102
{ACAD_REACTORS
330
C
102
}
100
AcDbDictionary
281
1
  3
Model
350
22B
  3
Layout1
350
22C
  0
ACDBPLACEHOLDER
  5
F
102
{ACAD_REACTORS
330
E
102
}
  0
MLINESTYLE
  5
18
102
{ACAD_REACTORS
330
17
102
}
100
AcDbMlineStyle
  2
STANDARD
 70
0
  3

 62
256
 51
90.0
 52
90.0
 71
2
 49
0.5
 62
256
  6
BYLAYER
 49
-0.5
 62
256
  6
BYLAYER
  0
LAYOUT
  5
22B
102
{ACAD_REACTORS
330
1A
102
}
100
AcDbPlotSettings
  1

  2
none_device
  4
ANSI_C_(22.00_x_17.00_Inches)
  6

 40
0.0
 41
0.0
 42
0.0
 43
0.0
 44
558.8
 45
431.8
 46
0.0
 47
0.0
 48
0.0
 49
0.0
140
0.0
141
0.0
142
1.0
143
1.0
 70
1024
 72
0
 73
0
 74
0
  7

 75
0
147
1.0
148
0.0
149
0.0
100
AcDbLayout
  1
Model
 70
0
 71
0
 10
0.0
 20
0.0
 11
22.0
 21
17.0
 12
0.0
 22
0.0
 32
0.0
 14
0.0
 24
0.0
 34
0.0
 15
0.0
 25
0.0
 35
0.0
146
0.0
 13
0.0
 23
0.0
 33
0.0
 16
1.0
 26
0.0
 36
0.0
 17
0.0
 27
1.0
 37
0.0
 76
0
330
205
345
0
346
0
  0
LAYOUT
  5
22C
102
{ACAD_REACTORS
330
1A
102
}
100
AcDbPlotSettings
  1

  2
none_device
  4
ANSI_C_(22.00_x_17.00_Inches)
  6

 40
0.0
 41
0.0
 42
0.0
 43
0.0
 44
558.8
 45
431.8
 46
0.0
 47
0.0
 48
0.0
 49
0.0
140
0.0
141
0.0
142
1.0
143
1.0
 70
0
 72
0
 73
0
 74
0
  7

 75
0
147
1.0
148
0.0
149
0.0
100
AcDbLayout
  1
Layout1
 70
0
 71
1
 10
0.0
 20
0.0
 11
22.0
 21
17.0
 12
0.0
 22
0.0
 32
0.0
 14
0.0
 24
0.0
 34
0.0
 15
0.0
 25
0.0
 35
0.0
146
0.0
 13
0.0
 23
0.0
 33
0.0
 16
1.0
 26
0.0
 36
0.0
 17
0.0
 27
1.0
 37
0.0
 76
0
330
206
345
0
346
0
  0
ENDSEC
  0
EOF
