999
DXF file: E:\BT Custom\CADOUTPUT\_TOP.dxf
999
Pro/ENGINEER 2018400 by Parametric Technology Corporation
  0
SECTION
  2
HEADER
  9
$ACADVER
  1
AC1018
  9
$DWGCODEPAGE
  3
ANSI_1252
  9
$EXTMAX
 10
22.0
 20
17.0
 30
0.0
  9
$EXTMIN
 10
0.0
 20
0.0
 30
0.0
  9
$LIMMIN
 10
0.0
 20
0.0
  9
$LIMMAX
 10
22.0
 20
17.0
  9
$VIEWCTR
 10
11.0
 20
8.5
  9
$VIEWSIZE
 40
17.0
  9
$CLAYER
  8
0
  9
$LTSCALE
 40
1.21
  9
$CELTYPE
  6
BYLAYER
  9
$DIMSCALE
 40
1.0
  9
$DIMASZ
 40
0.1
  9
$DIMEXO
 40
0.0625
  9
$DIMDLI
 40
0.836
  9
$DIMEXE
 40
0.125
  9
$DIMCEN
 40
0.198
  9
$DIMLFAC
 40
1.0
  9
$DIMBLK
  1
_FILLED
  9
$DIMALT
 70
1
  9
$DIMALTD
 70
2
  9
$DIMALTTD
 70
2
  9
$DIMALTF
 40
25.4
  9
$DIMTXT
 40
0.08
  9
$DIMTOL
 70
1
  9
$DIMLIM
 70
0
  9
$DIMTFAC
 40
1.0
  9
$DIMTP
 40
0.001
  9
$DIMTM
 40
0.001
  9
$DIMGAP
 40
0.09
  9
$DIMDSEP
 70
46
  9
$AUNITS
 70
0
  9
$PDMODE
 70
3
  9
$PDSIZE
 40
0.06
  9
$HANDSEED
  5
5A7
  9
$TILEMODE
 70
1
  9
$MEASUREMENT
 70
0
  9
$INSUNITS
 70
1
  0
ENDSEC
  0
SECTION
  2
CLASSES
  0
CLASS
  1
ACDBDICTIONARYWDFLT
  2
AcDbDictionaryWithDefault
  3
AutoCAD 2000
 90
0
 91
1
280
0
281
0
  0
CLASS
  1
ACDBPLACEHOLDER
  2
AcDbPlaceHolder
  3
AutoCAD 2000
 90
0
 91
1
280
0
281
0
  0
CLASS
  1
LAYOUT
  2
AcDbLayout
  3
AutoCAD 2000
 90
0
 91
0
280
0
281
0
  0
ENDSEC
  0
SECTION
  2
TABLES
  0
TABLE
  2
VPORT
  5
8
100
AcDbSymbolTable
 70
2
  0
VPORT
  5
1F4
100
AcDbSymbolTableRecord
100
AcDbViewportTableRecord
  2
*ACTIVE
 70
0
 10
0.0
 20
0.0
 11
1.0
 21
1.0
 12
11.0
 22
8.5
 13
0.0
 23
0.0
 14
1.0
 24
1.0
 15
0.0
 25
0.0
 16
0.0
 26
0.0
 36
1.0
 17
0.0
 27
0.0
 37
0.0
 40
17.0
 41
1.2941176471
 42
50.0
 43
0.0
 44
0.0
 50
0.0
 51
0.0
 71
0
 72
100
 73
1
 74
1
 75
0
 76
0
 77
0
 78
0
  0
ENDTAB
  0
TABLE
  2
LTYPE
  5
5
100
AcDbSymbolTable
 70
6
  0
LTYPE
  5
14
100
AcDbSymbolTableRecord
100
AcDbLinetypeTableRecord
  2
BYBLOCK
 70
0
  3

 72
65
 73
0
 40
0.0
  0
LTYPE
  5
15
100
AcDbSymbolTableRecord
100
AcDbLinetypeTableRecord
  2
BYLAYER
 70
0
  3

 72
65
 73
0
 40
0.0
  0
LTYPE
  5
16
100
AcDbSymbolTableRecord
100
AcDbLinetypeTableRecord
  2
CONTINUOUS
 70
64
  3
Solid line
 72
65
 73
0
 40
0.0
  0
LTYPE
  5
1F5
100
AcDbSymbolTableRecord
100
AcDbLinetypeTableRecord
  2
CENTER
 70
64
  3
____ _ ____ _ ____ _ ____ _ ____ _ ____ _ ____
 72
65
 73
4
 40
0.6
 49
0.375
 74
0
 49
-0.075
 74
0
 49
0.075
 74
0
 49
-0.075
 74
0
  0
LTYPE
  5
1F6
100
AcDbSymbolTableRecord
100
AcDbLinetypeTableRecord
  2
HIDDEN
 70
64
  3
- - - - - - - - - - - - - - - - - - - -
 72
65
 73
2
 40
0.2
 49
0.1
 74
0
 49
-0.1
 74
0
  0
LTYPE
  5
1F7
100
AcDbSymbolTableRecord
100
AcDbLinetypeTableRecord
  2
PHANTOM
 70
64
  3
_____ _ _ _____ _ _ _____ _ _ _____
 72
65
 73
6
 40
0.8
 49
0.45
 74
0
 49
-0.05
 74
0
 49
0.1
 74
0
 49
-0.05
 74
0
 49
0.1
 74
0
 49
-0.05
 74
0
  0
LTYPE
  5
1F8
100
AcDbSymbolTableRecord
100
AcDbLinetypeTableRecord
  2
DOT
 70
64
  3
. . . . . . . . . . . . . . . . . . . .
 72
65
 73
2
 40
0.2
 49
0.1
 74
0
 49
-0.1
 74
0
  0
LTYPE
  5
1F9
100
AcDbSymbolTableRecord
100
AcDbLinetypeTableRecord
  2
DASHED
 70
64
  3
- - - - - - - - - - - - - - - - - - - -
 72
65
 73
2
 40
0.2
 49
0.1
 74
0
 49
-0.1
 74
0
  0
ENDTAB
  0
TABLE
  2
LAYER
  5
2
100
AcDbSymbolTable
 70
36
  0
LAYER
  5
10
100
AcDbSymbolTableRecord
100
AcDbLayerTableRecord
  2
0
 70
0
 62
7
  6
CONTINUOUS
370
-3
390
F
  0
LAYER
  5
1FA
100
AcDbSymbolTableRecord
100
AcDbLayerTableRecord
  2
DEFAULT_1
 70
0
 62
7
  6
CENTER
370
-3
390
F
  0
LAYER
  5
1FB
100
AcDbSymbolTableRecord
100
AcDbLayerTableRecord
  2
DEFAULT_2
 70
0
 62
8
  6
HIDDEN
370
-3
390
F
  0
LAYER
  5
1FC
100
AcDbSymbolTableRecord
100
AcDbLayerTableRecord
  2
DEFAULT_3
 70
0
 62
7
  6
PHANTOM
370
-3
390
F
  0
LAYER
  5
1FD
100
AcDbSymbolTableRecord
100
AcDbLayerTableRecord
  2
ALL_FEATURES
 70
0
 62
7
  6
CONTINUOUS
370
-3
390
F
  0
LAYER
  5
1FE
100
AcDbSymbolTableRecord
100
AcDbLayerTableRecord
  2
AXES_FEATURES
 70
0
 62
7
  6
CONTINUOUS
370
-3
390
F
  0
LAYER
  5
1FF
100
AcDbSymbolTableRecord
100
AcDbLayerTableRecord
  2
DIMENSIONS
 70
0
 62
7
  6
CONTINUOUS
370
-3
390
F
  0
ENDTAB
  0
TABLE
  2
STYLE
  5
3
100
AcDbSymbolTable
 70
1
  0
STYLE
  5
11
100
AcDbSymbolTableRecord
100
AcDbTextStyleTableRecord
  2
STANDARD
 70
0
 40
0.0
 41
0.8
 50
0.0
 71
0
 42
0.2
  3
txt
  4

  0
STYLE
  5
200
100
AcDbSymbolTableRecord
100
AcDbTextStyleTableRecord
  2
TEXTSTYLE_1
 70
0
 40
0.0
 41
0.8
 50
0.0
 71
0
 42
0.2
  3
gdt
  4

  0
ENDTAB
  0
TABLE
  2
VIEW
  5
6
100
AcDbSymbolTable
 70
0
  0
ENDTAB
  0
TABLE
  2
UCS
  5
7
100
AcDbSymbolTable
 70
0
  0
ENDTAB
  0
TABLE
  2
APPID
  5
9
100
AcDbSymbolTable
 70
1
  0
APPID
  5
201
100
AcDbSymbolTableRecord
100
AcDbRegAppTableRecord
  2
ACAD
 70
0
  0
ENDTAB
  0
TABLE
  2
BLOCK_RECORD
  5
1
100
AcDbSymbolTable
 70
0
  0
BLOCK_RECORD
  5
202
100
AcDbSymbolTableRecord
100
AcDbBlockTableRecord
  2
*Model_Space
  0
BLOCK_RECORD
  5
203
100
AcDbSymbolTableRecord
100
AcDbBlockTableRecord
  2
*Paper_Space
  0
BLOCK_RECORD
  5
204
100
AcDbSymbolTableRecord
100
AcDbBlockTableRecord
  2
_FILLED
  0
ENDTAB
  0
TABLE
  2
DIMSTYLE
  5
A
100
AcDbSymbolTable
 70
1
100
AcDbDimStyleTable
 71
0
  0
DIMSTYLE
105
205
100
AcDbSymbolTableRecord
100
AcDbDimStyleTableRecord
  2
STANDARD
 70
0
  3

  4

 40
1.0
 41
0.1
 42
0.0625
 43
0.38
 44
0.125
 45
0.0
 46
0.0
 47
0.001
 48
0.001
140
0.08
141
0.09
142
0.0
143
25.4
144
1.0
145
0.0
146
1.0
147
0.09
 71
1.0
 72
0.0
 73
1
 74
1
 75
0
 76
0
 77
0
 78
4
 79
1
170
1
171
2
172
0
173
0
174
0
175
0
176
0
177
0
178
0
270
2
179
3
271
3
272
3
273
2
274
2
275
0
280
0
281
0
282
0
283
1
284
4
285
0
286
0
287
3
288
0
340
11
278
46
341
204
342
204
343
204
344
204
  0
ENDTAB
  0
ENDSEC
  0
SECTION
  2
BLOCKS
  0
BLOCK
  5
20
100
AcDbEntity
  8
0
100
AcDbBlockBegin
  2
*Model_Space
 70
0
 10
0.0
 20
0.0
 30
0.0
  3
*Model_Space
  1

  0
ENDBLK
  5
21
100
AcDbEntity
  8
0
100
AcDbBlockEnd
  0
BLOCK
  5
1C
100
AcDbEntity
  8
0
100
AcDbBlockBegin
  2
*Paper_Space
 70
0
 10
0.0
 20
0.0
 30
0.0
  3
*Paper_Space
  1

  0
ENDBLK
  5
1D
100
AcDbEntity
  8
0
100
AcDbBlockEnd
  0
BLOCK
  5
206
100
AcDbEntity
  8
0
100
AcDbBlockBegin
  2
_FILLED
 70
64
 10
0.0
 20
0.0
  3
_FILLED
  1

  0
SOLID
  5
207
100
AcDbEntity
  8
0
  6
BYBLOCK
 62
0
100
AcDbTrace
 10
0.0
 20
0.0
 11
-1.0
 21
0.2
 12
-1.0
 22
-0.2
 13
-1.0
 23
-0.2
  0
ENDBLK
  5
208
100
AcDbEntity
  8
0
  6
BYBLOCK
 62
0
100
AcDbBlockEnd
  0
ENDSEC
  0
SECTION
  2
ENTITIES
  0
LWPOLYLINE
  5
209
100
AcDbEntity
  8
0
100
AcDbPolyline
 62
7
  6
CONTINUOUS
 90
3
 70
0
 10
3.99693245
 20
9.9715566366
 10
3.9961053717
 20
9.9683911903
 10
3.9957660658
 20
9.9659445859
  0
LINE
  5
20A
100
AcDbEntity
  8
0
100
AcDbLine
 62
7
  6
CONTINUOUS
 10
3.9981021255
 20
9.9742948916
 11
3.99693245
 21
9.9715566366
  0
LINE
  5
20B
100
AcDbEntity
  8
0
100
AcDbLine
 62
7
  6
CONTINUOUS
 10
3.9981019297
 20
9.9742944731
 11
4.119013585
 21
10.2085724238
  0
LINE
  5
20C
100
AcDbEntity
  8
0
100
AcDbLine
 62
9
  6
CONTINUOUS
 10
3.9984347767
 20
9.9748336444
 11
4.119315202
 21
10.2090510839
  0
LINE
  5
20D
100
AcDbEntity
  8
0
100
AcDbLine
 62
9
  6
CONTINUOUS
 10
4.1427163958
 20
10.2101078378
 11
4.0052790613
 21
9.9748336444
  0
LINE
  5
20E
100
AcDbEntity
  8
0
100
AcDbLine
 62
7
  6
CONTINUOUS
 10
4.1193086956
 20
10.2090550624
 11
4.1190135781
 21
10.2085724317
  0
LWPOLYLINE
  5
20F
100
AcDbEntity
  8
0
100
AcDbPolyline
 62
7
  6
CONTINUOUS
 90
4
 70
0
 10
3.9953574054
 20
9.734522642
 10
3.9954484387
 20
9.7304323095
 10
3.9955775579
 20
9.7272667556
 10
3.9957569391
 20
9.7248083616
  0
LINE
  5
210
100
AcDbEntity
  8
0
100
AcDbLine
 62
7
  6
CONTINUOUS
 10
3.9953058977
 20
9.7393054205
 11
3.9953574054
 21
9.734522642
  0
LINE
  5
211
100
AcDbEntity
  8
0
100
AcDbLine
 62
9
  6
CONTINUOUS
 10
3.9953008552
 20
9.9459003793
 11
3.9953008552
 21
9.7447596939
  0
LINE
  5
212
100
AcDbEntity
  8
0
100
AcDbLine
 62
9
  6
CONTINUOUS
 10
4.0034578363
 20
9.7447596939
 11
4.0034578363
 21
9.9459003793
  0
LINE
  5
213
100
AcDbEntity
  8
0
100
AcDbLine
 62
9
  6
CONTINUOUS
 10
4.0062635837
 20
9.9459003793
 11
4.0062635837
 21
9.7447596939
  0
LWPOLYLINE
  5
214
100
AcDbEntity
  8
0
100
AcDbPolyline
 62
7
  6
CONTINUOUS
 90
4
 70
0
 10
3.9953613178
 20
9.9563801982
 10
3.995307984
 20
9.9516620957
 10
3.9952894719
 20
9.9465333904
 10
3.9953058977
 20
9.7393054205
  0
LWPOLYLINE
  5
215
100
AcDbEntity
  8
0
100
AcDbPolyline
 62
7
  6
CONTINUOUS
 90
3
 70
0
 10
3.9955842598
 20
9.9635148472
 10
3.9954538736
 20
9.9604040509
 10
3.9953613178
 20
9.9563801982
  0
LINE
  5
216
100
AcDbEntity
  8
0
100
AcDbLine
 62
7
  6
CONTINUOUS
 10
3.9957660658
 20
9.9659445859
 11
3.9955842598
 21
9.9635148472
  0
LINE
  5
217
100
AcDbEntity
  8
0
100
AcDbLine
 62
9
  6
CONTINUOUS
 10
4.0062635837
 20
9.9459003793
 11
4.1428026109
 21
10.1796367918
  0
LINE
  5
218
100
AcDbEntity
  8
0
100
AcDbLine
 62
9
  6
CONTINUOUS
 10
3.9981002328
 20
9.9742911851
 11
3.9984347767
 21
9.9748336444
  0
LINE
  5
219
100
AcDbEntity
  8
0
100
AcDbLine
 62
9
  6
CONTINUOUS
 10
4.119315202
 20
10.2090510839
 11
4.1190153495
 21
10.2085758426
  0
LINE
  5
21A
100
AcDbEntity
  8
0
100
AcDbLine
 62
7
  6
CONTINUOUS
 10
3.9960889281
 20
9.7223586445
 11
3.996907908
 21
9.7191751389
  0
LINE
  5
21B
100
AcDbEntity
  8
0
100
AcDbLine
 62
7
  6
CONTINUOUS
 10
3.9957569391
 20
9.7248083616
 11
3.9960889281
 21
9.7223586445
  0
LINE
  5
21C
100
AcDbEntity
  8
0
100
AcDbLine
 62
7
  6
CONTINUOUS
 10
3.99810193
 20
9.7163655997
 11
4.1190136514
 21
9.4820875208
  0
LINE
  5
21D
100
AcDbEntity
  8
0
100
AcDbLine
 62
9
  6
CONTINUOUS
 10
4.119315202
 20
9.4816089893
 11
3.9984347767
 21
9.7158264289
  0
LINE
  5
21E
100
AcDbEntity
  8
0
100
AcDbLine
 62
7
  6
CONTINUOUS
 10
3.996907908
 20
9.7191751389
 11
3.9981020127
 21
9.7163653985
  0
LWPOLYLINE
  5
21F
100
AcDbEntity
  8
0
100
AcDbPolyline
 62
7
  6
CONTINUOUS
 90
7
 70
0
 10
6.1019353641
 20
8.9198562056
 10
6.1020068205
 20
8.9182567588
 10
6.1037595844
 20
8.9116026512
 10
6.1076451816
 20
8.9059552061
 10
6.1132099538
 20
8.9019511851
 10
6.1198259434
 20
8.9000588199
 10
6.1218588077
 20
8.8999473688
  0
LWPOLYLINE
  5
220
100
AcDbEntity
  8
0
100
AcDbPolyline
 62
7
  6
CONTINUOUS
 90
3
 70
0
 10
6.1002196556
 20
9.5637611933
 10
6.1008476247
 20
9.2557271833
 10
6.1019330647
 20
8.9198840371
  0
LWPOLYLINE
  5
221
100
AcDbEntity
  8
0
100
AcDbPolyline
 62
7
  6
CONTINUOUS
 90
3
 70
0
 10
6.1019330637
 20
10.7707758188
 10
6.1008490853
 20
10.4354814035
 10
6.1002332796
 20
10.1337495787
  0
LINE
  5
222
100
AcDbEntity
  8
0
100
AcDbLine
 62
9
  6
CONTINUOUS
 10
4.1190159142
 20
9.4820831365
 11
4.119315202
 21
9.4816089893
  0
LINE
  5
223
100
AcDbEntity
  8
0
100
AcDbLine
 62
9
  6
CONTINUOUS
 10
3.9984347767
 20
9.7158264289
 11
3.9981009173
 21
9.7163675619
  0
LINE
  5
224
100
AcDbEntity
  8
0
100
AcDbLine
 62
9
  6
CONTINUOUS
 10
4.0052790613
 20
9.7158264289
 11
4.1427163958
 21
9.4805522354
  0
LINE
  5
225
100
AcDbEntity
  8
0
100
AcDbLine
 62
9
  6
CONTINUOUS
 10
4.1428026109
 20
9.5110232814
 11
4.0062635837
 21
9.7447596939
  0
LWPOLYLINE
  5
226
100
AcDbEntity
  8
0
100
AcDbPolyline
 62
7
  6
CONTINUOUS
 90
3
 70
0
 10
4.1190134503
 20
9.4820878474
 10
4.11970079
 20
9.4808634846
 10
4.1217002517
 20
9.4781293396
  0
LINE
  5
227
100
AcDbEntity
  8
0
100
AcDbLine
 62
9
  6
CONTINUOUS
 10
6.4488183278
 20
10.1053260496
 11
6.4488182918
 21
9.5853320164
  0
LINE
  5
228
100
AcDbEntity
  8
0
100
AcDbLine
 62
9
  6
CONTINUOUS
 10
7.6636749418
 20
9.7513166791
 11
7.5782850575
 21
9.6146928642
  0
LINE
  5
229
100
AcDbEntity
  8
0
100
AcDbLine
 62
7
  6
CONTINUOUS
 10
7.5722933515
 20
9.5747300578
 11
7.6633783044
 21
9.7204659823
  0
LINE
  5
22A
100
AcDbEntity
  8
0
100
AcDbLine
 62
7
  6
CONTINUOUS
 10
11.6344531215
 20
3.8675821023
 11
11.6406569673
 21
3.8693424824
  0
LINE
  5
22B
100
AcDbEntity
  8
0
100
AcDbLine
 62
7
  6
CONTINUOUS
 10
11.6344531215
 20
3.8675821023
 11
11.6342986321
 21
3.8675619974
  0
LINE
  5
22C
100
AcDbEntity
  8
0
100
AcDbLine
 62
9
  6
CONTINUOUS
 10
11.6318011771
 20
3.8674183218
 11
11.6314031296
 21
3.8673797546
  0
LINE
  5
22D
100
AcDbEntity
  8
0
100
AcDbLine
 62
7
  6
CONTINUOUS
 10
11.6313864532
 20
3.8673797059
 11
11.634299888
 21
3.8675621553
  0
LINE
  5
22E
100
AcDbEntity
  8
0
100
AcDbLine
 62
9
  6
CONTINUOUS
 10
11.6342986321
 20
3.8675619974
 11
11.6318012722
 21
3.8674183445
  0
LINE
  5
22F
100
AcDbEntity
  8
0
100
AcDbLine
 62
9
  6
CONTINUOUS
 10
10.4628333359
 20
3.8674187361
 11
10.4603226438
 21
3.8675639406
  0
LINE
  5
230
100
AcDbEntity
  8
0
100
AcDbLine
 62
7
  6
CONTINUOUS
 10
10.4603219493
 20
3.8675640286
 11
10.4632501872
 21
3.8673797057
  0
LINE
  5
231
100
AcDbEntity
  8
0
100
AcDbLine
 62
9
  6
CONTINUOUS
 10
10.462833334
 20
3.8674187269
 11
10.463249264
 21
3.8673796994
  0
LINE
  5
232
100
AcDbEntity
  8
0
100
AcDbLine
 62
7
  6
CONTINUOUS
 10
10.4603226438
 20
3.8675639406
 11
10.4601516418
 21
3.8675863902
  0
LINE
  5
233
100
AcDbEntity
  8
0
100
AcDbLine
 62
7
  6
CONTINUOUS
 10
10.4535762286
 20
3.8695282274
 11
10.4601516418
 21
3.8675863902
  0
LINE
  5
234
100
AcDbEntity
  8
0
100
AcDbLine
 62
9
  6
CONTINUOUS
 10
7.5618268293
 20
10.075967209
 11
7.5618268293
 21
9.6146928642
  0
LINE
  5
235
100
AcDbEntity
  8
0
100
AcDbLine
 62
9
  6
CONTINUOUS
 10
7.5782850575
 20
10.075967209
 11
7.5782850575
 21
9.6146928642
  0
LINE
  5
236
100
AcDbEntity
  8
0
100
AcDbLine
 62
9
  6
CONTINUOUS
 10
7.6636749418
 20
9.7513166791
 11
7.6636749418
 21
9.9393433942
  0
LINE
  5
237
100
AcDbEntity
  8
0
100
AcDbLine
 62
7
  6
CONTINUOUS
 10
7.6664183383
 20
9.7310659611
 11
7.6664183383
 21
9.9595941121
  0
LINE
  5
238
100
AcDbEntity
  8
0
100
AcDbLine
 62
7
  6
CONTINUOUS
 10
9.9963488717
 20
10.8300348454
 11
9.9939685732
 21
10.8286357905
  0
LINE
  5
239
100
AcDbEntity
  8
0
100
AcDbLine
 62
7
  6
CONTINUOUS
 10
9.9963488717
 20
10.8300348454
 11
9.9965027756
 21
10.8301115702
  0
LINE
  5
23A
100
AcDbEntity
  8
0
100
AcDbLine
 62
7
  6
CONTINUOUS
 10
10.463249264
 20
3.8673796994
 11
11.6313874107
 21
3.8673796999
  0
LINE
  5
23B
100
AcDbEntity
  8
0
100
AcDbLine
 62
9
  6
CONTINUOUS
 10
11.6322379106
 20
3.876638474
 11
10.4623952491
 21
3.8766384655
  0
LWPOLYLINE
  5
23C
100
AcDbEntity
  8
0
100
AcDbPolyline
 62
7
  6
CONTINUOUS
 90
7
 70
0
 10
7.9927028577
 20
10.7708047147
 10
7.9926314011
 20
10.7724042654
 10
7.9908785927
 20
10.7790585105
 10
7.9869928889
 20
10.7847060545
 10
7.9814279706
 20
10.7887101132
 10
7.9748118226
 20
10.7906024424
 10
7.9727791548
 20
10.7907138672
  0
LWPOLYLINE
  5
23D
100
AcDbEntity
  8
0
100
AcDbPolyline
 62
7
  6
CONTINUOUS
 90
4
 70
0
 10
7.9927024784
 20
8.9198836397
 10
7.994383164
 20
9.5360544581
 10
7.9943706916
 20
10.1572883228
 10
7.9927052871
 20
10.7707769127
  0
LINE
  5
23E
100
AcDbEntity
  8
0
100
AcDbLine
 62
7
  6
CONTINUOUS
 10
9.9939685732
 20
10.8286357905
 11
9.9873245251
 21
10.8213261179
  0
LINE
  5
23F
100
AcDbEntity
  8
0
100
AcDbLine
 62
9
  6
CONTINUOUS
 10
10.4714014877
 20
5.0490531406
 11
10.4716053379
 21
5.0490913121
  0
LINE
  5
240
100
AcDbEntity
  8
0
100
AcDbLine
 62
9
  6
CONTINUOUS
 10
11.6229646955
 20
5.0490859903
 11
11.6228866071
 21
5.0491005932
  0
LWPOLYLINE
  5
241
100
AcDbEntity
  8
0
100
AcDbPolyline
 62
7
  6
CONTINUOUS
 90
8
 70
0
 10
11.622884736
 20
5.049102329
 10
11.601841571
 20
5.0540530145
 10
11.5752085579
 20
5.0640625854
 10
11.5498552753
 20
5.0779213162
 10
11.5254356098
 20
5.0962993653
 10
11.5028346279
 20
5.1195603739
 10
11.4823852888
 20
5.1485168239
 10
11.4641853868
 20
5.1836435912
  0
LINE
  5
242
100
AcDbEntity
  8
0
100
AcDbLine
 62
7
  6
CONTINUOUS
 10
11.6290731042
 20
5.0473951208
 11
11.6229646955
 21
5.0490859903
  0
LWPOLYLINE
  5
243
100
AcDbEntity
  8
0
100
AcDbPolyline
 62
7
  6
CONTINUOUS
 90
3
 70
0
 10
10.4418383417
 20
3.8841257145
 10
10.446170632
 20
3.8753179389
 10
10.4535762286
 20
3.8695282274
  0
LINE
  5
244
100
AcDbEntity
  8
0
100
AcDbLine
 62
7
  6
CONTINUOUS
 10
9.9873245251
 20
10.8213261179
 11
9.9846897705
 21
10.8117481038
  0
LINE
  5
245
100
AcDbEntity
  8
0
100
AcDbLine
 62
9
  6
CONTINUOUS
 10
11.4009708278
 20
10.2041357791
 11
11.1992078173
 21
10.0023727698
  0
LINE
  5
246
100
AcDbEntity
  8
0
100
AcDbLine
 62
9
  6
CONTINUOUS
 10
10.8902756049
 20
9.6934405561
 11
10.6885125958
 21
9.4916775471
  0
LINE
  5
247
100
AcDbEntity
  8
0
100
AcDbLine
 62
9
  6
CONTINUOUS
 10
10.6936658488
 20
9.4865242941
 11
10.8954288593
 21
9.6882873035
  0
LINE
  5
248
100
AcDbEntity
  8
0
100
AcDbLine
 62
9
  6
CONTINUOUS
 10
11.2043610717
 20
9.9972195171
 11
11.4061240808
 21
10.1989825261
  0
LINE
  5
249
100
AcDbEntity
  8
0
100
AcDbLine
 62
7
  6
CONTINUOUS
 10
11.6389478282
 20
5.041014561
 11
11.6290731042
 21
5.0473951208
  0
LINE
  5
24A
100
AcDbEntity
  8
0
100
AcDbLine
 62
9
  6
CONTINUOUS
 10
7.5782850575
 20
10.075967209
 11
7.6636749418
 21
9.9393433942
  0
LINE
  5
24B
100
AcDbEntity
  8
0
100
AcDbLine
 62
7
  6
CONTINUOUS
 10
7.6633783044
 20
9.9701940909
 11
7.5722933515
 21
10.1159300154
  0
LINE
  5
24C
100
AcDbEntity
  8
0
100
AcDbLine
 62
7
  6
CONTINUOUS
 10
10.0060230234
 20
9.1654210976
 11
10.0116970906
 21
8.8813484876
  0
LWPOLYLINE
  5
24D
100
AcDbEntity
  8
0
100
AcDbPolyline
 62
7
  6
CONTINUOUS
 90
4
 70
0
 10
9.9846774131
 20
10.8103057669
 10
9.9900680503
 20
10.5255711734
 10
9.9944808025
 20
10.1913751853
 10
9.9979741974
 20
9.8417055023
  0
LWPOLYLINE
  5
24E
100
AcDbEntity
  8
0
100
AcDbPolyline
 62
7
  6
CONTINUOUS
 90
3
 70
0
 10
9.9979741979
 20
9.841705431
 10
10.0014770061
 20
9.4965408422
 10
10.0060230234
 20
9.1654210976
  0
LINE
  5
24F
100
AcDbEntity
  8
0
100
AcDbLine
 62
7
  6
CONTINUOUS
 10
9.9846897705
 20
10.8117481038
 11
9.9846778003
 21
10.8102922869
  0
LINE
  5
250
100
AcDbEntity
  8
0
100
AcDbLine
 62
7
  6
CONTINUOUS
 10
10.4412393198
 20
3.8895658518
 11
10.4418383417
 21
3.8841257145
  0
LINE
  5
251
100
AcDbEntity
  8
0
100
AcDbLine
 62
7
  6
CONTINUOUS
 10
9.9846774131
 20
10.8103057669
 11
9.9846780479
 21
10.8102824134
  0
LWPOLYLINE
  5
252
100
AcDbEntity
  8
0
100
AcDbPolyline
 62
7
  6
CONTINUOUS
 90
4
 70
0
 10
10.4704313186
 20
10.7585625073
 10
10.4761225801
 20
10.4643717447
 10
10.4851492039
 20
10.1444773496
 10
10.4962524717
 20
9.832317306
  0
LINE
  5
253
100
AcDbEntity
  8
0
100
AcDbLine
 62
7
  6
CONTINUOUS
 10
10.4427123173
 20
4.2580249525
 11
10.4412377201
 21
3.889449402
  0
LWPOLYLINE
  5
254
100
AcDbEntity
  8
0
100
AcDbPolyline
 62
7
  6
CONTINUOUS
 90
3
 70
0
 10
10.4472866313
 20
5.0202590647
 10
10.4447633254
 20
4.6466394513
 10
10.4427123173
 20
4.2580249525
  0
LINE
  5
255
100
AcDbEntity
  8
0
100
AcDbLine
 62
7
  6
CONTINUOUS
 10
10.47051225
 20
10.7675177784
 11
10.4704313186
 21
10.7585625073
  0
LINE
  5
256
100
AcDbEntity
  8
0
100
AcDbLine
 62
9
  6
CONTINUOUS
 10
10.4412393068
 20
3.8895614031
 11
10.4412377201
 21
3.889449402
  0
LINE
  5
257
100
AcDbEntity
  8
0
100
AcDbLine
 62
7
  6
CONTINUOUS
 10
10.4709900956
 20
10.779712634
 11
10.47051225
 21
10.7675177784
  0
LINE
  5
258
100
AcDbEntity
  8
0
100
AcDbLine
 62
7
  6
CONTINUOUS
 10
10.4705649713
 20
10.7689745745
 11
10.4705645771
 21
10.7689650782
  0
LWPOLYLINE
  5
259
100
AcDbEntity
  8
0
100
AcDbPolyline
 62
7
  6
CONTINUOUS
 90
5
 70
0
 10
12.0681282237
 20
8.8621146771
 10
12.070134924
 20
8.8628628584
 10
12.0716992136
 20
8.8636257443
 10
12.0725234937
 20
8.8640971337
 10
12.072749329
 20
8.8642339244
  0
LINE
  5
25A
100
AcDbEntity
  8
0
100
AcDbLine
 62
7
  6
CONTINUOUS
 10
11.6442861095
 20
5.0334286349
 11
11.6389478282
 21
5.041014561
  0
LINE
  5
25B
100
AcDbEntity
  8
0
100
AcDbLine
 62
7
  6
CONTINUOUS
 10
11.6442861081
 20
5.0334286378
 11
11.6442687498
 21
5.0334650035
  0
LINE
  5
25C
100
AcDbEntity
  8
0
100
AcDbLine
 62
7
  6
CONTINUOUS
 10
10.0116976415
 20
8.8813254302
 11
10.0143093416
 21
8.8717065693
  0
LWPOLYLINE
  5
25D
100
AcDbEntity
  8
0
100
AcDbPolyline
 62
7
  6
CONTINUOUS
 90
3
 70
0
 10
10.5605222218
 20
8.7043959054
 10
10.5628103226
 20
8.6728205532
 10
10.5640186792
 20
8.6558061361
  0
LINE
  5
25E
100
AcDbEntity
  8
0
100
AcDbLine
 62
7
  6
CONTINUOUS
 10
10.5589030493
 20
8.7263884098
 11
10.5605222218
 21
8.7043959054
  0
LWPOLYLINE
  5
25F
100
AcDbEntity
  8
0
100
AcDbPolyline
 62
7
  6
CONTINUOUS
 90
5
 70
0
 10
10.5640182992
 20
8.655811887
 10
10.5912132247
 20
8.2557748494
 10
10.6149220839
 20
7.8559654302
 10
10.6328050276
 20
7.4571086988
 10
10.6464072434
 20
7.0578935281
  0
LWPOLYLINE
  5
260
100
AcDbEntity
  8
0
100
AcDbPolyline
 62
7
  6
CONTINUOUS
 90
4
 70
0
 10
10.5361377897
 20
9.0623276239
 10
10.5425627384
 20
8.9650043495
 10
10.5507590052
 20
8.8441375235
 10
10.5589036027
 20
8.7263805317
  0
LWPOLYLINE
  5
261
100
AcDbEntity
  8
0
100
AcDbPolyline
 62
7
  6
CONTINUOUS
 90
4
 70
0
 10
10.4962524185
 20
9.8323186588
 10
10.5063048447
 20
9.5974980147
 10
10.5198664483
 20
9.3310394674
 10
10.5361387119
 20
9.0623135876
  0
LWPOLYLINE
  5
262
100
AcDbEntity
  8
0
100
AcDbPolyline
 62
7
  6
CONTINUOUS
 90
6
 70
0
 10
10.6464072434
 20
7.0578935281
 10
10.6688272915
 20
6.2693823361
 10
10.6802527632
 20
5.8847762391
 10
10.6865170423
 20
5.5071361438
 10
10.6799748898
 20
5.1393331245
 10
10.6759334281
 20
5.0559494126
  0
LINE
  5
263
100
AcDbEntity
  8
0
100
AcDbLine
 62
7
  6
CONTINUOUS
 10
10.6678079844
 20
9.5058196828
 11
10.6678079844
 21
10.1848403904
  0
LINE
  5
264
100
AcDbEntity
  8
0
100
AcDbLine
 62
9
  6
CONTINUOUS
 10
10.6826547314
 20
10.1848403905
 11
10.6826547314
 21
9.5058196827
  0
LINE
  5
265
100
AcDbEntity
  8
0
100
AcDbLine
 62
9
  6
CONTINUOUS
 10
10.7078079844
 20
10.2248403905
 11
10.7078079844
 21
10.2099936435
  0
LINE
  5
266
100
AcDbEntity
  8
0
100
AcDbLine
 62
9
  6
CONTINUOUS
 10
10.7078079843
 20
9.4806664297
 11
10.7078079843
 21
9.4658196827
  0
LINE
  5
267
100
AcDbEntity
  8
0
100
AcDbLine
 62
9
  6
CONTINUOUS
 10
10.8902756049
 20
9.6934405561
 11
10.8902756051
 21
9.9972195156
  0
LINE
  5
268
100
AcDbEntity
  8
0
100
AcDbLine
 62
9
  6
CONTINUOUS
 10
10.8954288579
 20
10.0023727699
 11
10.8954288579
 21
9.6882873033
  0
LINE
  5
269
100
AcDbEntity
  8
0
100
AcDbLine
 62
9
  6
CONTINUOUS
 10
11.0473183382
 20
9.4658196827
 11
11.0473183382
 21
8.6141147175
  0
LINE
  5
26A
100
AcDbEntity
  8
0
100
AcDbLine
 62
7
  6
CONTINUOUS
 10
10.6757396877
 20
5.0524698005
 11
10.6759334281
 21
5.0559494126
  0
LINE
  5
26B
100
AcDbEntity
  8
0
100
AcDbLine
 62
7
  6
CONTINUOUS
 10
10.4476830844
 20
5.0250169562
 11
10.4472864483
 21
5.0202275904
  0
LINE
  5
26C
100
AcDbEntity
  8
0
100
AcDbLine
 62
9
  6
CONTINUOUS
 10
10.4488784818
 20
5.0261132889
 11
10.450262545
 21
5.0333524766
  0
LINE
  5
26D
100
AcDbEntity
  8
0
100
AcDbLine
 62
7
  6
CONTINUOUS
 10
10.6840273126
 20
5.3671623194
 11
10.6751827374
 21
5.3241340668
  0
LINE
  5
26E
100
AcDbEntity
  8
0
100
AcDbLine
 62
9
  6
CONTINUOUS
 10
10.4488784832
 20
5.0261132622
 11
10.4472866567
 21
5.0202575665
  0
LINE
  5
26F
100
AcDbEntity
  8
0
100
AcDbLine
 62
7
  6
CONTINUOUS
 10
12.0727133433
 20
8.86421198
 11
12.0794425357
 21
8.8708630768
  0
LINE
  5
270
100
AcDbEntity
  8
0
100
AcDbLine
 62
7
  6
CONTINUOUS
 10
11.4641853868
 20
5.1836435912
 11
11.4477741749
 21
5.2252141958
  0
LINE
  5
271
100
AcDbEntity
  8
0
100
AcDbLine
 62
7
  6
CONTINUOUS
 10
11.4477741749
 20
5.2252141958
 11
11.4326284611
 21
5.2727970457
  0
LINE
  5
272
100
AcDbEntity
  8
0
100
AcDbLine
 62
7
  6
CONTINUOUS
 10
11.6468835828
 20
5.0251995189
 11
11.6442772736
 21
5.033447195
  0
LINE
  5
273
100
AcDbEntity
  8
0
100
AcDbLine
 62
9
  6
CONTINUOUS
 10
11.647316419
 20
5.0202122259
 11
11.6456972866
 21
5.0261197709
  0
LWPOLYLINE
  5
274
100
AcDbEntity
  8
0
100
AcDbPolyline
 62
7
  6
CONTINUOUS
 90
3
 70
0
 10
11.4326284611
 20
5.2727970457
 10
11.4190566621
 20
5.3258920849
 10
11.4105293938
 20
5.3690175892
  0
LINE
  5
275
100
AcDbEntity
  8
0
100
AcDbLine
 62
7
  6
CONTINUOUS
 10
11.6473166277
 20
5.0201803681
 11
11.6468835828
 21
5.0251995189
  0
LINE
  5
276
100
AcDbEntity
  8
0
100
AcDbLine
 62
7
  6
CONTINUOUS
 10
11.419123465
 20
5.0484966259
 11
11.4189348889
 21
5.0518425367
  0
LWPOLYLINE
  5
277
100
AcDbEntity
  8
0
100
AcDbPolyline
 62
7
  6
CONTINUOUS
 90
11
 70
0
 10
11.4191234446
 20
5.0484995008
 10
11.4123642279
 20
5.2011638771
 10
11.4084046567
 20
5.5633921154
 10
11.4157277001
 20
5.9337551257
 10
11.4270598538
 20
6.3108718927
 10
11.4378739508
 20
6.6951535499
 10
11.4490637533
 20
7.0850838187
 10
11.4626295524
 20
7.4775886107
 10
11.4804408227
 20
7.8697586724
 10
11.5038927438
 20
8.2629321459
 10
11.5307262911
 20
8.6573252806
  0
LWPOLYLINE
  5
278
100
AcDbEntity
  8
0
100
AcDbPolyline
 62
7
  6
CONTINUOUS
 90
4
 70
0
 10
11.6533973557
 20
3.8894491231
 10
11.6519318033
 20
4.2484681404
 10
11.6498754264
 20
4.6370807179
 10
11.6473162254
 20
5.0202136762
  0
LINE
  5
279
100
AcDbEntity
  8
0
100
AcDbLine
 62
9
  6
CONTINUOUS
 10
11.1992078187
 20
9.6882873033
 11
11.1992078187
 21
10.0023727699
  0
LINE
  5
27A
100
AcDbEntity
  8
0
100
AcDbLine
 62
9
  6
CONTINUOUS
 10
11.2043610717
 20
9.9972195171
 11
11.2043610714
 21
9.6934405576
  0
LINE
  5
27B
100
AcDbEntity
  8
0
100
AcDbLine
 62
9
  6
CONTINUOUS
 10
11.3868286922
 20
9.4658196827
 11
11.3868286922
 21
9.4806664297
  0
LINE
  5
27C
100
AcDbEntity
  8
0
100
AcDbLine
 62
9
  6
CONTINUOUS
 10
11.3868286922
 20
10.2099936435
 11
11.3868286922
 21
10.2248403905
  0
LINE
  5
27D
100
AcDbEntity
  8
0
100
AcDbLine
 62
9
  6
CONTINUOUS
 10
11.4119819452
 20
9.5058196827
 11
11.4119819452
 21
10.1848403905
  0
LINE
  5
27E
100
AcDbEntity
  8
0
100
AcDbLine
 62
7
  6
CONTINUOUS
 10
11.4268286922
 20
10.1848403905
 11
11.4268286922
 21
9.5058196828
  0
LWPOLYLINE
  5
27F
100
AcDbEntity
  8
0
100
AcDbPolyline
 62
7
  6
CONTINUOUS
 90
4
 70
0
 10
11.5982214117
 20
9.8297354901
 10
11.6094344763
 20
10.1447503001
 10
11.618527166
 20
10.4656039654
 10
11.6241907984
 20
10.7585312298
  0
LWPOLYLINE
  5
280
100
AcDbEntity
  8
0
100
AcDbPolyline
 62
7
  6
CONTINUOUS
 90
4
 70
0
 10
11.5584819549
 20
9.0622531026
 10
11.5748034775
 20
9.3314692569
 10
11.5882898497
 20
9.5970432221
 10
11.5982215306
 20
9.8297385342
  0
LWPOLYLINE
  5
281
100
AcDbEntity
  8
0
100
AcDbPolyline
 62
7
  6
CONTINUOUS
 90
4
 70
0
 10
11.5357258835
 20
8.7262602498
 10
11.5439417831
 20
8.845151614
 10
11.5521357472
 20
8.9660458192
 10
11.5584827555
 20
9.0622653247
  0
LINE
  5
282
100
AcDbEntity
  8
0
100
AcDbLine
 62
7
  6
CONTINUOUS
 10
11.5307261095
 20
8.6573199163
 11
11.5320020669
 21
8.6752551329
  0
LINE
  5
283
100
AcDbEntity
  8
0
100
AcDbLine
 62
7
  6
CONTINUOUS
 10
11.5320020669
 20
8.6752551329
 11
11.5357230308
 21
8.7262192295
  0
LINE
  5
284
100
AcDbEntity
  8
0
100
AcDbLine
 62
7
  6
CONTINUOUS
 10
10.6751827374
 20
5.3241340668
 11
10.664851142
 21
5.2829278335
  0
LWPOLYLINE
  5
285
100
AcDbEntity
  8
0
100
AcDbPolyline
 62
7
  6
CONTINUOUS
 90
14
 70
0
 10
10.664851142
 20
5.2829278335
 10
10.6537551622
 20
5.2456656212
 10
10.6421675826
 20
5.2122839441
 10
10.6300925325
 20
5.1828307212
 10
10.6172571241
 20
5.1571537812
 10
10.6034453555
 20
5.1349356238
 10
10.5886074013
 20
5.1158087602
 10
10.5727501792
 20
5.099471719
 10
10.5559018973
 20
5.0856010101
 10
10.538406872
 20
5.0740068792
 10
10.5205533225
 20
5.0645550355
 10
10.5023748098
 20
5.0571295895
 10
10.4830470726
 20
5.0514833408
 10
10.4716053379
 20
5.0490913121
  0
LINE
  5
286
100
AcDbEntity
  8
0
100
AcDbLine
 62
7
  6
CONTINUOUS
 10
10.4502859652
 20
5.0334020566
 11
10.4476830844
 21
5.0250169562
  0
LWPOLYLINE
  5
287
100
AcDbEntity
  8
0
100
AcDbPolyline
 62
7
  6
CONTINUOUS
 90
3
 70
0
 10
12.0794425357
 20
8.8708630768
 10
12.0824967787
 20
8.879984971
 10
12.0825803874
 20
8.8815908692
  0
LINE
  5
288
100
AcDbEntity
  8
0
100
AcDbLine
 62
7
  6
CONTINUOUS
 10
10.450262545
 20
5.0333524766
 11
10.4502859537
 21
5.0334020323
  0
LINE
  5
289
100
AcDbEntity
  8
0
100
AcDbLine
 62
7
  6
CONTINUOUS
 10
10.0143093416
 20
8.8717065693
 11
10.0215545543
 21
8.8641931791
  0
LINE
  5
28A
100
AcDbEntity
  8
0
100
AcDbLine
 62
9
  6
CONTINUOUS
 10
11.6456972866
 20
5.0261197709
 11
11.6442861081
 21
5.0334286378
  0
LINE
  5
28B
100
AcDbEntity
  8
0
100
AcDbLine
 62
7
  6
CONTINUOUS
 10
11.6241057707
 20
10.76759146
 11
11.6236268524
 21
10.779717253
  0
LWPOLYLINE
  5
28C
100
AcDbEntity
  8
0
100
AcDbPolyline
 62
7
  6
CONTINUOUS
 90
3
 70
0
 10
12.1101216622
 20
10.8105771785
 10
12.1101048226
 20
10.8118516714
 10
12.1075387895
 20
10.8212572268
  0
LINE
  5
28D
100
AcDbEntity
  8
0
100
AcDbLine
 62
7
  6
CONTINUOUS
 10
11.6241908452
 20
10.758535895
 11
11.6241057707
 21
10.76759146
  0
LINE
  5
28E
100
AcDbEntity
  8
0
100
AcDbLine
 62
9
  6
CONTINUOUS
 10
12.1360731016
 20
8.8161794252
 11
12.1618986607
 21
10.8769113629
  0
LINE
  5
28F
100
AcDbEntity
  8
0
100
AcDbLine
 62
9
  6
CONTINUOUS
 10
12.1008844922
 20
8.8461868554
 11
12.127054386
 21
10.8449014639
  0
LINE
  5
290
100
AcDbEntity
  8
0
100
AcDbLine
 62
7
  6
CONTINUOUS
 10
12.0983874063
 20
10.7941132279
 11
12.0702646865
 21
8.8979141674
  0
LINE
  5
291
100
AcDbEntity
  8
0
100
AcDbLine
 62
7
  6
CONTINUOUS
 10
12.0821183602
 20
8.8818414864
 11
12.1105601306
 21
10.8109076495
  0
LINE
  5
292
100
AcDbEntity
  8
0
100
AcDbLine
 62
7
  6
CONTINUOUS
 10
12.0820897962
 20
8.8815891187
 11
12.0821183602
 21
8.8818414864
  0
LINE
  5
293
100
AcDbEntity
  8
0
100
AcDbLine
 62
7
  6
CONTINUOUS
 10
10.4552434584
 20
5.0406216773
 11
10.450262545
 21
5.0333524766
  0
LINE
  5
294
100
AcDbEntity
  8
0
100
AcDbLine
 62
7
  6
CONTINUOUS
 10
12.277706474
 20
8.5958745316
 11
11.5265453414
 21
8.595874671
  0
LINE
  5
295
100
AcDbEntity
  8
0
100
AcDbLine
 62
7
  6
CONTINUOUS
 10
10.5680928802
 20
8.5958748489
 11
9.8169039764
 21
8.5958749884
  0
LWPOLYLINE
  5
296
100
AcDbEntity
  8
0
100
AcDbPolyline
 62
7
  6
CONTINUOUS
 90
5
 70
0
 10
10.0242839508
 20
8.8627863756
 10
10.026258755
 20
8.8620706639
 10
10.0284304909
 20
8.8615408407
 10
10.030763463
 20
8.8612486966
 10
10.0320778574
 20
8.8612054579
  0
LWPOLYLINE
  5
297
100
AcDbEntity
  8
0
100
AcDbPolyline
 62
7
  6
CONTINUOUS
 90
4
 70
0
 10
10.0215658589
 20
8.8641863256
 10
10.0218243862
 20
8.8640313803
 10
10.0226981459
 20
8.863540639
 10
10.0242839508
 20
8.8627863756
  0
LINE
  5
298
100
AcDbEntity
  8
0
100
AcDbLine
 62
7
  6
CONTINUOUS
 10
10.0215545662
 20
8.8641931738
 11
10.0215658589
 21
8.8641863256
  0
LINE
  5
299
100
AcDbEntity
  8
0
100
AcDbLine
 62
7
  6
CONTINUOUS
 10
12.2977064512
 20
8.6158419624
 11
12.3017147622
 21
11.0772468872
  0
LINE
  5
29A
100
AcDbEntity
  8
0
100
AcDbLine
 62
7
  6
CONTINUOUS
 10
11.6523223813
 20
3.8824163317
 11
11.6533970994
 21
3.8894493303
  0
LINE
  5
29B
100
AcDbEntity
  8
0
100
AcDbLine
 62
7
  6
CONTINUOUS
 10
14.5223433251
 20
10.1159300155
 11
14.4312583722
 21
9.9701940909
  0
LINE
  5
29C
100
AcDbEntity
  8
0
100
AcDbLine
 62
9
  6
CONTINUOUS
 10
14.4309617348
 20
9.9393433942
 11
14.5163516191
 21
10.0759672091
  0
LWPOLYLINE
  5
29D
100
AcDbEntity
  8
0
100
AcDbPolyline
 62
7
  6
CONTINUOUS
 90
7
 70
0
 10
15.9727933016
 20
8.8999462637
 10
15.97439282
 20
8.9000177381
 10
15.9810469901
 20
8.9017705992
 10
15.9866944553
 20
8.9056563152
 10
15.9906984482
 20
8.9112212105
 10
15.9925907371
 20
8.9178373095
 10
15.9927021566
 20
8.919870005
  0
LWPOLYLINE
  5
29E
100
AcDbEntity
  8
0
100
AcDbPolyline
 62
7
  6
CONTINUOUS
 90
7
 70
0
 10
7.9727922244
 20
8.8999457499
 10
7.9743917545
 20
8.9000172167
 10
7.9810459336
 20
8.9017700598
 10
7.9866934006
 20
8.9056557796
 10
7.9906973754
 20
8.9112206907
 10
7.9925896212
 20
8.9178368055
 10
7.9927010226
 20
8.9198694377
  0
LWPOLYLINE
  5
29F
100
AcDbEntity
  8
0
100
AcDbPolyline
 62
7
  6
CONTINUOUS
 90
4
 70
0
 10
12.0621530737
 20
8.8612013858
 10
12.0635163429
 20
8.8612478899
 10
12.065906695
 20
8.8615567346
 10
12.0681282237
 20
8.8621146771
  0
LINE
  5
2A0
100
AcDbEntity
  8
0
100
AcDbLine
 62
7
  6
CONTINUOUS
 10
9.9761671209
 20
8.8021671501
 11
10.5536619633
 21
8.8021656991
  0
LINE
  5
2A1
100
AcDbEntity
  8
0
100
AcDbLine
 62
7
  6
CONTINUOUS
 10
11.5409711019
 20
8.8021632185
 11
12.118310344
 21
8.8021617679
  0
LINE
  5
2A2
100
AcDbEntity
  8
0
100
AcDbLine
 62
9
  6
CONTINUOUS
 10
9.99621806
 20
8.839921979
 11
10.5510506708
 21
8.839920536
  0
LINE
  5
2A3
100
AcDbEntity
  8
0
100
AcDbLine
 62
9
  6
CONTINUOUS
 10
11.5435801149
 20
8.8399179546
 11
12.0982579088
 21
8.8399165119
  0
LINE
  5
2A4
100
AcDbEntity
  8
0
100
AcDbLine
 62
7
  6
CONTINUOUS
 10
12.0621531611
 20
8.8612013862
 11
11.5450296744
 21
8.8612024237
  0
LINE
  5
2A5
100
AcDbEntity
  8
0
100
AcDbLine
 62
7
  6
CONTINUOUS
 10
10.5496016583
 20
8.8612044207
 11
10.0320778959
 21
8.861205459
  0
LINE
  5
2A6
100
AcDbEntity
  8
0
100
AcDbLine
 62
9
  6
CONTINUOUS
 10
12.055262522
 20
8.8784942705
 11
11.5462016903
 21
8.8784944124
  0
LINE
  5
2A7
100
AcDbEntity
  8
0
100
AcDbLine
 62
9
  6
CONTINUOUS
 10
10.548429164
 20
8.8784946906
 11
10.0391677821
 21
8.8784948326
  0
LWPOLYLINE
  5
2A8
100
AcDbEntity
  8
0
100
AcDbPolyline
 62
7
  6
CONTINUOUS
 90
4
 70
0
 10
6.1218731232
 20
8.8999459126
 10
6.738045143
 20
8.8982652048
 10
7.3592782739
 20
8.898277692
 10
7.97276438
 20
8.8999431031
  0
LWPOLYLINE
  5
2A9
100
AcDbEntity
  8
0
100
AcDbPolyline
 62
7
  6
CONTINUOUS
 90
4
 70
0
 10
14.1218717151
 20
8.8999447497
 10
14.7372726289
 20
8.8982716513
 10
15.3585078082
 20
8.8982714659
 10
15.9727654947
 20
8.8999439447
  0
LWPOLYLINE
  5
2AA
100
AcDbEntity
  8
0
100
AcDbPolyline
 62
7
  6
CONTINUOUS
 90
3
 70
0
 10
10.4714032185
 20
5.0490533841
 10
10.4647418073
 20
5.0470963402
 10
10.4552434584
 20
5.0406216773
  0
LINE
  5
2AB
100
AcDbEntity
  8
0
100
AcDbLine
 62
7
  6
CONTINUOUS
 10
17.9587551757
 20
9.4712246103
 11
17.9352822612
 21
9.4701644939
  0
LINE
  5
2AC
100
AcDbEntity
  8
0
100
AcDbLine
 62
7
  6
CONTINUOUS
 10
17.9753214746
 20
9.4816089893
 11
17.9519202808
 21
9.4805522354
  0
LINE
  5
2AD
100
AcDbEntity
  8
0
100
AcDbLine
 62
7
  6
CONTINUOUS
 10
17.9352822612
 20
9.4701644939
 11
17.9342038957
 21
9.4701449427
  0
LINE
  5
2AE
100
AcDbEntity
  8
0
100
AcDbLine
 62
7
  6
CONTINUOUS
 10
17.9346212627
 20
9.4701975723
 11
17.9348572145
 21
9.4702016704
  0
LINE
  5
2AF
100
AcDbEntity
  8
0
100
AcDbLine
 62
7
  6
CONTINUOUS
 10
17.9343627921
 20
9.4701954034
 11
17.9346212627
 21
9.4701975723
  0
LINE
  5
2B0
100
AcDbEntity
  8
0
100
AcDbLine
 62
7
  6
CONTINUOUS
 10
4.1613249356
 20
9.4701962299
 11
4.1632148551
 21
9.4702051191
  0
LINE
  5
2B1
100
AcDbEntity
  8
0
100
AcDbLine
 62
9
  6
CONTINUOUS
 10
17.9518340921
 20
9.5110232816
 11
17.9313145079
 21
9.5109961472
  0
LINE
  5
2B2
100
AcDbEntity
  8
0
100
AcDbLine
 62
7
  6
CONTINUOUS
 10
11.3868286921
 20
9.4658196827
 11
10.7078079845
 21
9.4658196827
  0
LINE
  5
2B3
100
AcDbEntity
  8
0
100
AcDbLine
 62
9
  6
CONTINUOUS
 10
10.7078079844
 20
9.4806664297
 11
11.3868286922
 21
9.4806664297
  0
LINE
  5
2B4
100
AcDbEntity
  8
0
100
AcDbLine
 62
9
  6
CONTINUOUS
 10
10.6678079844
 20
9.5058196827
 11
10.6826547314
 21
9.5058196827
  0
LINE
  5
2B5
100
AcDbEntity
  8
0
100
AcDbLine
 62
9
  6
CONTINUOUS
 10
11.4119819452
 20
9.5058196827
 11
11.4268286922
 21
9.5058196827
  0
LINE
  5
2B6
100
AcDbEntity
  8
0
100
AcDbLine
 62
7
  6
CONTINUOUS
 10
14.539303275
 20
9.5653300366
 11
15.6474159519
 21
9.5653344992
  0
LINE
  5
2B7
100
AcDbEntity
  8
0
100
AcDbLine
 62
9
  6
CONTINUOUS
 10
6.4503048443
 20
9.5853300326
 11
7.5550924569
 21
9.5853300366
  0
LINE
  5
2B8
100
AcDbEntity
  8
0
100
AcDbLine
 62
9
  6
CONTINUOUS
 10
7.5618268293
 20
9.6146928642
 11
7.5782850575
 21
9.6146928642
  0
LINE
  5
2B9
100
AcDbEntity
  8
0
100
AcDbLine
 62
9
  6
CONTINUOUS
 10
14.5163516191
 20
9.6146928792
 11
14.5328098473
 21
9.6146928792
  0
LINE
  5
2BA
100
AcDbEntity
  8
0
100
AcDbLine
 62
7
  6
CONTINUOUS
 10
17.9338477055
 20
9.470194867
 11
17.9343627921
 21
9.4701954034
  0
LINE
  5
2BB
100
AcDbEntity
  8
0
100
AcDbLine
 62
9
  6
CONTINUOUS
 10
4.1428026105
 20
9.5110232772
 11
4.1633221686
 21
9.5109961437
  0
LINE
  5
2BC
100
AcDbEntity
  8
0
100
AcDbLine
 62
7
  6
CONTINUOUS
 10
6.4473312956
 20
9.5653341903
 11
7.5553334067
 21
9.5653300366
  0
LINE
  5
2BD
100
AcDbEntity
  8
0
100
AcDbLine
 62
7
  6
CONTINUOUS
 10
17.9315036024
 20
9.4702045079
 11
17.9338477055
 21
9.470194867
  0
LINE
  5
2BE
100
AcDbEntity
  8
0
100
AcDbLine
 62
7
  6
CONTINUOUS
 10
17.9315036018
 20
9.4702044973
 11
17.9314218251
 21
9.4702051083
  0
LINE
  5
2BF
100
AcDbEntity
  8
0
100
AcDbLine
 62
7
  6
CONTINUOUS
 10
4.1597675271
 20
9.4701500892
 11
4.1604327811
 21
9.4701449115
  0
LWPOLYLINE
  5
2C0
100
AcDbEntity
  8
0
100
AcDbPolyline
 62
7
  6
CONTINUOUS
 90
5
 70
0
 10
4.1597825909
 20
9.4702016005
 10
4.1600812702
 20
9.4701968209
 10
4.1603054134
 20
9.470195262
 10
4.1605165586
 20
9.4701947639
 10
4.1613249356
 20
9.4701962299
  0
LINE
  5
2C1
100
AcDbEntity
  8
0
100
AcDbLine
 62
7
  6
CONTINUOUS
 10
4.1593544324
 20
9.4701644629
 11
4.1597675271
 21
9.4701500892
  0
LINE
  5
2C2
100
AcDbEntity
  8
0
100
AcDbLine
 62
7
  6
CONTINUOUS
 10
4.1427163958
 20
9.4805522354
 11
4.119315202
 21
9.4816089893
  0
LINE
  5
2C3
100
AcDbEntity
  8
0
100
AcDbLine
 62
7
  6
CONTINUOUS
 10
4.1358526263
 20
9.4712260083
 11
4.1593544324
 21
9.4701644629
  0
LINE
  5
2C4
100
AcDbEntity
  8
0
100
AcDbLine
 62
9
  6
CONTINUOUS
 10
10.6885125958
 20
10.1989825261
 11
10.8902756051
 21
9.9972195156
  0
LINE
  5
2C5
100
AcDbEntity
  8
0
100
AcDbLine
 62
9
  6
CONTINUOUS
 10
11.1992078188
 20
9.6882873032
 11
11.4009708278
 21
9.4865242941
  0
LINE
  5
2C6
100
AcDbEntity
  8
0
100
AcDbLine
 62
9
  6
CONTINUOUS
 10
11.4061240808
 20
9.4916775471
 11
11.2043610714
 21
9.6934405576
  0
LINE
  5
2C7
100
AcDbEntity
  8
0
100
AcDbLine
 62
9
  6
CONTINUOUS
 10
10.8954288578
 20
10.00237277
 11
10.6936658488
 21
10.2041357791
  0
LINE
  5
2C8
100
AcDbEntity
  8
0
100
AcDbLine
 62
7
  6
CONTINUOUS
 10
12.1087364551
 20
10.8120787649
 11
12.1087374918
 21
10.8120753038
  0
LINE
  5
2C9
100
AcDbEntity
  8
0
100
AcDbLine
 62
7
  6
CONTINUOUS
 10
11.6478073755
 20
3.8745528023
 11
11.6523223813
 21
3.8824163317
  0
LWPOLYLINE
  5
2CA
100
AcDbEntity
  8
0
100
AcDbPolyline
 62
7
  6
CONTINUOUS
 90
5
 70
0
 10
4.1632188566
 20
9.470205146
 10
4.6806838074
 20
9.4858281588
 10
5.2380711425
 20
9.5172021867
 10
5.8291053772
 20
9.5503436171
 10
6.4474065402
 20
9.5653339843
  0
LWPOLYLINE
  5
2CB
100
AcDbEntity
  8
0
100
AcDbPolyline
 62
7
  6
CONTINUOUS
 90
5
 70
0
 10
17.9314178199
 20
10.2204549273
 10
17.4139528692
 20
10.2048319145
 10
16.856565534
 20
10.1734578865
 10
16.2655312994
 20
10.1403164561
 10
15.6472301364
 20
10.125326089
  0
LINE
  5
2CC
100
AcDbEntity
  8
0
100
AcDbLine
 62
9
  6
CONTINUOUS
 10
9.9802876523
 20
9.841621609
 11
9.9979733961
 21
9.8417857007
  0
LINE
  5
2CD
100
AcDbEntity
  8
0
100
AcDbLine
 62
7
  6
CONTINUOUS
 10
17.933311741
 20
10.2204638433
 11
17.9314218214
 21
10.2204549541
  0
LINE
  5
2CE
100
AcDbEntity
  8
0
100
AcDbLine
 62
9
  6
CONTINUOUS
 10
4.1428025844
 20
10.1796367916
 11
4.1633221686
 21
10.1796639261
  0
LINE
  5
2CF
100
AcDbEntity
  8
0
100
AcDbLine
 62
9
  6
CONTINUOUS
 10
11.1992078188
 20
9.6882873032
 11
10.8954288593
 21
9.6882873035
  0
LINE
  5
2D0
100
AcDbEntity
  8
0
100
AcDbLine
 62
9
  6
CONTINUOUS
 10
10.890275605
 20
9.6934405562
 11
11.2043610716
 21
9.6934405562
  0
LINE
  5
2D1
100
AcDbEntity
  8
0
100
AcDbLine
 62
9
  6
CONTINUOUS
 10
18.0962018998
 20
9.7158264289
 11
18.0893576152
 21
9.7158264289
  0
LINE
  5
2D2
100
AcDbEntity
  8
0
100
AcDbLine
 62
9
  6
CONTINUOUS
 10
4.0052790613
 20
9.7158264289
 11
3.9984347767
 21
9.7158264289
  0
LINE
  5
2D3
100
AcDbEntity
  8
0
100
AcDbLine
 62
9
  6
CONTINUOUS
 10
3.9959572035
 20
9.7254708505
 11
4.0028014881
 21
9.7254708505
  0
LINE
  5
2D4
100
AcDbEntity
  8
0
100
AcDbLine
 62
9
  6
CONTINUOUS
 10
18.0918351885
 20
9.7254708505
 11
18.0986794731
 21
9.7254708505
  0
LINE
  5
2D5
100
AcDbEntity
  8
0
100
AcDbLine
 62
9
  6
CONTINUOUS
 10
4.0034578363
 20
9.7447596939
 11
4.0062635837
 21
9.7447596939
  0
LINE
  5
2D6
100
AcDbEntity
  8
0
100
AcDbLine
 62
9
  6
CONTINUOUS
 10
3.9952892733
 20
9.7447596939
 11
3.9953008552
 21
9.7447596939
  0
LINE
  5
2D7
100
AcDbEntity
  8
0
100
AcDbLine
 62
9
  6
CONTINUOUS
 10
18.0883730929
 20
9.7447596939
 11
18.0911788403
 21
9.7447596939
  0
LINE
  5
2D8
100
AcDbEntity
  8
0
100
AcDbLine
 62
9
  6
CONTINUOUS
 10
18.0993358213
 20
9.7447596939
 11
18.0993474033
 21
9.7447596939
  0
LINE
  5
2D9
100
AcDbEntity
  8
0
100
AcDbLine
 62
9
  6
CONTINUOUS
 10
7.6636749418
 20
9.7513166787
 11
7.6664183383
 21
9.7513166787
  0
LINE
  5
2DA
100
AcDbEntity
  8
0
100
AcDbLine
 62
9
  6
CONTINUOUS
 10
14.4282183383
 20
9.7513166791
 11
14.4309617348
 21
9.7513166791
  0
LINE
  5
2DB
100
AcDbEntity
  8
0
100
AcDbLine
 62
9
  6
CONTINUOUS
 10
4.1427605366
 20
9.8453300366
 11
6.4488183278
 21
9.8453300366
  0
LINE
  5
2DC
100
AcDbEntity
  8
0
100
AcDbLine
 62
9
  6
CONTINUOUS
 10
15.6458183487
 20
9.8453300366
 11
17.9518761399
 21
9.8453300366
  0
LINE
  5
2DD
100
AcDbEntity
  8
0
100
AcDbLine
 62
9
  6
CONTINUOUS
 10
14.4309617348
 20
9.9393433945
 11
14.4282183383
 21
9.9393433945
  0
LINE
  5
2DE
100
AcDbEntity
  8
0
100
AcDbLine
 62
9
  6
CONTINUOUS
 10
7.6664183383
 20
9.9393433942
 11
7.6636749418
 21
9.9393433942
  0
LINE
  5
2DF
100
AcDbEntity
  8
0
100
AcDbLine
 62
9
  6
CONTINUOUS
 10
18.0911788403
 20
9.9459003793
 11
18.0883730929
 21
9.9459003793
  0
LINE
  5
2E0
100
AcDbEntity
  8
0
100
AcDbLine
 62
9
  6
CONTINUOUS
 10
18.0993474033
 20
9.9459003794
 11
18.0993358213
 21
9.9459003794
  0
LINE
  5
2E1
100
AcDbEntity
  8
0
100
AcDbLine
 62
9
  6
CONTINUOUS
 10
4.0062635837
 20
9.9459003794
 11
4.0034578363
 21
9.9459003794
  0
LINE
  5
2E2
100
AcDbEntity
  8
0
100
AcDbLine
 62
9
  6
CONTINUOUS
 10
3.9953008552
 20
9.9459003793
 11
3.9952892733
 21
9.9459003793
  0
LINE
  5
2E3
100
AcDbEntity
  8
0
100
AcDbLine
 62
9
  6
CONTINUOUS
 10
18.0986794731
 20
9.9651892227
 11
18.0918351885
 21
9.9651892227
  0
LINE
  5
2E4
100
AcDbEntity
  8
0
100
AcDbLine
 62
9
  6
CONTINUOUS
 10
4.0028014881
 20
9.9651892227
 11
3.9959572035
 21
9.9651892227
  0
LINE
  5
2E5
100
AcDbEntity
  8
0
100
AcDbLine
 62
9
  6
CONTINUOUS
 10
3.9984347767
 20
9.9748336444
 11
4.0052790613
 21
9.9748336444
  0
LINE
  5
2E6
100
AcDbEntity
  8
0
100
AcDbLine
 62
9
  6
CONTINUOUS
 10
18.0893576152
 20
9.9748336444
 11
18.0962018998
 21
9.9748336444
  0
LINE
  5
2E7
100
AcDbEntity
  8
0
100
AcDbLine
 62
9
  6
CONTINUOUS
 10
11.2043610716
 20
9.997219517
 11
10.890275605
 21
9.997219517
  0
LINE
  5
2E8
100
AcDbEntity
  8
0
100
AcDbLine
 62
9
  6
CONTINUOUS
 10
10.8954288578
 20
10.00237277
 11
11.1992078173
 21
10.0023727698
  0
LINE
  5
2E9
100
AcDbEntity
  8
0
100
AcDbLine
 62
9
  6
CONTINUOUS
 10
14.5328098473
 20
10.075967209
 11
14.5163516191
 21
10.075967209
  0
LINE
  5
2EA
100
AcDbEntity
  8
0
100
AcDbLine
 62
9
  6
CONTINUOUS
 10
7.5782850575
 20
10.0759671941
 11
7.5618268293
 21
10.0759671941
  0
LINE
  5
2EB
100
AcDbEntity
  8
0
100
AcDbLine
 62
9
  6
CONTINUOUS
 10
15.6443318322
 20
10.1053300407
 11
14.5395442197
 21
10.1053300366
  0
LINE
  5
2EC
100
AcDbEntity
  8
0
100
AcDbLine
 62
7
  6
CONTINUOUS
 10
7.5553333855
 20
10.1253300366
 11
6.4472207247
 21
10.1253255741
  0
LINE
  5
2ED
100
AcDbEntity
  8
0
100
AcDbLine
 62
9
  6
CONTINUOUS
 10
11.4268286922
 20
10.1848403905
 11
11.4119819452
 21
10.1848403905
  0
LINE
  5
2EE
100
AcDbEntity
  8
0
100
AcDbLine
 62
9
  6
CONTINUOUS
 10
10.6826547314
 20
10.1848403906
 11
10.6678079844
 21
10.1848403906
  0
LINE
  5
2EF
100
AcDbEntity
  8
0
100
AcDbLine
 62
9
  6
CONTINUOUS
 10
17.9518340661
 20
10.1796367961
 11
17.9313145079
 21
10.1796639295
  0
LINE
  5
2F0
100
AcDbEntity
  8
0
100
AcDbLine
 62
7
  6
CONTINUOUS
 10
15.647305381
 20
10.125325883
 11
14.5393032911
 21
10.1253300366
  0
LINE
  5
2F1
100
AcDbEntity
  8
0
100
AcDbLine
 62
7
  6
CONTINUOUS
 10
4.1615107917
 20
10.2204631755
 11
4.1632148515
 21
10.220454965
  0
LWPOLYLINE
  5
2F2
100
AcDbEntity
  8
0
100
AcDbPolyline
 62
7
  6
CONTINUOUS
 90
5
 70
0
 10
15.6473123686
 20
9.5653342084
 10
16.2661438261
 20
9.5503154994
 10
16.8572075195
 20
9.517163021
 10
17.4145628057
 20
9.4857995523
 10
17.9314178257
 20
9.4702051324
  0
LWPOLYLINE
  5
2F3
100
AcDbEntity
  8
0
100
AcDbPolyline
 62
7
  6
CONTINUOUS
 90
5
 70
0
 10
6.4473243079
 20
10.1253258648
 10
5.8284928505
 20
10.1403445738
 10
5.2374291571
 20
10.1734970522
 10
4.6800738709
 20
10.2048605209
 10
4.1632188509
 20
10.2204549408
  0
LWPOLYLINE
  5
2F4
100
AcDbEntity
  8
0
100
AcDbPolyline
 62
7
  6
CONTINUOUS
 90
7
 70
0
 10
14.1019338189
 20
8.9198553585
 10
14.1020052755
 20
8.9182558078
 10
14.1037580839
 20
8.9116015627
 10
14.1076437876
 20
8.9059540187
 10
14.113208706
 20
8.90194996
 10
14.1198248539
 20
8.9000576309
 10
14.1218575217
 20
8.8999462061
  0
LWPOLYLINE
  5
2F5
100
AcDbEntity
  8
0
100
AcDbPolyline
 62
7
  6
CONTINUOUS
 90
4
 70
0
 10
14.1019341981
 20
10.7707764336
 10
14.1002535126
 20
10.1546056152
 10
14.100265985
 20
9.5333717505
 10
14.1019313895
 20
8.9198831605
  0
LINE
  5
2F6
100
AcDbEntity
  8
0
100
AcDbLine
 62
7
  6
CONTINUOUS
 10
4.119315202
 20
10.2090510839
 11
4.1427163958
 21
10.2101078378
  0
LINE
  5
2F7
100
AcDbEntity
  8
0
100
AcDbLine
 62
7
  6
CONTINUOUS
 10
4.1358815008
 20
10.2194354629
 11
4.1593544154
 21
10.2204955793
  0
LWPOLYLINE
  5
2F8
100
AcDbEntity
  8
0
100
AcDbPolyline
 62
7
  6
CONTINUOUS
 90
7
 70
0
 10
14.1218444522
 20
10.7907143233
 10
14.1202449221
 20
10.7906428565
 10
14.113590743
 20
10.7888900135
 10
14.107943276
 20
10.7850042936
 10
14.1039393011
 20
10.7794393826
 10
14.1020470554
 20
10.7728232677
 10
14.101935654
 20
10.7707906356
  0
LINE
  5
2F9
100
AcDbEntity
  8
0
100
AcDbLine
 62
7
  6
CONTINUOUS
 10
4.1593544154
 20
10.2204955793
 11
4.1604327809
 21
10.2205151306
  0
LINE
  5
2FA
100
AcDbEntity
  8
0
100
AcDbLine
 62
7
  6
CONTINUOUS
 10
4.1600154138
 20
10.220462501
 11
4.1597794621
 21
10.2204584029
  0
LINE
  5
2FB
100
AcDbEntity
  8
0
100
AcDbLine
 62
7
  6
CONTINUOUS
 10
4.1602738844
 20
10.2204646698
 11
4.1600154138
 21
10.220462501
  0
LINE
  5
2FC
100
AcDbEntity
  8
0
100
AcDbLine
 62
9
  6
CONTINUOUS
 10
11.3868286922
 20
10.2099936435
 11
10.7078079844
 21
10.2099936435
  0
LINE
  5
2FD
100
AcDbEntity
  8
0
100
AcDbLine
 62
7
  6
CONTINUOUS
 10
10.7078079845
 20
10.2248403905
 11
11.3868286921
 21
10.2248403905
  0
LINE
  5
2FE
100
AcDbEntity
  8
0
100
AcDbLine
 62
7
  6
CONTINUOUS
 10
4.160788971
 20
10.2204652062
 11
4.1602738844
 21
10.2204646698
  0
LINE
  5
2FF
100
AcDbEntity
  8
0
100
AcDbLine
 62
7
  6
CONTINUOUS
 10
4.1615107917
 20
10.2204631755
 11
4.160788971
 21
10.2204652062
  0
LINE
  5
300
100
AcDbEntity
  8
0
100
AcDbLine
 62
7
  6
CONTINUOUS
 10
17.9348691494
 20
10.2205099841
 11
17.9342038955
 21
10.2205151617
  0
LWPOLYLINE
  5
301
100
AcDbEntity
  8
0
100
AcDbPolyline
 62
7
  6
CONTINUOUS
 90
5
 70
0
 10
17.9348540857
 20
10.2204584727
 10
17.9345554064
 20
10.2204632524
 10
17.9343312632
 20
10.2204648112
 10
17.9341201179
 20
10.2204653094
 10
17.933311741
 20
10.2204638433
  0
LINE
  5
302
100
AcDbEntity
  8
0
100
AcDbLine
 62
7
  6
CONTINUOUS
 10
17.9352822441
 20
10.2204956103
 11
17.9348691494
 21
10.2205099841
  0
LINE
  5
303
100
AcDbEntity
  8
0
100
AcDbLine
 62
7
  6
CONTINUOUS
 10
17.9519202808
 20
10.2101078378
 11
17.9753214746
 21
10.2090510839
  0
LINE
  5
304
100
AcDbEntity
  8
0
100
AcDbLine
 62
7
  6
CONTINUOUS
 10
17.9587840502
 20
10.219434065
 11
17.9352822441
 21
10.2204956103
  0
LINE
  5
305
100
AcDbEntity
  8
0
100
AcDbLine
 62
7
  6
CONTINUOUS
 10
12.1075387895
 20
10.8212572268
 11
12.1010109838
 21
10.8285449696
  0
LINE
  5
306
100
AcDbEntity
  8
0
100
AcDbLine
 62
7
  6
CONTINUOUS
 10
14.4282183383
 20
9.7310659611
 11
14.4282183383
 21
9.9595941121
  0
LINE
  5
307
100
AcDbEntity
  8
0
100
AcDbLine
 62
9
  6
CONTINUOUS
 10
14.4309617348
 20
9.9393433942
 11
14.4309617348
 21
9.7513166791
  0
LINE
  5
308
100
AcDbEntity
  8
0
100
AcDbLine
 62
9
  6
CONTINUOUS
 10
14.5163516191
 20
9.6146928642
 11
14.5163516191
 21
10.0759672091
  0
LINE
  5
309
100
AcDbEntity
  8
0
100
AcDbLine
 62
9
  6
CONTINUOUS
 10
14.5328098473
 20
9.6146928642
 11
14.5328098473
 21
10.075967209
  0
LINE
  5
30A
100
AcDbEntity
  8
0
100
AcDbLine
 62
7
  6
CONTINUOUS
 10
11.6406569673
 20
3.8693424824
 11
11.6478073755
 21
3.8745528023
  0
LWPOLYLINE
  5
30B
100
AcDbEntity
  8
0
100
AcDbPolyline
 62
7
  6
CONTINUOUS
 90
5
 70
0
 10
10.0057732989
 20
10.832344368
 10
10.0038775892
 20
10.8322547533
 10
10.0004344905
 20
10.8316237683
 10
9.9976311735
 20
10.8306350015
 10
9.9965026788
 20
10.8301117526
  0
LWPOLYLINE
  5
30C
100
AcDbEntity
  8
0
100
AcDbPolyline
 62
7
  6
CONTINUOUS
 90
7
 70
0
 10
6.1218433749
 20
10.7907138095
 10
6.1202438566
 20
10.7906423351
 10
6.1135896865
 20
10.788889474
 10
6.1079422212
 20
10.7850037581
 10
6.1039382284
 20
10.7794388628
 10
6.1020459395
 20
10.7728227638
 10
6.10193452
 20
10.7707900682
  0
LINE
  5
30D
100
AcDbEntity
  8
0
100
AcDbLine
 62
9
  6
CONTINUOUS
 10
10.4909634372
 20
10.7871478253
 11
11.6036528673
 21
10.7871423899
  0
LINE
  5
30E
100
AcDbEntity
  8
0
100
AcDbLine
 62
7
  6
CONTINUOUS
 10
10.4909748626
 20
10.7989102938
 11
11.6036422895
 21
10.7989099992
  0
LINE
  5
30F
100
AcDbEntity
  8
0
100
AcDbLine
 62
9
  6
CONTINUOUS
 10
10.00988216
 20
10.8156755591
 11
12.0848218567
 21
10.815674891
  0
LINE
  5
310
100
AcDbEntity
  8
0
100
AcDbLine
 62
7
  6
CONTINUOUS
 10
10.00579209
 20
10.8323389364
 11
12.0890631707
 21
10.8323381039
  0
LINE
  5
311
100
AcDbEntity
  8
0
100
AcDbLine
 62
9
  6
CONTINUOUS
 10
12.1247672717
 20
10.853406433
 11
9.9698603501
 21
10.853407324
  0
LINE
  5
312
100
AcDbEntity
  8
0
100
AcDbLine
 62
9
  6
CONTINUOUS
 10
12.1431553464
 20
10.8909244414
 11
9.9514525638
 21
10.8909254005
  0
LINE
  5
313
100
AcDbEntity
  8
0
100
AcDbLine
 62
7
  6
CONTINUOUS
 10
9.8129137478
 20
11.0972794941
 11
12.2817147891
 21
11.0972794564
  0
LWPOLYLINE
  5
314
100
AcDbEntity
  8
0
100
AcDbPolyline
 62
7
  6
CONTINUOUS
 90
4
 70
0
 10
7.9727649614
 20
10.7907153235
 10
7.3573640477
 20
10.7923884219
 10
6.7361288683
 20
10.7923886073
 10
6.1218711819
 20
10.7907161286
  0
LWPOLYLINE
  5
315
100
AcDbEntity
  8
0
100
AcDbPolyline
 62
7
  6
CONTINUOUS
 90
4
 70
0
 10
15.9727635534
 20
10.7907141606
 10
15.3565915336
 20
10.7923948684
 10
14.7353584027
 20
10.7923823812
 10
14.1218722966
 20
10.7907169701
  0
LWPOLYLINE
  5
316
100
AcDbEntity
  8
0
100
AcDbPolyline
 62
7
  6
CONTINUOUS
 90
5
 70
0
 10
12.0982260785
 20
10.830173055
 10
12.0968667722
 20
10.8307850486
 10
12.09407245
 20
10.8317150862
 10
12.0908089606
 20
10.8322691711
 10
12.0890818431
 20
10.8323435383
  0
LINE
  5
317
100
AcDbEntity
  8
0
100
AcDbLine
 62
7
  6
CONTINUOUS
 10
12.0984005097
 20
10.8300871743
 11
12.0982260785
 21
10.830173055
  0
LINE
  5
318
100
AcDbEntity
  8
0
100
AcDbLine
 62
7
  6
CONTINUOUS
 10
12.1010109838
 20
10.8285449696
 11
12.0984005015
 21
10.8300871821
  0
LINE
  5
319
100
AcDbEntity
  8
0
100
AcDbLine
 62
7
  6
CONTINUOUS
 10
14.4312583722
 20
9.7204659823
 11
14.522343325
 21
9.5747300578
  0
LINE
  5
31A
100
AcDbEntity
  8
0
100
AcDbLine
 62
9
  6
CONTINUOUS
 10
14.5163516191
 20
9.6146928642
 11
14.4309617348
 21
9.7513166791
  0
LINE
  5
31B
100
AcDbEntity
  8
0
100
AcDbLine
 62
9
  6
CONTINUOUS
 10
15.6458183487
 20
9.5853340236
 11
15.6458183848
 21
10.1053280568
  0
LINE
  5
31C
100
AcDbEntity
  8
0
100
AcDbLine
 62
9
  6
CONTINUOUS
 10
17.9753214746
 20
9.4816089893
 11
17.975621327
 21
9.4820842306
  0
LWPOLYLINE
  5
31D
100
AcDbEntity
  8
0
100
AcDbPolyline
 62
7
  6
CONTINUOUS
 90
7
 70
0
 10
15.9927013125
 20
10.7708038677
 10
15.9926298561
 20
10.7724033145
 10
15.9908770922
 20
10.7790574221
 10
15.986991495
 20
10.7847048671
 10
15.9814267228
 20
10.7887088881
 10
15.9748107332
 20
10.7906012533
 10
15.9727778689
 20
10.7907127044
  0
LWPOLYLINE
  5
31E
100
AcDbEntity
  8
0
100
AcDbPolyline
 62
7
  6
CONTINUOUS
 90
3
 70
0
 10
15.994417021
 20
10.12689888
 10
15.9937890519
 20
10.4349328899
 10
15.9927036119
 20
10.7707760361
  0
LWPOLYLINE
  5
31F
100
AcDbEntity
  8
0
100
AcDbPolyline
 62
7
  6
CONTINUOUS
 90
3
 70
0
 10
15.9927036129
 20
8.9198842544
 10
15.9937875913
 20
9.2551786697
 10
15.9944033969
 20
9.5569104945
  0
LINE
  5
320
100
AcDbEntity
  8
0
100
AcDbLine
 62
9
  6
CONTINUOUS
 10
18.0962018998
 20
9.7158264289
 11
17.9753214746
 21
9.4816089893
  0
LINE
  5
321
100
AcDbEntity
  8
0
100
AcDbLine
 62
7
  6
CONTINUOUS
 10
18.0965347468
 20
9.7163656002
 11
17.9756230915
 21
9.4820876494
  0
LINE
  5
322
100
AcDbEntity
  8
0
100
AcDbLine
 62
9
  6
CONTINUOUS
 10
18.0883730929
 20
9.7447596939
 11
17.9518340657
 21
9.5110232814
  0
LINE
  5
323
100
AcDbEntity
  8
0
100
AcDbLine
 62
9
  6
CONTINUOUS
 10
17.9519202808
 20
9.4805522354
 11
18.0893576152
 21
9.7158264289
  0
LINE
  5
324
100
AcDbEntity
  8
0
100
AcDbLine
 62
7
  6
CONTINUOUS
 10
17.9753279809
 20
9.4816050108
 11
17.9756230985
 21
9.4820876415
  0
LINE
  5
325
100
AcDbEntity
  8
0
100
AcDbLine
 62
9
  6
CONTINUOUS
 10
18.0965364438
 20
9.7163688882
 11
18.0962018998
 21
9.7158264289
  0
LINE
  5
326
100
AcDbEntity
  8
0
100
AcDbLine
 62
7
  6
CONTINUOUS
 10
18.0965345511
 20
9.7163651816
 11
18.0977042266
 21
9.7191034366
  0
LWPOLYLINE
  5
327
100
AcDbEntity
  8
0
100
AcDbPolyline
 62
7
  6
CONTINUOUS
 90
3
 70
0
 10
18.0977042266
 20
9.7191034366
 10
18.0985313049
 20
9.7222688829
 10
18.0988706108
 20
9.7247154874
  0
LINE
  5
328
100
AcDbEntity
  8
0
100
AcDbLine
 62
7
  6
CONTINUOUS
 10
18.0988706108
 20
9.7247154874
 11
18.0990524167
 21
9.7271452261
  0
LWPOLYLINE
  5
329
100
AcDbEntity
  8
0
100
AcDbPolyline
 62
7
  6
CONTINUOUS
 90
4
 70
0
 10
18.0992792712
 20
9.9561374313
 10
18.0991882379
 20
9.9602277638
 10
18.0990591187
 20
9.9633933176
 10
18.0988797375
 20
9.9658517117
  0
LINE
  5
32A
100
AcDbEntity
  8
0
100
AcDbLine
 62
7
  6
CONTINUOUS
 10
18.0993307789
 20
9.9513546528
 11
18.0992792712
 21
9.9561374313
  0
LINE
  5
32B
100
AcDbEntity
  8
0
100
AcDbLine
 62
9
  6
CONTINUOUS
 10
18.0883730929
 20
9.7447596939
 11
18.0883730929
 21
9.9459003793
  0
LINE
  5
32C
100
AcDbEntity
  8
0
100
AcDbLine
 62
9
  6
CONTINUOUS
 10
18.0911788403
 20
9.9459003793
 11
18.0911788403
 21
9.7447596939
  0
LINE
  5
32D
100
AcDbEntity
  8
0
100
AcDbLine
 62
9
  6
CONTINUOUS
 10
18.0993358213
 20
9.7447596939
 11
18.0993358213
 21
9.9459003793
  0
LWPOLYLINE
  5
32E
100
AcDbEntity
  8
0
100
AcDbPolyline
 62
7
  6
CONTINUOUS
 90
4
 70
0
 10
18.0992753587
 20
9.734279875
 10
18.0993286925
 20
9.7389979776
 10
18.0993472047
 20
9.7441266829
 10
18.0993307789
 20
9.9513546528
  0
LWPOLYLINE
  5
32F
100
AcDbEntity
  8
0
100
AcDbPolyline
 62
7
  6
CONTINUOUS
 90
3
 70
0
 10
18.0990524167
 20
9.7271452261
 10
18.099182803
 20
9.7302560223
 10
18.0992753587
 20
9.734279875
  0
LINE
  5
330
100
AcDbEntity
  8
0
100
AcDbLine
 62
9
  6
CONTINUOUS
 10
17.9756207624
 20
10.2085769367
 11
17.9753214746
 21
10.2090510839
  0
LINE
  5
331
100
AcDbEntity
  8
0
100
AcDbLine
 62
9
  6
CONTINUOUS
 10
18.0962018998
 20
9.9748336444
 11
18.0965357593
 21
9.9742925113
  0
LINE
  5
332
100
AcDbEntity
  8
0
100
AcDbLine
 62
9
  6
CONTINUOUS
 10
17.9518340657
 20
10.1796367918
 11
18.0883730929
 21
9.9459003793
  0
LINE
  5
333
100
AcDbEntity
  8
0
100
AcDbLine
 62
9
  6
CONTINUOUS
 10
18.0893576152
 20
9.9748336444
 11
17.9519202808
 21
10.2101078378
  0
LWPOLYLINE
  5
334
100
AcDbEntity
  8
0
100
AcDbPolyline
 62
7
  6
CONTINUOUS
 90
3
 70
0
 10
17.9756232263
 20
10.2085722258
 10
17.9749358865
 20
10.2097965886
 10
17.9729364248
 20
10.2125307336
  0
LINE
  5
335
100
AcDbEntity
  8
0
100
AcDbLine
 62
9
  6
CONTINUOUS
 10
17.9753214746
 20
10.2090510839
 11
18.0962018998
 21
9.9748336444
  0
LINE
  5
336
100
AcDbEntity
  8
0
100
AcDbLine
 62
7
  6
CONTINUOUS
 10
18.0965347466
 20
9.9742944735
 11
17.9756230252
 21
10.2085725524
  0
LINE
  5
337
100
AcDbEntity
  8
0
100
AcDbLine
 62
7
  6
CONTINUOUS
 10
18.0977287686
 20
9.9714849344
 11
18.0965346639
 21
9.9742946747
  0
LINE
  5
338
100
AcDbEntity
  8
0
100
AcDbLine
 62
7
  6
CONTINUOUS
 10
18.0985477485
 20
9.9683014287
 11
18.0977287686
 21
9.9714849344
  0
LINE
  5
339
100
AcDbEntity
  8
0
100
AcDbLine
 62
7
  6
CONTINUOUS
 10
18.0988797375
 20
9.9658517117
 11
18.0985477485
 21
9.9683014287
  0
ARC
  5
33A
100
AcDbEntity
  8
0
100
AcDbCircle
 62
9
  6
CONTINUOUS
 10
-228.1916292034
 20
9.8449876283
 40
236.2002242112
100
AcDbArc
 50
359.7687506532
 51
0.2314156913
  0
ARC
  5
33B
100
AcDbEntity
  8
0
100
AcDbCircle
 62
9
  6
CONTINUOUS
 10
7.0473182789
 20
-247.2289544935
 40
258.0690461151
100
AcDbArc
 50
89.7833090018
 51
90.2166910077
  0
ARC
  5
33C
100
AcDbEntity
  8
0
100
AcDbCircle
 62
9
  6
CONTINUOUS
 10
7.0478300835
 20
-226.3763436849
 40
237.1829427437
100
AcDbArc
 50
89.7697495933
 51
90.2304973965
  0
ARC
  5
33D
100
AcDbEntity
  8
0
100
AcDbCircle
 62
9
  6
CONTINUOUS
 10
7.0473183223
 20
-190.2923660315
 40
201.072292043
100
AcDbArc
 50
89.7391422014
 51
90.2608574919
  0
ARC
  5
33E
100
AcDbEntity
  8
0
100
AcDbCircle
 62
9
  6
CONTINUOUS
 10
-8.0189927687
 20
7.2509991366
 40
18.6568184454
100
AcDbArc
 50
4.3659298331
 51
4.5619045456
  0
ARC
  5
33F
100
AcDbEntity
  8
0
100
AcDbCircle
 62
9
  6
CONTINUOUS
 10
2.1610159435
 20
0.6541512782
 40
12.8661826737
100
AcDbArc
 50
38.1325787189
 51
39.2856397927
  0
ARC
  5
340
100
AcDbEntity
  8
0
100
AcDbCircle
 62
9
  6
CONTINUOUS
 10
2.45094799
 20
0.997713629
 40
12.447089658
100
AcDbArc
 50
37.7281370796
 51
38.912735183
  0
ARC
  5
341
100
AcDbEntity
  8
0
100
AcDbCircle
 62
9
  6
CONTINUOUS
 10
10.3959008164
 20
3.8933953535
 40
0.0685733394
100
AcDbArc
 50
344.8956835948
 51
345.8557207297
  0
ARC
  5
342
100
AcDbEntity
  8
0
100
AcDbCircle
 62
9
  6
CONTINUOUS
 10
10.4095375364
 20
3.9070488069
 40
0.0355232732
100
AcDbArc
 50
338.2705137538
 51
339.5671077251
  0
ARC
  5
343
100
AcDbEntity
  8
0
100
AcDbCircle
 62
9
  6
CONTINUOUS
 10
7.3370459779
 20
9.7201467435
 40
0.3281128539
100
AcDbArc
 50
4.3672849679
 51
5.4511820112
  0
ARC
  5
344
100
AcDbEntity
  8
0
100
AcDbCircle
 62
9
  6
CONTINUOUS
 10
7.4223230422
 20
9.7265219094
 40
0.2425979722
100
AcDbArc
 50
3.1096389004
 51
4.3996809953
  0
ARC
  5
345
100
AcDbEntity
  8
0
100
AcDbCircle
 62
9
  6
CONTINUOUS
 10
6.1589803719
 20
8.9569959892
 40
0.0964735024
100
AcDbArc
 50
222.6128169429
 51
227.3911515582
  0
ARC
  5
346
100
AcDbEntity
  8
0
100
AcDbCircle
 62
7
  6
CONTINUOUS
 10
5.9176567296
 20
8.7156684507
 40
0.02
100
AcDbArc
 50
180.0286610069
 51
269.9713402259
  0
ARC
  5
347
100
AcDbEntity
  8
0
100
AcDbCircle
 62
9
  6
CONTINUOUS
 10
4.0151031548
 20
9.7249949302
 40
0.0190235708
100
AcDbArc
 50
206.9240924238
 51
208.8131515235
  0
ARC
  5
348
100
AcDbEntity
  8
0
100
AcDbCircle
 62
9
  6
CONTINUOUS
 10
4.1630476563
 20
9.4888162107
 40
0.0186118952
100
AcDbArc
 50
251.3155213277
 51
270.2629696611
  0
ARC
  5
349
100
AcDbEntity
  8
0
100
AcDbCircle
 62
9
  6
CONTINUOUS
 10
8.0140061725
 20
7.2354651411
 40
4.1115526747
100
AcDbArc
 50
61.134011285
 51
61.2720214989
  0
ARC
  5
34A
100
AcDbEntity
  8
0
100
AcDbCircle
 62
7
  6
CONTINUOUS
 10
9.5777849025
 20
5.571227997
 40
1.1250698157
100
AcDbArc
 50
348.101618116
 51
349.7377233922
  0
ARC
  5
34B
100
AcDbEntity
  8
0
100
AcDbCircle
 62
7
  6
CONTINUOUS
 10
9.6550920457
 20
5.5550024655
 40
1.0460783091
100
AcDbArc
 50
347.0576003746
 51
348.0982224043
  0
ARC
  5
34C
100
AcDbEntity
  8
0
100
AcDbCircle
 62
7
  6
CONTINUOUS
 10
9.6965018501
 20
5.5451630817
 40
1.0035167999
100
AcDbArc
 50
344.4711785087
 51
347.0755744407
  0
ARC
  5
34D
100
AcDbEntity
  8
0
100
AcDbCircle
 62
7
  6
CONTINUOUS
 10
10.4227865848
 20
5.2320827705
 40
0.2028039325
100
AcDbArc
 50
285.0131857368
 51
288.6894767034
  0
ARC
  5
34E
100
AcDbEntity
  8
0
100
AcDbCircle
 62
9
  6
CONTINUOUS
 10
7.9356519159
 20
8.9569929782
 40
0.0964743481
100
AcDbArc
 50
312.6127881671
 51
317.3911905245
  0
ARC
  5
34F
100
AcDbEntity
  8
0
100
AcDbCircle
 62
7
  6
CONTINUOUS
 10
8.1769799266
 20
8.7156684507
 40
0.02
100
AcDbArc
 50
270.0286597767
 51
359.9713403663
  0
ARC
  5
350
100
AcDbEntity
  8
0
100
AcDbCircle
 62
7
  6
CONTINUOUS
 10
7.5553333855
 20
9.5853300366
 40
0.02
100
AcDbArc
 50
270.0
 51
327.9946120751
  0
ARC
  5
351
100
AcDbEntity
  8
0
100
AcDbCircle
 62
7
  6
CONTINUOUS
 10
7.6464183383
 20
9.7310659611
 40
0.02
100
AcDbArc
 50
327.9946167888
 51
360.0
  0
ARC
  5
352
100
AcDbEntity
  8
0
100
AcDbCircle
 62
9
  6
CONTINUOUS
 10
10.0573903782
 20
8.9712769123
 40
0.144900556
100
AcDbArc
 50
242.4869438209
 51
245.0284877796
  0
ARC
  5
353
100
AcDbEntity
  8
0
100
AcDbCircle
 62
9
  6
CONTINUOUS
 10
10.4794635807
 20
8.6515424695
 40
0.1296054559
100
AcDbArc
 50
40.0225735367
 51
42.2875413041
  0
ARC
  5
354
100
AcDbEntity
  8
0
100
AcDbCircle
 62
9
  6
CONTINUOUS
 10
10.0784192562
 20
8.9332376803
 40
0.1215933625
100
AcDbArc
 50
225.8473691439
 51
228.8308094932
  0
ARC
  5
355
100
AcDbEntity
  8
0
100
AcDbCircle
 62
9
  6
CONTINUOUS
 10
10.0774172863
 20
8.8522889856
 40
0.0463655807
100
AcDbArc
 50
140.31484721
 51
145.5875094145
  0
ARC
  5
356
100
AcDbEntity
  8
0
100
AcDbCircle
 62
9
  6
CONTINUOUS
 10
9.9844197385
 20
8.7845293941
 40
0.0408680213
100
AcDbArc
 50
126.450487275
 51
129.4114954469
  0
ARC
  5
357
100
AcDbEntity
  8
0
100
AcDbCircle
 62
9
  6
CONTINUOUS
 10
9.9995915052
 20
8.7808468204
 40
0.0316784879
100
AcDbArc
 50
137.6838393939
 51
140.7355896055
  0
ARC
  5
358
100
AcDbEntity
  8
0
100
AcDbCircle
 62
9
  6
CONTINUOUS
 10
10.0322612216
 20
8.8823240652
 40
0.0210139184
100
AcDbArc
 50
239.4732871978
 51
247.4978900557
  0
ARC
  5
359
100
AcDbEntity
  8
0
100
AcDbCircle
 62
7
  6
CONTINUOUS
 10
9.8169039801
 20
8.6158749884
 40
0.02
100
AcDbArc
 50
180.1488598249
 51
269.9999893659
  0
ARC
  5
35A
100
AcDbEntity
  8
0
100
AcDbCircle
 62
9
  6
CONTINUOUS
 10
10.7667479438
 20
9.5647596422
 40
0.1070596203
100
AcDbArc
 50
223.0494940065
 51
226.9505062113
  0
ARC
  5
35B
100
AcDbEntity
  8
0
100
AcDbCircle
 62
9
  6
CONTINUOUS
 10
10.9685106579
 20
9.7665223562
 40
0.1070592033
100
AcDbArc
 50
223.0494864062
 51
226.9505138116
  0
ARC
  5
35C
100
AcDbEntity
  8
0
100
AcDbCircle
 62
7
  6
CONTINUOUS
 10
10.7078079844
 20
9.5058196827
 40
0.04
100
AcDbArc
 50
180.0
 51
269.9999998693
  0
ARC
  5
35D
100
AcDbEntity
  8
0
100
AcDbCircle
 62
9
  6
CONTINUOUS
 10
10.7078123851
 20
9.5006773886
 40
0.0200103988
100
AcDbArc
 50
225.0133105224
 51
269.9873997671
  0
ARC
  5
35E
100
AcDbEntity
  8
0
100
AcDbCircle
 62
9
  6
CONTINUOUS
 10
10.7026349964
 20
9.5058111902
 40
0.0199799615
100
AcDbArc
 50
179.9756465117
 51
225.0227966387
  0
ARC
  5
35F
100
AcDbEntity
  8
0
100
AcDbCircle
 62
9
  6
CONTINUOUS
 10
-250.0301769376
 20
9.8453301003
 40
258.0722570303
100
AcDbArc
 50
359.7833117323
 51
0.21668853
  0
ARC
  5
360
100
AcDbEntity
  8
0
100
AcDbCircle
 62
9
  6
CONTINUOUS
 10
-193.0949763601
 20
9.8453299757
 40
201.0768935713
100
AcDbArc
 50
359.7391473653
 51
0.2608523117
  0
ARC
  5
361
100
AcDbEntity
  8
0
100
AcDbCircle
 62
9
  6
CONTINUOUS
 10
-18.2186229929
 20
10.9215285311
 40
29.8179662814
100
AcDbArc
 50
355.8017645082
 51
356.448035181
  0
ARC
  5
362
100
AcDbEntity
  8
0
100
AcDbCircle
 62
9
  6
CONTINUOUS
 10
7.3200434609
 20
9.9719799017
 40
0.3451778328
100
AcDbArc
 50
354.5745893035
 51
355.585919374
  0
ARC
  5
363
100
AcDbEntity
  8
0
100
AcDbCircle
 62
9
  6
CONTINUOUS
 10
7.4075373429
 20
9.9651114329
 40
0.2574148693
100
AcDbArc
 50
355.611340873
 51
356.817860165
  0
ARC
  5
364
100
AcDbEntity
  8
0
100
AcDbCircle
 62
9
  6
CONTINUOUS
 10
4.0165541754
 20
9.9650386196
 40
0.0206061232
100
AcDbArc
 50
160.9135492146
 51
170.2296372082
  0
ARC
  5
365
100
AcDbEntity
  8
0
100
AcDbCircle
 62
9
  6
CONTINUOUS
 10
4.1630479672
 20
10.2018614351
 40
0.0185943213
100
AcDbArc
 50
89.7377138828
 51
97.9745944187
  0
ARC
  5
366
100
AcDbEntity
  8
0
100
AcDbCircle
 62
9
  6
CONTINUOUS
 10
6.1589825878
 20
10.7336657229
 40
0.0964738173
100
AcDbArc
 50
132.6109441241
 51
137.3894785169
  0
ARC
  5
367
100
AcDbEntity
  8
0
100
AcDbCircle
 62
7
  6
CONTINUOUS
 10
5.9176567296
 20
10.9749916225
 40
0.02
100
AcDbArc
 50
90.0286597762
 51
179.971338994
  0
ARC
  5
368
100
AcDbEntity
  8
0
100
AcDbCircle
 62
9
  6
CONTINUOUS
 10
10.7667479438
 20
10.1259004311
 40
0.1070596203
100
AcDbArc
 50
133.0494940064
 51
136.9505062114
  0
ARC
  5
369
100
AcDbEntity
  8
0
100
AcDbCircle
 62
9
  6
CONTINUOUS
 10
10.9685106579
 20
9.924137717
 40
0.1070592033
100
AcDbArc
 50
133.0494864057
 51
136.9505138121
  0
ARC
  5
36A
100
AcDbEntity
  8
0
100
AcDbCircle
 62
7
  6
CONTINUOUS
 10
10.7078079844
 20
10.1848403905
 40
0.04
100
AcDbArc
 50
90.0
 51
179.9999998692
  0
ARC
  5
36B
100
AcDbEntity
  8
0
100
AcDbCircle
 62
9
  6
CONTINUOUS
 10
10.7026656903
 20
10.1848359898
 40
0.0200103988
100
AcDbArc
 50
135.0133104822
 51
179.9873997797
  0
ARC
  5
36C
100
AcDbEntity
  8
0
100
AcDbCircle
 62
7
  6
CONTINUOUS
 10
7.5553333667
 20
10.1053300666
 40
0.02
100
AcDbArc
 50
32.005295265
 51
89.9999462705
  0
ARC
  5
36D
100
AcDbEntity
  8
0
100
AcDbCircle
 62
7
  6
CONTINUOUS
 10
7.6464183383
 20
9.9595941121
 40
0.02
100
AcDbArc
 50
0.0
 51
32.005383208
  0
ARC
  5
36E
100
AcDbEntity
  8
0
100
AcDbCircle
 62
9
  6
CONTINUOUS
 10
10.7077994894
 20
10.1900133805
 40
0.0199799588
100
AcDbArc
 50
89.9756394921
 51
135.0227957951
  0
ARC
  5
36F
100
AcDbEntity
  8
0
100
AcDbCircle
 62
9
  6
CONTINUOUS
 10
10.0177975564
 20
10.7327636118
 40
0.1298186487
100
AcDbArc
 50
111.6701640774
 51
115.3258499056
  0
ARC
  5
370
100
AcDbEntity
  8
0
100
AcDbCircle
 62
9
  6
CONTINUOUS
 10
10.0377078625
 20
10.7777317916
 40
0.0970643487
100
AcDbArc
 50
131.5310470491
 51
136.3666139512
  0
ARC
  5
371
100
AcDbEntity
  8
0
100
AcDbCircle
 62
9
  6
CONTINUOUS
 10
7.9356557603
 20
10.733662965
 40
0.096474605
100
AcDbArc
 50
42.613403193
 51
47.3917340324
  0
ARC
  5
372
100
AcDbEntity
  8
0
100
AcDbCircle
 62
9
  6
CONTINUOUS
 10
9.9583275268
 20
10.9054754067
 40
0.0384826511
100
AcDbArc
 50
228.1605838838
 51
232.4508717149
  0
ARC
  5
373
100
AcDbEntity
  8
0
100
AcDbCircle
 62
9
  6
CONTINUOUS
 10
9.9755038201
 20
10.9119569142
 40
0.0319497828
100
AcDbArc
 50
216.9286726694
 51
221.1938888575
  0
ARC
  5
374
100
AcDbEntity
  8
0
100
AcDbCircle
 62
7
  6
CONTINUOUS
 10
10.4910804106
 20
10.7789118096
 40
0.0201062696
100
AcDbArc
 50
160.5651008139
 51
177.7173132714
  0
ARC
  5
375
100
AcDbEntity
  8
0
100
AcDbCircle
 62
7
  6
CONTINUOUS
 10
10.4909734739
 20
10.7788689629
 40
0.0200621359
100
AcDbArc
 50
89.9961820935
 51
99.3278454602
  0
ARC
  5
376
100
AcDbEntity
  8
0
100
AcDbCircle
 62
7
  6
CONTINUOUS
 10
10.4909755965
 20
10.778931241
 40
0.020000985
100
AcDbArc
 50
99.3640331222
 51
160.5176872843
  0
ARC
  5
377
100
AcDbEntity
  8
0
100
AcDbCircle
 62
7
  6
CONTINUOUS
 10
8.1769799266
 20
10.9749916225
 40
0.02
100
AcDbArc
 50
0.0286596315
 51
89.971340223
  0
ARC
  5
378
100
AcDbEntity
  8
0
100
AcDbCircle
 62
7
  6
CONTINUOUS
 10
9.8129137475
 20
11.0772794941
 40
0.02
100
AcDbArc
 50
89.9999991255
 51
180.1373209348
  0
ARC
  5
379
100
AcDbEntity
  8
0
100
AcDbCircle
 62
7
  6
CONTINUOUS
 10
10.0057833306
 20
10.8124126139
 40
0.0199263328
100
AcDbArc
 50
89.9748213891
 51
113.6004433318
  0
ARC
  5
37A
100
AcDbEntity
  8
0
100
AcDbCircle
 62
7
  6
CONTINUOUS
 10
10.0054449852
 20
10.8126824203
 40
0.0195084401
100
AcDbArc
 50
132.8650499433
 51
141.3774681416
  0
ARC
  5
37B
100
AcDbEntity
  8
0
100
AcDbCircle
 62
9
  6
CONTINUOUS
 10
9.2885354248
 20
13.0048372935
 40
3.5755118817
100
AcDbArc
 50
323.477470101
 51
327.3918975682
  0
ARC
  5
37C
100
AcDbEntity
  8
0
100
AcDbCircle
 62
9
  6
CONTINUOUS
 10
7.047318239
 20
266.9198780065
 40
258.0693097143
100
AcDbArc
 50
269.7833088579
 51
270.2166909677
  0
ARC
  5
37D
100
AcDbEntity
  8
0
100
AcDbCircle
 62
9
  6
CONTINUOUS
 10
7.046980007
 20
245.0788791682
 40
236.1948257993
100
AcDbArc
 50
269.7687442786
 51
270.2314198836
  0
ARC
  5
37E
100
AcDbEntity
  8
0
100
AcDbCircle
 62
9
  6
CONTINUOUS
 10
7.0473182124
 20
209.9849622033
 40
201.0742310697
100
AcDbArc
 50
269.7391441308
 51
270.2608555923
  0
ARC
  5
37F
100
AcDbEntity
  8
0
100
AcDbCircle
 62
9
  6
CONTINUOUS
 10
15.0473184376
 20
-247.2292179334
 40
258.0693097145
100
AcDbArc
 50
89.7833088579
 51
90.2166909677
  0
ARC
  5
380
100
AcDbEntity
  8
0
100
AcDbCircle
 62
9
  6
CONTINUOUS
 10
15.0476566695
 20
-225.388219095
 40
236.1948257993
100
AcDbArc
 50
89.7687442786
 51
90.2314198836
  0
ARC
  5
381
100
AcDbEntity
  8
0
100
AcDbCircle
 62
9
  6
CONTINUOUS
 10
15.0473184642
 20
-190.29430213
 40
201.0742310696
100
AcDbArc
 50
89.7391441308
 51
90.2608555923
  0
ARC
  5
382
100
AcDbEntity
  8
0
100
AcDbCircle
 62
7
  6
CONTINUOUS
 10
12.142162387
 20
5.4637066955
 40
0.7348393908
100
AcDbArc
 50
198.8094489984
 51
199.4263386624
  0
ARC
  5
383
100
AcDbEntity
  8
0
100
AcDbCircle
 62
7
  6
CONTINUOUS
 10
11.6686876734
 20
5.2163271298
 40
0.1868517084
100
AcDbArc
 50
251.5059634443
 51
254.5954850314
  0
ARC
  5
384
100
AcDbEntity
  8
0
100
AcDbCircle
 62
9
  6
CONTINUOUS
 10
11.6987900473
 20
3.8934425545
 40
0.0686408335
100
AcDbArc
 50
194.1707072361
 51
195.125217351
  0
ARC
  5
385
100
AcDbEntity
  8
0
100
AcDbCircle
 62
9
  6
CONTINUOUS
 10
11.684335874
 20
3.9067771186
 40
0.0347160707
100
AcDbArc
 50
200.4419517963
 51
201.7616925296
  0
ARC
  5
386
100
AcDbEntity
  8
0
100
AcDbCircle
 62
7
  6
CONTINUOUS
 10
12.6256913293
 20
5.5913512737
 40
1.2357512976
100
AcDbArc
 50
189.5180780625
 51
190.3520091625
  0
ARC
  5
387
100
AcDbEntity
  8
0
100
AcDbCircle
 62
7
  6
CONTINUOUS
 10
12.5015884061
 20
5.5684253148
 40
1.1095488238
100
AcDbArc
 50
190.3389924354
 51
192.980663096
  0
ARC
  5
388
100
AcDbEntity
  8
0
100
AcDbCircle
 62
7
  6
CONTINUOUS
 10
12.4095230998
 20
5.5480167232
 40
1.0152522478
100
AcDbArc
 50
193.0254071886
 51
195.2264987914
  0
ARC
  5
389
100
AcDbEntity
  8
0
100
AcDbCircle
 62
7
  6
CONTINUOUS
 10
12.3699956895
 20
5.5374941419
 40
0.9743488658
100
AcDbArc
 50
195.2399127386
 51
196.1268240678
  0
ARC
  5
38A
100
AcDbEntity
  8
0
100
AcDbCircle
 62
7
  6
CONTINUOUS
 10
12.3089135594
 20
5.5194412428
 40
0.9106559897
100
AcDbArc
 50
196.1031634613
 51
198.7461475579
  0
ARC
  5
38B
100
AcDbEntity
  8
0
100
AcDbCircle
 62
9
  6
CONTINUOUS
 10
12.037497911
 20
8.9711874696
 40
0.1446507636
100
AcDbArc
 50
294.8375036106
 51
297.4368556498
  0
ARC
  5
38C
100
AcDbEntity
  8
0
100
AcDbCircle
 62
9
  6
CONTINUOUS
 10
11.6174017536
 20
8.6493223214
 40
0.1326395858
100
AcDbArc
 50
137.6767317662
 51
139.9252346377
  0
ARC
  5
38D
100
AcDbEntity
  8
0
100
AcDbCircle
 62
9
  6
CONTINUOUS
 10
12.0167754721
 20
8.9317989556
 40
0.1199049443
100
AcDbArc
 50
311.349769137
 51
314.4399325842
  0
ARC
  5
38E
100
AcDbEntity
  8
0
100
AcDbCircle
 62
9
  6
CONTINUOUS
 10
11.3278887327
 20
9.5647596422
 40
0.1070596203
100
AcDbArc
 50
313.0494940065
 51
316.9505062114
  0
ARC
  5
38F
100
AcDbEntity
  8
0
100
AcDbCircle
 62
9
  6
CONTINUOUS
 10
11.1261260187
 20
9.7665223562
 40
0.1070592033
100
AcDbArc
 50
313.0494864056
 51
316.9505138122
  0
ARC
  5
390
100
AcDbEntity
  8
0
100
AcDbCircle
 62
9
  6
CONTINUOUS
 10
12.0163557839
 20
8.8519569848
 40
0.047095356
100
AcDbArc
 50
34.2968350668
 51
39.6711439831
  0
ARC
  5
391
100
AcDbEntity
  8
0
100
AcDbCircle
 62
7
  6
CONTINUOUS
 10
12.1097198579
 20
8.7840738964
 40
0.0415465811
100
AcDbArc
 50
50.6244542046
 51
53.6135015872
  0
ARC
  5
392
100
AcDbEntity
  8
0
100
AcDbCircle
 62
7
  6
CONTINUOUS
 10
11.3868286922
 20
9.5058196827
 40
0.04
100
AcDbArc
 50
270.0
 51
359.9999998692
  0
ARC
  5
393
100
AcDbEntity
  8
0
100
AcDbCircle
 62
9
  6
CONTINUOUS
 10
12.0945750366
 20
8.7805175563
 40
0.0321191919
100
AcDbArc
 50
39.280374337
 51
42.3534689582
  0
ARC
  5
394
100
AcDbEntity
  8
0
100
AcDbCircle
 62
9
  6
CONTINUOUS
 10
12.0619904627
 20
8.882333699
 40
0.021012717
100
AcDbArc
 50
292.6181481978
 51
300.6133485772
  0
ARC
  5
395
100
AcDbEntity
  8
0
100
AcDbCircle
 62
9
  6
CONTINUOUS
 10
11.3919709865
 20
9.5058240836
 40
0.0200103987
100
AcDbArc
 50
315.0133096171
 51
359.9873991113
  0
ARC
  5
396
100
AcDbEntity
  8
0
100
AcDbCircle
 62
7
  6
CONTINUOUS
 10
12.2777064777
 20
8.6158745316
 40
0.02
100
AcDbArc
 50
269.999989365
 51
359.9066959276
  0
ARC
  5
397
100
AcDbEntity
  8
0
100
AcDbCircle
 62
9
  6
CONTINUOUS
 10
11.3868371855
 20
9.5006466951
 40
0.0199799615
100
AcDbArc
 50
269.9756443035
 51
315.0227943956
  0
ARC
  5
398
100
AcDbEntity
  8
0
100
AcDbCircle
 62
9
  6
CONTINUOUS
 10
14.7745932156
 20
9.7186801715
 40
0.3451778328
100
AcDbArc
 50
174.5745893034
 51
175.585919374
  0
ARC
  5
399
100
AcDbEntity
  8
0
100
AcDbCircle
 62
9
  6
CONTINUOUS
 10
14.6870993336
 20
9.7255486404
 40
0.2574148693
100
AcDbArc
 50
175.611340873
 51
176.817860165
  0
ARC
  5
39A
100
AcDbEntity
  8
0
100
AcDbCircle
 62
9
  6
CONTINUOUS
 10
14.1589809162
 20
8.9569971082
 40
0.096474605
100
AcDbArc
 50
222.6134031929
 51
227.3917340324
  0
ARC
  5
39B
100
AcDbEntity
  8
0
100
AcDbCircle
 62
7
  6
CONTINUOUS
 10
14.5393033099
 20
9.5853300066
 40
0.02
100
AcDbArc
 50
212.005295265
 51
269.9999462705
  0
ARC
  5
39C
100
AcDbEntity
  8
0
100
AcDbCircle
 62
7
  6
CONTINUOUS
 10
14.4482183383
 20
9.7310659611
 40
0.02
100
AcDbArc
 50
180.0
 51
212.005383208
  0
ARC
  5
39D
100
AcDbEntity
  8
0
100
AcDbCircle
 62
7
  6
CONTINUOUS
 10
13.91765675
 20
8.7156684507
 40
0.02
100
AcDbArc
 50
180.0286596315
 51
269.971340223
  0
ARC
  5
39E
100
AcDbEntity
  8
0
100
AcDbCircle
 62
9
  6
CONTINUOUS
 10
19.2653144583
 20
1.1964721292
 40
12.0056662659
100
AcDbArc
 50
140.6983660625
 51
141.933899232
  0
ARC
  5
39F
100
AcDbEntity
  8
0
100
AcDbCircle
 62
9
  6
CONTINUOUS
 10
19.2885214489
 20
1.2792673906
 40
11.9939031501
100
AcDbArc
 50
141.0686334714
 51
142.2975885954
  0
ARC
  5
3A0
100
AcDbEntity
  8
0
100
AcDbCircle
 62
9
  6
CONTINUOUS
 10
15.9356540888
 20
8.9569943504
 40
0.0964738173
100
AcDbArc
 50
312.610944124
 51
317.389478517
  0
ARC
  5
3A1
100
AcDbEntity
  8
0
100
AcDbCircle
 62
9
  6
CONTINUOUS
 10
18.0780825012
 20
9.7256214536
 40
0.0206061232
100
AcDbArc
 50
340.9135492147
 51
350.2296372082
  0
ARC
  5
3A2
100
AcDbEntity
  8
0
100
AcDbCircle
 62
7
  6
CONTINUOUS
 10
16.1769799469
 20
8.7156684507
 40
0.02
100
AcDbArc
 50
270.0286597763
 51
359.9713389941
  0
ARC
  5
3A3
100
AcDbEntity
  8
0
100
AcDbCircle
 62
9
  6
CONTINUOUS
 10
17.9315887094
 20
9.4887986381
 40
0.0185943213
100
AcDbArc
 50
269.7377138829
 51
277.9745944187
  0
ARC
  5
3A4
100
AcDbEntity
  8
0
100
AcDbCircle
 62
9
  6
CONTINUOUS
 10
31.2923419956
 20
7.1612952616
 40
19.8389357199
100
AcDbArc
 50
175.4511142676
 51
175.6352509307
  0
ARC
  5
3A5
100
AcDbEntity
  8
0
100
AcDbCircle
 62
9
  6
CONTINUOUS
 10
11.3278887331
 20
10.1259004314
 40
0.1070596198
100
AcDbArc
 50
43.0494939975
 51
46.9505062203
  0
ARC
  5
3A6
100
AcDbEntity
  8
0
100
AcDbCircle
 62
9
  6
CONTINUOUS
 10
11.1261260187
 20
9.924137717
 40
0.1070592033
100
AcDbArc
 50
43.0494864057
 51
46.9505138121
  0
ARC
  5
3A7
100
AcDbEntity
  8
0
100
AcDbCircle
 62
7
  6
CONTINUOUS
 10
11.3868286922
 20
10.1848403905
 40
0.04
100
AcDbArc
 50
0.0
 51
89.9999998692
  0
ARC
  5
3A8
100
AcDbEntity
  8
0
100
AcDbCircle
 62
9
  6
CONTINUOUS
 10
11.3868242916
 20
10.1899826846
 40
0.0200103988
100
AcDbArc
 50
45.0133108088
 51
89.9874000725
  0
ARC
  5
3A9
100
AcDbEntity
  8
0
100
AcDbCircle
 62
7
  6
CONTINUOUS
 10
14.5393032911
 20
10.1053300366
 40
0.02
100
AcDbArc
 50
90.0
 51
147.9946120751
  0
ARC
  5
3AA
100
AcDbEntity
  8
0
100
AcDbCircle
 62
7
  6
CONTINUOUS
 10
14.4482183383
 20
9.9595941121
 40
0.02
100
AcDbArc
 50
147.9946167888
 51
180.0
  0
ARC
  5
3AB
100
AcDbEntity
  8
0
100
AcDbCircle
 62
9
  6
CONTINUOUS
 10
11.3920016798
 20
10.1848488838
 40
0.0199799615
100
AcDbArc
 50
359.9756443437
 51
45.022794468
  0
ARC
  5
3AC
100
AcDbEntity
  8
0
100
AcDbCircle
 62
9
  6
CONTINUOUS
 10
12.0769874743
 20
10.7326725557
 40
0.1298444353
100
AcDbArc
 50
64.8080033081
 51
68.4090776893
  0
ARC
  5
3AD
100
AcDbEntity
  8
0
100
AcDbCircle
 62
9
  6
CONTINUOUS
 10
12.0565875655
 20
10.7768495744
 40
0.0980750841
100
AcDbArc
 50
43.9361919913
 51
48.6470848663
  0
ARC
  5
3AE
100
AcDbEntity
  8
0
100
AcDbCircle
 62
9
  6
CONTINUOUS
 10
14.1589847607
 20
10.7336670951
 40
0.0964743481
100
AcDbArc
 50
132.612788167
 51
137.3911905245
  0
ARC
  5
3AF
100
AcDbEntity
  8
0
100
AcDbCircle
 62
9
  6
CONTINUOUS
 10
12.1367653787
 20
10.9049268769
 40
0.0376370867
100
AcDbArc
 50
307.5400395927
 51
311.8958996888
  0
ARC
  5
3B0
100
AcDbEntity
  8
0
100
AcDbCircle
 62
9
  6
CONTINUOUS
 10
12.1194495698
 20
10.9116361889
 40
0.0314791773
100
AcDbArc
 50
318.8562525548
 51
323.118470633
  0
ARC
  5
3B1
100
AcDbEntity
  8
0
100
AcDbCircle
 62
7
  6
CONTINUOUS
 10
11.6035888567
 20
10.7788516852
 40
0.0200956121
100
AcDbArc
 50
50.5884264038
 51
62.9466967836
  0
ARC
  5
3B2
100
AcDbEntity
  8
0
100
AcDbCircle
 62
7
  6
CONTINUOUS
 10
11.6036409843
 20
10.7789308224
 40
0.020001466
100
AcDbArc
 50
2.2533889322
 51
50.5598689812
  0
ARC
  5
3B3
100
AcDbEntity
  8
0
100
AcDbCircle
 62
7
  6
CONTINUOUS
 10
13.91765675
 20
10.9749916225
 40
0.02
100
AcDbArc
 50
90.0286597767
 51
179.9713403663
  0
ARC
  5
3B4
100
AcDbEntity
  8
0
100
AcDbCircle
 62
7
  6
CONTINUOUS
 10
12.2817147887
 20
11.0772794564
 40
0.02
100
AcDbArc
 50
359.9066959284
 51
89.9999991262
  0
ARC
  5
3B5
100
AcDbEntity
  8
0
100
AcDbCircle
 62
7
  6
CONTINUOUS
 10
11.6036539865
 20
10.7789668262
 40
0.0199634478
100
AcDbArc
 50
62.962870126
 51
90.033498451
  0
ARC
  5
3B6
100
AcDbEntity
  8
0
100
AcDbCircle
 62
7
  6
CONTINUOUS
 10
12.0890717932
 20
10.8124113301
 40
0.019926776
100
AcDbArc
 50
66.5289277524
 51
90.0247910729
  0
ARC
  5
3B7
100
AcDbEntity
  8
0
100
AcDbCircle
 62
7
  6
CONTINUOUS
 10
12.0893919131
 20
10.8126681736
 40
0.0195309712
100
AcDbArc
 50
38.6508842674
 51
47.1029106826
  0
ARC
  5
3B8
100
AcDbEntity
  8
0
100
AcDbCircle
 62
9
  6
CONTINUOUS
 10
14.7575906987
 20
9.9705133298
 40
0.328112854
100
AcDbArc
 50
184.367284968
 51
185.4511820111
  0
ARC
  5
3B9
100
AcDbEntity
  8
0
100
AcDbCircle
 62
9
  6
CONTINUOUS
 10
14.6723136344
 20
9.9641381639
 40
0.2425979723
100
AcDbArc
 50
183.1096389005
 51
184.3996809953
  0
ARC
  5
3BA
100
AcDbEntity
  8
0
100
AcDbCircle
 62
9
  6
CONTINUOUS
 10
18.0795335218
 20
9.965665143
 40
0.0190235708
100
AcDbArc
 50
26.9240924234
 51
28.813151524
  0
ARC
  5
3BB
100
AcDbEntity
  8
0
100
AcDbCircle
 62
9
  6
CONTINUOUS
 10
17.9315890203
 20
10.2018438625
 40
0.0186118952
100
AcDbArc
 50
71.3155213277
 51
90.262969661
  0
ARC
  5
3BC
100
AcDbEntity
  8
0
100
AcDbCircle
 62
9
  6
CONTINUOUS
 10
15.9356563046
 20
10.733664084
 40
0.0964735024
100
AcDbArc
 50
42.612816943
 51
47.3911515581
  0
ARC
  5
3BD
100
AcDbEntity
  8
0
100
AcDbCircle
 62
7
  6
CONTINUOUS
 10
16.1769799469
 20
10.9749916225
 40
0.02
100
AcDbArc
 50
0.0286610069
 51
89.9713402259
  0
ARC
  5
3BE
100
AcDbEntity
  8
0
100
AcDbCircle
 62
9
  6
CONTINUOUS
 10
12.7699964838
 20
12.9781751365
 40
3.5307571748
100
AcDbArc
 50
212.5595081214
 51
216.5241305287
  0
ARC
  5
3BF
100
AcDbEntity
  8
0
100
AcDbCircle
 62
9
  6
CONTINUOUS
 10
12.769103119
 20
13.0131431092
 40
3.5275441643
100
AcDbArc
 50
212.9480892572
 51
216.9482213033
  0
ARC
  5
3C0
100
AcDbEntity
  8
0
100
AcDbCircle
 62
9
  6
CONTINUOUS
 10
13.7639758204
 20
11.8355789746
 40
3.42683043
100
AcDbArc
 50
240.4037582138
 51
240.548951185
  0
ARC
  5
3C1
100
AcDbEntity
  8
0
100
AcDbCircle
 62
9
  6
CONTINUOUS
 10
36.8584213605
 20
10.6942883885
 40
26.3557272744
100
AcDbArc
 50
183.5240595813
 51
184.2551392508
  0
ARC
  5
3C2
100
AcDbEntity
  8
0
100
AcDbCircle
 62
9
  6
CONTINUOUS
 10
15.0473183976
 20
266.9196145668
 40
258.0690461152
100
AcDbArc
 50
269.7833090018
 51
270.2166910077
  0
ARC
  5
3C3
100
AcDbEntity
  8
0
100
AcDbCircle
 62
9
  6
CONTINUOUS
 10
15.0468065931
 20
246.067003758
 40
237.1829427436
100
AcDbArc
 50
269.7697495933
 51
270.2304973965
  0
ARC
  5
3C4
100
AcDbEntity
  8
0
100
AcDbCircle
 62
9
  6
CONTINUOUS
 10
15.0473183543
 20
209.9830261049
 40
201.0722920431
100
AcDbArc
 50
269.7391422014
 51
270.2608574919
  0
ARC
  5
3C5
100
AcDbEntity
  8
0
100
AcDbCircle
 62
9
  6
CONTINUOUS
 10
272.1248136137
 20
9.8453299729
 40
258.0722570299
100
AcDbArc
 50
179.7833117323
 51
180.21668853
  0
ARC
  5
3C6
100
AcDbEntity
  8
0
100
AcDbCircle
 62
9
  6
CONTINUOUS
 10
250.2862658799
 20
9.8456724449
 40
236.2002242111
100
AcDbArc
 50
179.7687506532
 51
180.2314156913
  0
ARC
  5
3C7
100
AcDbEntity
  8
0
100
AcDbCircle
 62
9
  6
CONTINUOUS
 10
215.1896130367
 20
9.8453300975
 40
201.0768935713
100
AcDbArc
 50
179.7391473653
 51
180.2608523117
  0
SPLINE
  5
3C8
100
AcDbEntity
  8
0
100
AcDbSpline
 62
9
  6
CONTINUOUS
 70
0
 71
3
 72
22
 73
18
 74
0
 42
0.0000001
 43
0.0000001
 44
0.0000000001
 40
0.0
 40
0.0
 40
0.0
 40
0.0
 40
0.1839901024
 40
0.3652928605
 40
0.5352854193
 40
0.6133379759
 40
0.6853283863
 40
0.7503304366
 40
0.8079014189
 40
0.8577498545
 40
0.8996599111
 40
0.9336964639
 40
0.9606813079
 40
0.9719658504
 40
0.9820706738
 40
0.9912961707
 40
1.0
 40
1.0
 40
1.0
 40
1.0
 10
11.4061243973
 20
10.1989822096
 30
0.0
 10
11.4068461247
 20
10.1997552252
 30
0.0
 10
11.4082553041
 20
10.2013123656
 30
0.0
 10
11.4102415345
 20
10.2036630017
 30
0.0
 10
11.4117540185
 20
10.2056144357
 30
0.0
 10
11.4128210884
 20
10.2071131473
 30
0.0
 10
11.4135058329
 20
10.2081425378
 30
0.0
 10
11.4140879844
 20
10.2090978117
 30
0.0
 10
11.4145631369
 20
10.2099680942
 30
0.0
 10
11.4149291537
 20
10.210745126
 30
0.0
 10
11.4151852813
 20
10.2114225737
 30
0.0
 10
11.4153305353
 20
10.2119975585
 30
0.0
 10
11.4153652408
 20
10.2124152808
 30
0.0
 10
11.4153329398
 20
10.2126923675
 30
0.0
 10
11.4152852627
 20
10.2128626696
 30
0.0
 10
11.4152133006
 20
10.2130079966
 30
0.0
 10
11.4151484037
 20
10.2130893105
 30
0.0
 10
11.4151129828
 20
10.2131246415
 30
0.0
  0
SPLINE
  5
3C9
100
AcDbEntity
  8
0
100
AcDbSpline
 62
9
  6
CONTINUOUS
 70
0
 71
3
 72
22
 73
18
 74
0
 42
0.0000001
 43
0.0000001
 44
0.0000000001
 40
0.0
 40
0.0
 40
0.0
 40
0.0
 40
0.183990004
 40
0.3652927127
 40
0.5352852598
 40
0.6133378217
 40
0.6853282434
 40
0.750330307
 40
0.8079013022
 40
0.8577497519
 40
0.8996598252
 40
0.9336963957
 40
0.960681258
 40
0.9719658112
 40
0.9820706465
 40
0.9912961566
 40
1.0
 40
1.0
 40
1.0
 40
1.0
 10
11.4009705359
 20
10.2041360494
 30
0.0
 10
11.4017435541
 20
10.2048577758
 30
0.0
 10
11.4033006998
 20
10.2062669532
 30
0.0
 10
11.405651344
 20
10.2082531803
 30
0.0
 10
11.4076027849
 20
10.2097656615
 30
0.0
 10
11.4091015018
 20
10.2108327292
 30
0.0
 10
11.410130896
 20
10.2115174721
 30
0.0
 10
11.4110861734
 20
10.212099622
 30
0.0
 10
11.4119564589
 20
10.2125747728
 30
0.0
 10
11.4127334933
 20
10.2129407879
 30
0.0
 10
11.4134109431
 20
10.2131969139
 30
0.0
 10
11.4139859296
 20
10.2133421664
 30
0.0
 10
11.414403653
 20
10.2133768706
 30
0.0
 10
11.4146807403
 20
10.2133445685
 30
0.0
 10
11.4148510428
 20
10.2132968906
 30
0.0
 10
11.4149963699
 20
10.2132249279
 30
0.0
 10
11.4150776839
 20
10.2131600305
 30
0.0
 10
11.4151130149
 20
10.2131246094
 30
0.0
  0
SPLINE
  5
3CA
100
AcDbEntity
  8
0
100
AcDbSpline
 62
9
  6
CONTINUOUS
 70
0
 71
3
 72
22
 73
18
 74
0
 42
0.0000001
 43
0.0000001
 44
0.0000000001
 40
0.0
 40
0.0
 40
0.0
 40
0.0
 40
0.1839900971
 40
0.3652928505
 40
0.535285406
 40
0.6133379618
 40
0.6853283721
 40
0.750330423
 40
0.8079014064
 40
0.8577498438
 40
0.8996599029
 40
0.9336964585
 40
0.9606813051
 40
0.9719658487
 40
0.982070673
 40
0.9912961705
 40
1.0
 40
1.0
 40
1.0
 40
1.0
 10
10.6936661653
 20
10.2041360956
 30
0.0
 10
10.6928931497
 20
10.204857823
 30
0.0
 10
10.6913360094
 20
10.2062670024
 30
0.0
 10
10.6889853734
 20
10.2082532327
 30
0.0
 10
10.6870339394
 20
10.2097657166
 30
0.0
 10
10.6855352279
 20
10.2108327866
 30
0.0
 10
10.6845058374
 20
10.2115175311
 30
0.0
 10
10.6835505635
 20
10.2120996826
 30
0.0
 10
10.682680281
 20
10.2125748351
 30
0.0
 10
10.6819032492
 20
10.2129408519
 30
0.0
 10
10.6812258015
 20
10.2131969795
 30
0.0
 10
10.6806508167
 20
10.2133422335
 30
0.0
 10
10.6802330944
 20
10.2133769392
 30
0.0
 10
10.6799560076
 20
10.2133446382
 30
0.0
 10
10.6797857054
 20
10.2132969611
 30
0.0
 10
10.6796403785
 20
10.2132249991
 30
0.0
 10
10.6795590646
 20
10.2131601021
 30
0.0
 10
10.6795237335
 20
10.2131246813
 30
0.0
  0
SPLINE
  5
3CB
100
AcDbEntity
  8
0
100
AcDbSpline
 62
9
  6
CONTINUOUS
 70
0
 71
3
 72
22
 73
18
 74
0
 42
0.0000001
 43
0.0000001
 44
0.0000000001
 40
0.0
 40
0.0
 40
0.0
 40
0.0
 40
0.1839899983
 40
0.3652927017
 40
0.5352852453
 40
0.6133378064
 40
0.685328228
 40
0.7503302922
 40
0.8079012887
 40
0.8577497404
 40
0.8996598164
 40
0.9336963898
 40
0.960681255
 40
0.9719658094
 40
0.9820706457
 40
0.9912961565
 40
1.0
 40
1.0
 40
1.0
 40
1.0
 10
10.6885123255
 20
10.1989822342
 30
0.0
 10
10.6877905992
 20
10.1997552524
 30
0.0
 10
10.6863814218
 20
10.201312398
 30
0.0
 10
10.6843951947
 20
10.2036630422
 30
0.0
 10
10.6828827136
 20
10.205614483
 30
0.0
 10
10.681815646
 20
10.2071131999
 30
0.0
 10
10.681130903
 20
10.208142594
 30
0.0
 10
10.6805487531
 20
10.2090978714
 30
0.0
 10
10.6800736023
 20
10.2099681568
 30
0.0
 10
10.6797075871
 20
10.2107451913
 30
0.0
 10
10.6794514611
 20
10.2114226411
 30
0.0
 10
10.6793062086
 20
10.2119976277
 30
0.0
 10
10.6792715043
 20
10.2124153511
 30
0.0
 10
10.6793038063
 20
10.2126924385
 30
0.0
 10
10.6793514842
 20
10.2128627409
 30
0.0
 10
10.6794234469
 20
10.2130080681
 30
0.0
 10
10.6794883443
 20
10.213089382
 30
0.0
 10
10.6795237653
 20
10.2131247131
 30
0.0
  0
SPLINE
  5
3CC
100
AcDbEntity
  8
0
100
AcDbSpline
 62
9
  6
CONTINUOUS
 70
0
 71
3
 72
22
 73
18
 74
0
 42
0.0000001
 43
0.0000001
 44
0.0000000001
 40
0.0
 40
0.0
 40
0.0
 40
0.0
 40
0.1839900971
 40
0.3652928505
 40
0.535285406
 40
0.6133379618
 40
0.6853283721
 40
0.750330423
 40
0.8079014064
 40
0.8577498438
 40
0.8996599029
 40
0.9336964585
 40
0.9606813051
 40
0.9719658487
 40
0.982070673
 40
0.9912961705
 40
1.0
 40
1.0
 40
1.0
 40
1.0
 10
10.6885122793
 20
9.4916778636
 30
0.0
 10
10.6877905519
 20
9.490904848
 30
0.0
 10
10.6863813725
 20
9.4893477077
 30
0.0
 10
10.6843951422
 20
9.4869970717
 30
0.0
 10
10.6828826583
 20
9.4850456378
 30
0.0
 10
10.6818155883
 20
9.4835469262
 30
0.0
 10
10.6811308438
 20
9.4825175358
 30
0.0
 10
10.6805486923
 20
9.4815622618
 30
0.0
 10
10.6800735398
 20
9.4806919794
 30
0.0
 10
10.679707523
 20
9.4799149475
 30
0.0
 10
10.6794513954
 20
9.4792374999
 30
0.0
 10
10.6793061414
 20
9.4786625151
 30
0.0
 10
10.6792714357
 20
9.4782447927
 30
0.0
 10
10.6793037367
 20
9.4779677059
 30
0.0
 10
10.6793514138
 20
9.4777974038
 30
0.0
 10
10.6794233758
 20
9.4776520768
 30
0.0
 10
10.6794882728
 20
9.4775707629
 30
0.0
 10
10.6795236936
 20
9.4775354319
 30
0.0
  0
SPLINE
  5
3CD
100
AcDbEntity
  8
0
100
AcDbSpline
 62
9
  6
CONTINUOUS
 70
0
 71
3
 72
22
 73
18
 74
0
 42
0.0000001
 43
0.0000001
 44
0.0000000001
 40
0.0
 40
0.0
 40
0.0
 40
0.0
 40
0.1839899983
 40
0.3652927017
 40
0.5352852453
 40
0.6133378064
 40
0.685328228
 40
0.7503302922
 40
0.8079012887
 40
0.8577497404
 40
0.8996598164
 40
0.9336963898
 40
0.960681255
 40
0.9719658094
 40
0.9820706457
 40
0.9912961565
 40
1.0
 40
1.0
 40
1.0
 40
1.0
 10
11.406124351
 20
9.491677839
 30
0.0
 10
11.4068460774
 20
9.4909048208
 30
0.0
 10
11.4082552547
 20
9.4893476752
 30
0.0
 10
11.4102414818
 20
9.4869970311
 30
0.0
 10
11.4117539629
 20
9.4850455903
 30
0.0
 10
11.4128210306
 20
9.4835468734
 30
0.0
 10
11.4135057735
 20
9.4825174792
 30
0.0
 10
11.4140879234
 20
9.4815622019
 30
0.0
 10
11.4145630743
 20
9.4806919164
 30
0.0
 10
11.4149290895
 20
9.4799148819
 30
0.0
 10
11.4151852155
 20
9.4792374321
 30
0.0
 10
11.415330468
 20
9.4786624456
 30
0.0
 10
11.4153651722
 20
9.4782447222
 30
0.0
 10
11.4153328702
 20
9.4779676348
 30
0.0
 10
11.4152851924
 20
9.4777973323
 30
0.0
 10
11.4152132297
 20
9.4776520052
 30
0.0
 10
11.4151483323
 20
9.4775706912
 30
0.0
 10
11.4151129112
 20
9.4775353602
 30
0.0
  0
SPLINE
  5
3CE
100
AcDbEntity
  8
0
100
AcDbSpline
 62
9
  6
CONTINUOUS
 70
0
 71
3
 72
22
 73
18
 74
0
 42
0.0000001
 43
0.0000001
 44
0.0000000001
 40
0.0
 40
0.0
 40
0.0
 40
0.0
 40
0.1839899983
 40
0.3652927017
 40
0.5352852453
 40
0.6133378064
 40
0.685328228
 40
0.7503302922
 40
0.8079012887
 40
0.8577497404
 40
0.8996598164
 40
0.9336963898
 40
0.960681255
 40
0.9719658094
 40
0.9820706457
 40
0.9912961565
 40
1.0
 40
1.0
 40
1.0
 40
1.0
 10
10.6936661407
 20
9.4865240239
 30
0.0
 10
10.6928931225
 20
9.4858022975
 30
0.0
 10
10.6913359769
 20
9.4843931202
 30
0.0
 10
10.6889853327
 20
9.4824068931
 30
0.0
 10
10.6870338919
 20
9.480894412
 30
0.0
 10
10.685535175
 20
9.4798273443
 30
0.0
 10
10.6845057809
 20
9.4791426014
 30
0.0
 10
10.6835505036
 20
9.4785604515
 30
0.0
 10
10.6826802181
 20
9.4780853006
 30
0.0
 10
10.6819031836
 20
9.4777192854
 30
0.0
 10
10.6812257338
 20
9.4774631594
 30
0.0
 10
10.6806507472
 20
9.4773179069
 30
0.0
 10
10.6802330238
 20
9.4772832027
 30
0.0
 10
10.6799559365
 20
9.4773155047
 30
0.0
 10
10.679785634
 20
9.4773631826
 30
0.0
 10
10.6796403068
 20
9.4774351452
 30
0.0
 10
10.6795589929
 20
9.4775000426
 30
0.0
 10
10.6795236618
 20
9.4775354637
 30
0.0
  0
SPLINE
  5
3CF
100
AcDbEntity
  8
0
100
AcDbSpline
 62
9
  6
CONTINUOUS
 70
0
 71
3
 72
22
 73
18
 74
0
 42
0.0000001
 43
0.0000001
 44
0.0000000001
 40
0.0
 40
0.0
 40
0.0
 40
0.0
 40
0.1839900971
 40
0.3652928505
 40
0.535285406
 40
0.6133379618
 40
0.6853283721
 40
0.750330423
 40
0.8079014065
 40
0.8577498439
 40
0.8996599029
 40
0.9336964585
 40
0.9606813051
 40
0.9719658487
 40
0.982070673
 40
0.9912961705
 40
1.0
 40
1.0
 40
1.0
 40
1.0
 10
11.4009705113
 20
9.4865239776
 30
0.0
 10
11.4017435269
 20
9.4858022503
 30
0.0
 10
11.4033006672
 20
9.4843930708
 30
0.0
 10
11.4056513032
 20
9.4824068405
 30
0.0
 10
11.4076027371
 20
9.4808943566
 30
0.0
 10
11.4091014487
 20
9.4798272867
 30
0.0
 10
11.4101308391
 20
9.4791425422
 30
0.0
 10
11.4110861131
 20
9.4785603907
 30
0.0
 10
11.4119563955
 20
9.4780852382
 30
0.0
 10
11.4127334274
 20
9.4777192213
 30
0.0
 10
11.413410875
 20
9.4774630937
 30
0.0
 10
11.4139858599
 20
9.4773178397
 30
0.0
 10
11.4144035822
 20
9.4772831341
 30
0.0
 10
11.414680669
 20
9.477315435
 30
0.0
 10
11.4148509711
 20
9.4773631122
 30
0.0
 10
11.4149962981
 20
9.4774350742
 30
0.0
 10
11.415077612
 20
9.4774999711
 30
0.0
 10
11.415112943
 20
9.4775353919
 30
0.0
  0
LINE
  5
3D0
100
AcDbEntity
  8
0
100
AcDbLine
 62
7
  6
CONTINUOUS
 10
17.9314218768
 20
9.4702051185
 11
17.9342044137
 21
9.4701977209
  0
LINE
  5
3D1
100
AcDbEntity
  8
0
100
AcDbLine
 62
7
  6
CONTINUOUS
 10
17.9342043609
 20
10.2204623518
 11
17.9328713729
 21
10.2204618721
  0
LINE
  5
3D2
100
AcDbEntity
  8
0
100
AcDbLine
 62
7
  6
CONTINUOUS
 10
17.9328713729
 20
10.2204618721
 11
17.931421824
 21
10.2204549543
  0
SPLINE
  5
3D3
100
AcDbEntity
  8
0
100
AcDbSpline
 62
9
  6
CONTINUOUS
 70
0
 71
3
 72
21
 73
17
 74
0
 42
0.0000001
 43
0.0000001
 44
0.0000000001
 40
0.0
 40
0.0
 40
0.0
 40
0.0
 40
0.2065904452
 40
0.4041604588
 40
0.585402809
 40
0.7400091673
 40
0.8041024142
 40
0.8587759689
 40
0.9040322933
 40
0.9398788876
 40
0.9664784915
 40
0.9765402093
 40
0.9846002003
 40
0.9907877358
 40
0.9952555366
 40
1.0
 40
1.0
 40
1.0
 40
1.0
 10
18.0911788403
 20
9.9459003793
 30
0.0
 10
18.0911788406
 20
9.9472328949
 30
0.0
 10
18.0911838494
 20
9.9498397475
 30
0.0
 10
18.0912109237
 20
9.9536155491
 30
0.0
 10
18.0912612238
 20
9.9570557743
 30
0.0
 10
18.0913240395
 20
9.9596347496
 30
0.0
 10
18.0913913422
 20
9.9613967564
 30
0.0
 10
18.0914438956
 20
9.9624534456
 30
0.0
 10
18.0915003198
 20
9.9633273993
 30
0.0
 10
18.0915597934
 20
9.9640196965
 30
0.0
 10
18.0916145628
 20
9.9644840807
 30
0.0
 10
18.09166237
 20
9.9647690293
 30
0.0
 10
18.0916944736
 20
9.9649217043
 30
0.0
 10
18.0917282848
 20
9.9650400145
 30
0.0
 10
18.0917620585
 20
9.9651274149
 30
0.0
 10
18.0918045866
 20
9.9651892165
 30
0.0
 10
18.0918351885
 20
9.9651892227
 30
0.0
  0
SPLINE
  5
3D4
100
AcDbEntity
  8
0
100
AcDbSpline
 62
9
  6
CONTINUOUS
 70
0
 71
3
 72
21
 73
17
 74
0
 42
0.0000001
 43
0.0000001
 44
0.0000000001
 40
0.0
 40
0.0
 40
0.0
 40
0.0
 40
0.004744333
 40
0.0092120068
 40
0.0153994259
 40
0.0234593488
 40
0.0335210835
 40
0.0601211205
 40
0.0959687921
 40
0.1412264865
 40
0.195901224
 40
0.2599949865
 40
0.4145996962
 40
0.5958394194
 40
0.7934086713
 40
1.0
 40
1.0
 40
1.0
 40
1.0
 10
18.0986794731
 20
9.9651892227
 30
0.0
 10
18.0987100742
 20
9.9651892169
 30
0.0
 10
18.098752603
 20
9.9651274188
 30
0.0
 10
18.0987863763
 20
9.9650400202
 30
0.0
 10
18.0988201876
 20
9.9649217123
 30
0.0
 10
18.0988522912
 20
9.9647690384
 30
0.0
 10
18.0989000988
 20
9.9644840873
 30
0.0
 10
18.0989548685
 20
9.9640196932
 30
0.0
 10
18.0990143426
 20
9.9633273774
 30
0.0
 10
18.0990707675
 20
9.9624534002
 30
0.0
 10
18.0991233216
 20
9.9613966912
 30
0.0
 10
18.0991906243
 20
9.9596346839
 30
0.0
 10
18.0992534393
 20
9.9570557327
 30
0.0
 10
18.0993037378
 20
9.9536155398
 30
0.0
 10
18.0993308119
 20
9.9498397542
 30
0.0
 10
18.099335821
 20
9.9472329007
 30
0.0
 10
18.0993358213
 20
9.9459003793
 30
0.0
  0
SPLINE
  5
3D5
100
AcDbEntity
  8
0
100
AcDbSpline
 62
9
  6
CONTINUOUS
 70
0
 71
3
 72
21
 73
17
 74
0
 42
0.0000001
 43
0.0000001
 44
0.0000000001
 40
0.0
 40
0.0
 40
0.0
 40
0.0
 40
0.2065904456
 40
0.4041604596
 40
0.58540281
 40
0.7400091684
 40
0.8041024153
 40
0.85877597
 40
0.9040322942
 40
0.9398788884
 40
0.966478492
 40
0.9765402097
 40
0.9846002006
 40
0.990787736
 40
0.9952555367
 40
1.0
 40
1.0
 40
1.0
 40
1.0
 10
18.0993358213
 20
9.7447596939
 30
0.0
 10
18.0993358211
 20
9.7434271783
 30
0.0
 10
18.0993308122
 20
9.7408203257
 30
0.0
 10
18.099303738
 20
9.7370445242
 30
0.0
 10
18.0992534378
 20
9.7336042989
 30
0.0
 10
18.0991906221
 20
9.7310253236
 30
0.0
 10
18.0991233194
 20
9.7292633168
 30
0.0
 10
18.099070766
 20
9.7282066276
 30
0.0
 10
18.0990143419
 20
9.7273326739
 30
0.0
 10
18.0989548682
 20
9.7266403767
 30
0.0
 10
18.0989000988
 20
9.7261759926
 30
0.0
 10
18.0988522916
 20
9.7258910439
 30
0.0
 10
18.098820188
 20
9.7257383689
 30
0.0
 10
18.0987863768
 20
9.7256200588
 30
0.0
 10
18.0987526032
 20
9.7255326583
 30
0.0
 10
18.0987100751
 20
9.7254708567
 30
0.0
 10
18.0986794731
 20
9.7254708505
 30
0.0
  0
SPLINE
  5
3D6
100
AcDbEntity
  8
0
100
AcDbSpline
 62
9
  6
CONTINUOUS
 70
0
 71
3
 72
21
 73
17
 74
0
 42
0.0000001
 43
0.0000001
 44
0.0000000001
 40
0.0
 40
0.0
 40
0.0
 40
0.0
 40
0.004744333
 40
0.0092120068
 40
0.0153994259
 40
0.0234593488
 40
0.0335210836
 40
0.0601211205
 40
0.0959687921
 40
0.1412264865
 40
0.1959012241
 40
0.2599949865
 40
0.4145996962
 40
0.5958394195
 40
0.7934086713
 40
1.0
 40
1.0
 40
1.0
 40
1.0
 10
18.0918351885
 20
9.7254708505
 30
0.0
 10
18.0918045874
 20
9.7254708564
 30
0.0
 10
18.0917620587
 20
9.7255326545
 30
0.0
 10
18.0917282853
 20
9.725620053
 30
0.0
 10
18.0916944741
 20
9.7257383609
 30
0.0
 10
18.0916623705
 20
9.7258910349
 30
0.0
 10
18.0916145629
 20
9.7261759859
 30
0.0
 10
18.0915597931
 20
9.72664038
 30
0.0
 10
18.091500319
 20
9.7273326958
 30
0.0
 10
18.0914438941
 20
9.728206673
 30
0.0
 10
18.09139134
 20
9.7292633821
 30
0.0
 10
18.0913240373
 20
9.7310253893
 30
0.0
 10
18.0912612223
 20
9.7336043405
 30
0.0
 10
18.0912109238
 20
9.7370445334
 30
0.0
 10
18.0911838498
 20
9.740820319
 30
0.0
 10
18.0911788406
 20
9.7434271726
 30
0.0
 10
18.0911788403
 20
9.7447596939
 30
0.0
  0
SPLINE
  5
3D7
100
AcDbEntity
  8
0
100
AcDbSpline
 62
9
  6
CONTINUOUS
 70
0
 71
3
 72
17
 73
13
 74
0
 42
0.0000001
 43
0.0000001
 44
0.0000000001
 40
0.0
 40
0.0
 40
0.0
 40
0.0
 40
0.1847335124
 40
0.3619064341
 40
0.5262608101
 40
0.671803687
 40
0.7932932397
 40
0.8879391138
 40
0.9251586097
 40
0.9559771051
 40
0.9807671712
 40
1.0
 40
1.0
 40
1.0
 40
1.0
 10
18.0883730929
 20
9.9459003793
 30
0.0
 10
18.0885486779
 20
9.9476794078
 30
0.0
 10
18.0888777256
 20
9.9511661623
 30
0.0
 10
18.0892979624
 20
9.9562415828
 30
0.0
 10
18.0896183228
 20
9.9609442692
 30
0.0
 10
18.0898215259
 20
9.9651142918
 30
0.0
 10
18.0898977207
 20
9.9686138099
 30
0.0
 10
18.0898571299
 20
9.9710665271
 30
0.0
 10
18.0897506361
 20
9.9726375418
 30
0.0
 10
18.0896508861
 20
9.9735307409
 30
0.0
 10
18.0895274874
 20
9.9742447903
 30
0.0
 10
18.0894189003
 20
9.9746579071
 30
0.0
 10
18.0893576152
 20
9.9748336444
 30
0.0
  0
SPLINE
  5
3D8
100
AcDbEntity
  8
0
100
AcDbSpline
 62
9
  6
CONTINUOUS
 70
0
 71
3
 72
8
 73
4
 74
0
 42
0.0000001
 43
0.0000001
 44
0.0000000001
 40
0.0
 40
0.0
 40
0.0
 40
0.0
 40
1.0
 40
1.0
 40
1.0
 40
1.0
 10
18.0893576152
 20
9.9748336444
 30
0.0
 10
18.0909574874
 20
9.9719254774
 30
0.0
 10
18.0918351885
 20
9.9685084133
 30
0.0
 10
18.0918351885
 20
9.9651892227
 30
0.0
  0
SPLINE
  5
3D9
100
AcDbEntity
  8
0
100
AcDbSpline
 62
9
  6
CONTINUOUS
 70
0
 71
3
 72
8
 73
4
 74
0
 42
0.0000001
 43
0.0000001
 44
0.0000000001
 40
0.0
 40
0.0
 40
0.0
 40
0.0
 40
1.0
 40
1.0
 40
1.0
 40
1.0
 10
18.0918351885
 20
9.7254708505
 30
0.0
 10
18.0918351885
 20
9.7221516599
 30
0.0
 10
18.0909574874
 20
9.7187345959
 30
0.0
 10
18.0893576152
 20
9.7158264289
 30
0.0
  0
SPLINE
  5
3DA
100
AcDbEntity
  8
0
100
AcDbSpline
 62
9
  6
CONTINUOUS
 70
0
 71
3
 72
17
 73
13
 74
0
 42
0.0000001
 43
0.0000001
 44
0.0000000001
 40
0.0
 40
0.0
 40
0.0
 40
0.0
 40
0.0192320808
 40
0.0440208248
 40
0.0748373222
 40
0.1120554067
 40
0.2066981335
 40
0.3281867322
 40
0.4737286184
 40
0.6380819211
 40
0.8152607206
 40
1.0
 40
1.0
 40
1.0
 40
1.0
 10
18.0893576152
 20
9.7158264289
 30
0.0
 10
18.0894188975
 20
9.7160021594
 30
0.0
 10
18.0895274823
 20
9.7164152561
 30
0.0
 10
18.0896508724
 20
9.7171292671
 30
0.0
 10
18.0897506233
 20
9.7180224198
 30
0.0
 10
18.089857128
 20
9.7195933703
 30
0.0
 10
18.0898977081
 20
9.7220460344
 30
0.0
 10
18.0898215382
 20
9.7255455033
 30
0.0
 10
18.0896183542
 20
9.7297154979
 30
0.0
 10
18.089297976
 20
9.73441822
 30
0.0
 10
18.0888777495
 20
9.739493744
 30
0.0
 10
18.0885486858
 20
9.7429806101
 30
0.0
 10
18.0883730929
 20
9.7447596939
 30
0.0
  0
LINE
  5
3DB
100
AcDbEntity
  8
0
100
AcDbLine
 62
9
  6
CONTINUOUS
 10
18.0962018998
 20
9.7158264289
 11
18.0975558288
 21
9.7188833661
  0
LINE
  5
3DC
100
AcDbEntity
  8
0
100
AcDbLine
 62
9
  6
CONTINUOUS
 10
18.0983897492
 20
9.7221245995
 11
18.0986794731
 21
9.7254708505
  0
SPLINE
  5
3DD
100
AcDbEntity
  8
0
100
AcDbSpline
 62
9
  6
CONTINUOUS
 70
0
 71
3
 72
9
 73
5
 74
0
 42
0.0000001
 43
0.0000001
 44
0.0000000001
 40
0.0
 40
0.0
 40
0.0
 40
0.0
 40
0.2496255858
 40
1.0
 40
1.0
 40
1.0
 40
1.0
 10
18.0986794731
 20
9.9651892227
 30
0.0
 10
18.0986794731
 20
9.9659710863
 30
0.0
 10
18.0984852804
 20
9.9691002496
 30
0.0
 10
18.0975594243
 20
9.9721837323
 30
0.0
 10
18.0964950745
 20
9.9742791997
 30
0.0
  0
LINE
  5
3DE
100
AcDbEntity
  8
0
100
AcDbLine
 62
9
  6
CONTINUOUS
 10
17.9518761664
 20
9.8453300366
 11
17.9518340921
 21
9.5110232815
  0
SPLINE
  5
3DF
100
AcDbEntity
  8
0
100
AcDbSpline
 62
9
  6
CONTINUOUS
 70
0
 71
3
 72
10
 73
6
 74
0
 42
0.0000001
 43
0.0000001
 44
0.0000000001
 40
0.0
 40
0.0
 40
0.0
 40
0.0
 40
0.2527172561
 40
0.5043865144
 40
1.0
 40
1.0
 40
1.0
 40
1.0
 10
14.5395440679
 20
9.5853299728
 30
0.0
 10
14.5385067652
 20
9.5876625542
 30
0.0
 10
14.5366326801
 20
9.5924104754
 30
0.0
 10
14.5338032606
 20
9.6021136141
 30
0.0
 10
14.5328097315
 20
9.6096864146
 30
0.0
 10
14.5328096823
 20
9.6146928642
 30
0.0
  0
SPLINE
  5
3E0
100
AcDbEntity
  8
0
100
AcDbSpline
 62
9
  6
CONTINUOUS
 70
0
 71
3
 72
15
 73
11
 74
0
 42
0.0000001
 43
0.0000001
 44
0.0000000001
 40
0.0
 40
0.0
 40
0.0
 40
0.0
 40
0.0512957509
 40
0.1212286106
 40
0.2124246484
 40
0.3266133085
 40
0.392518963
 40
0.4642199001
 40
0.6241652847
 40
1.0
 40
1.0
 40
1.0
 40
1.0
 10
14.4312583722
 20
9.9701940909
 30
0.0
 10
14.4310825756
 20
9.9699128133
 30
0.0
 10
14.4307703432
 20
9.9691858152
 30
0.0
 10
14.430424393
 20
9.9678547694
 30
0.0
 10
14.4301457529
 20
9.9660939892
 30
0.0
 10
14.4299874807
 20
9.964346122
 30
0.0
 10
14.4298970391
 20
9.9627203434
 30
0.0
 10
14.4298315135
 20
9.960797252
 30
0.0
 10
14.4298100894
 20
9.9568684333
 30
0.0
 10
14.4299418114
 20
9.9534047335
 30
0.0
 10
14.4300728734
 20
9.950978001
 30
0.0
  0
SPLINE
  5
3E1
100
AcDbEntity
  8
0
100
AcDbSpline
 62
9
  6
CONTINUOUS
 70
0
 71
3
 72
9
 73
5
 74
0
 42
0.0000001
 43
0.0000001
 44
0.0000000001
 40
0.0
 40
0.0
 40
0.0
 40
0.0
 40
0.5003165154
 40
1.0
 40
1.0
 40
1.0
 40
1.0
 10
14.5163516191
 20
10.075967209
 30
0.0
 10
14.5157532589
 20
10.0822909905
 30
0.0
 10
14.5163184117
 20
10.0951373169
 30
0.0
 10
14.5198784861
 20
10.1074417448
 30
0.0
 10
14.5222743071
 20
10.113315947
 30
0.0
  0
LINE
  5
3E2
100
AcDbEntity
  8
0
100
AcDbLine
 62
9
  6
CONTINUOUS
 10
14.5222744017
 20
10.1133161696
 11
14.5395442998
 21
10.1053302171
  0
SPLINE
  5
3E3
100
AcDbEntity
  8
0
100
AcDbSpline
 62
9
  6
CONTINUOUS
 70
0
 71
3
 72
15
 73
11
 74
0
 42
0.0000001
 43
0.0000001
 44
0.0000000001
 40
0.0
 40
0.0
 40
0.0
 40
0.0
 40
0.3757785932
 40
0.5358113932
 40
0.6075624459
 40
0.6735107622
 40
0.7877537287
 40
0.8789446933
 40
0.948814762
 40
1.0
 40
1.0
 40
1.0
 40
1.0
 10
14.4300813681
 20
9.7398378092
 30
0.0
 10
14.4299474803
 20
9.7373920335
 30
0.0
 10
14.4298119155
 20
9.7339004037
 30
0.0
 10
14.4298300747
 20
9.7299394596
 30
0.0
 10
14.4298943645
 20
9.7279996766
 30
0.0
 10
14.4299840177
 20
9.7263597863
 30
0.0
 10
14.4301417808
 20
9.724597113
 30
0.0
 10
14.4304207455
 20
9.7228219603
 30
0.0
 10
14.4307677856
 20
9.7214809937
 30
0.0
 10
14.4310815442
 20
9.7207489099
 30
0.0
 10
14.4312583722
 20
9.7204659824
 30
0.0
  0
SPLINE
  5
3E4
100
AcDbEntity
  8
0
100
AcDbSpline
 62
9
  6
CONTINUOUS
 70
0
 71
3
 72
11
 73
7
 74
0
 42
0.0000001
 43
0.0000001
 44
0.0000000001
 40
0.0
 40
0.0
 40
0.0
 40
0.0
 40
0.2519456629
 40
0.4911026513
 40
0.7353969511
 40
1.0
 40
1.0
 40
1.0
 40
1.0
 10
14.522343325
 20
9.5747300578
 30
0.0
 10
14.5222216315
 20
9.574924768
 30
0.0
 10
14.5220271369
 20
9.5753346732
 30
0.0
 10
14.5219193226
 20
9.5760052709
 30
0.0
 10
14.5220034012
 20
9.5766896431
 30
0.0
 10
14.5221692017
 20
9.5771270905
 30
0.0
 10
14.5222743071
 20
9.5773441264
 30
0.0
  0
SPLINE
  5
3E5
100
AcDbEntity
  8
0
100
AcDbSpline
 62
9
  6
CONTINUOUS
 70
0
 71
3
 72
14
 73
10
 74
0
 42
0.0000001
 43
0.0000001
 44
0.0000000001
 40
0.0
 40
0.0
 40
0.0
 40
0.0
 40
0.2490292269
 40
0.3765694488
 40
0.5042296866
 40
0.6309585735
 40
0.7562452564
 40
0.8795760722
 40
1.0
 40
1.0
 40
1.0
 40
1.0
 10
17.9753214744
 20
9.4816089891
 30
0.0
 10
17.9745066836
 20
9.4801277162
 30
0.0
 10
17.9729565048
 20
9.4780488218
 30
0.0
 10
17.9704468086
 20
9.4757139318
 30
0.0
 10
17.9683383366
 20
9.4741914736
 30
0.0
 10
17.9660590407
 20
9.4729710129
 30
0.0
 10
17.9636624901
 20
9.4720835565
 30
0.0
 10
17.9612176927
 20
9.4715105337
 30
0.0
 10
17.9595685431
 20
9.4713267293
 30
0.0
 10
17.9587520898
 20
9.4712850081
 30
0.0
  0
SPLINE
  5
3E6
100
AcDbEntity
  8
0
100
AcDbSpline
 62
9
  6
CONTINUOUS
 70
0
 71
3
 72
12
 73
8
 74
0
 42
0.0000001
 43
0.0000001
 44
0.0000000001
 40
0.0
 40
0.0
 40
0.0
 40
0.0
 40
0.3140983159
 40
0.5748491793
 40
0.7948242072
 40
0.8973465729
 40
1.0
 40
1.0
 40
1.0
 40
1.0
 10
17.950066994
 20
9.4845823809
 30
0.0
 10
17.9504338943
 20
9.4842556181
 30
0.0
 10
17.9510720755
 20
9.4836163643
 30
0.0
 10
17.951777367
 20
9.4825805116
 30
0.0
 10
17.9520558652
 20
9.481688969
 30
0.0
 10
17.9520470983
 20
9.4810191709
 30
0.0
 10
17.9519730594
 20
9.4807038846
 30
0.0
 10
17.9519202808
 20
9.4805522354
 30
0.0
  0
SPLINE
  5
3E7
100
AcDbEntity
  8
0
100
AcDbSpline
 62
9
  6
CONTINUOUS
 70
0
 71
3
 72
14
 73
10
 74
0
 42
0.0000001
 43
0.0000001
 44
0.0000000001
 40
0.0
 40
0.0
 40
0.0
 40
0.0
 40
0.2500005685
 40
0.3777176891
 40
0.5054023506
 40
0.6321394328
 40
0.7574146884
 40
0.8804187298
 40
1.0
 40
1.0
 40
1.0
 40
1.0
 10
17.9519202807
 20
9.4805522352
 30
0.0
 10
17.9510992795
 20
9.4790597664
 30
0.0
 10
17.9495412389
 20
9.4769648047
 30
0.0
 10
17.9470137023
 20
9.4746184933
 30
0.0
 10
17.9448901196
 20
9.4730973521
 30
0.0
 10
17.9425927979
 20
9.4718906082
 30
0.0
 10
17.9401878899
 20
9.4710069281
 30
0.0
 10
17.9377415166
 20
9.4704357177
 30
0.0
 10
17.9360936906
 20
9.4702552314
 30
0.0
 10
17.9352798013
 20
9.470217403
 30
0.0
  0
SPLINE
  5
3E8
100
AcDbEntity
  8
0
100
AcDbSpline
 62
9
  6
CONTINUOUS
 70
0
 71
3
 72
15
 73
11
 74
0
 42
0.0000001
 43
0.0000001
 44
0.0000000001
 40
0.0
 40
0.0
 40
0.0
 40
0.0
 40
0.3121856586
 40
0.4719158887
 40
0.6226829273
 40
0.7558104825
 40
0.8652358904
 40
0.9466333043
 40
0.9767509397
 40
1.0
 40
1.0
 40
1.0
 40
1.0
 10
17.9282312601
 20
9.4901601666
 30
0.0
 10
17.9304798133
 20
9.4894886702
 30
0.0
 10
17.9338878084
 20
9.4885032288
 30
0.0
 10
17.9384019438
 20
9.487265599
 30
0.0
 10
17.9416270142
 20
9.4864173044
 30
0.0
 10
17.9444962796
 20
9.4857035923
 30
0.0
 10
17.9468689745
 20
9.4851554994
 30
0.0
 10
17.948496262
 20
9.4848213355
 30
0.0
 10
17.9494953664
 20
9.4846535986
 30
0.0
 10
17.949893118
 20
9.4846001851
 30
0.0
 10
17.9500669754
 20
9.4845824313
 30
0.0
  0
SPLINE
  5
3E9
100
AcDbEntity
  8
0
100
AcDbSpline
 62
9
  6
CONTINUOUS
 70
0
 71
3
 72
14
 73
10
 74
0
 42
0.0000001
 43
0.0000001
 44
0.0000000001
 40
0.0
 40
0.0
 40
0.0
 40
0.0
 40
0.2440030594
 40
0.3709638279
 40
0.4993499975
 40
0.6276521197
 40
0.7546922231
 40
0.879164617
 40
1.0
 40
1.0
 40
1.0
 40
1.0
 10
17.9500669848
 20
9.4845824321
 30
0.0
 10
17.9495696705
 20
9.4828195595
 30
0.0
 10
17.9484470729
 20
9.480222051
 30
0.0
 10
17.946270606
 20
9.4771588528
 30
0.0
 10
17.9442780285
 20
9.4750643601
 30
0.0
 10
17.9419958718
 20
9.4732888901
 30
0.0
 10
17.9394978274
 20
9.4718923659
 30
0.0
 10
17.936874983
 20
9.4708976405
 30
0.0
 10
17.9350667006
 20
9.4705098726
 30
0.0
 10
17.9341683738
 20
9.4703841297
 30
0.0
  0
SPLINE
  5
3EA
100
AcDbEntity
  8
0
100
AcDbSpline
 62
9
  6
CONTINUOUS
 70
0
 71
3
 72
19
 73
15
 74
0
 42
0.0000001
 43
0.0000001
 44
0.0000000001
 40
0.0
 40
0.0
 40
0.0
 40
0.0
 40
0.1784236893
 40
0.3597689018
 40
0.5336191339
 40
0.6886411193
 40
0.7556941306
 40
0.8147698526
 40
0.8654772459
 40
0.9074818884
 40
0.9407406636
 40
0.9661165957
 40
0.9850806306
 40
1.0
 40
1.0
 40
1.0
 40
1.0
 10
17.9282312402
 20
9.4901601666
 30
0.0
 10
17.9282202867
 20
9.488930211
 30
0.0
 10
17.9282372203
 20
9.4864496781
 30
0.0
 10
17.9283802712
 20
9.4827730131
 30
0.0
 10
17.9286556731
 20
9.4792656756
 30
0.0
 10
17.9289918874
 20
9.4765553141
 30
0.0
 10
17.929333603
 20
9.4746470234
 30
0.0
 10
17.9295990694
 20
9.4734567727
 30
0.0
 10
17.9298799712
 20
9.4724481634
 30
0.0
 10
17.930170696
 20
9.4716288789
 30
0.0
 10
17.930469221
 20
9.4710005101
 30
0.0
 10
17.930772384
 20
9.470556361
 30
0.0
 10
17.9310814665
 20
9.4702790016
 30
0.0
 10
17.9313150353
 20
9.4702061285
 30
0.0
 10
17.9314178805
 20
9.4702051322
 30
0.0
  0
SPLINE
  5
3EB
100
AcDbEntity
  8
0
100
AcDbSpline
 62
9
  6
CONTINUOUS
 70
0
 71
3
 72
24
 73
20
 74
0
 42
0.0000001
 43
0.0000001
 44
0.0000000001
 40
0.0
 40
0.0
 40
0.0
 40
0.0
 40
0.0626938342
 40
0.0940415903
 40
0.1253884638
 40
0.1880778733
 40
0.2507591567
 40
0.3760802353
 40
0.4387112089
 40
0.5013146112
 40
0.6264090944
 40
0.6888819916
 40
0.7512907823
 40
0.7824671314
 40
0.8136224474
 40
0.8758621877
 40
0.9069429636
 40
0.9379948785
 40
1.0
 40
1.0
 40
1.0
 40
1.0
 10
15.6458183322
 20
9.5853340235
 30
0.0
 10
15.6935650591
 20
9.5856146816
 30
0.0
 10
15.7651903819
 20
9.5854781962
 30
0.0
 10
15.8606790071
 20
9.5842769738
 30
0.0
 10
15.9561541143
 20
9.5824269789
 30
0.0
 10
16.0754633766
 20
9.5789845221
 30
0.0
 10
16.2662438355
 20
9.5714465317
 30
0.0
 10
16.456871006
 20
9.5614531509
 30
0.0
 10
16.6473578078
 20
9.5501391093
 30
0.0
 10
16.8376411533
 20
9.5383152978
 30
0.0
 10
17.0277916692
 20
9.5262948248
 30
0.0
 10
17.2178481417
 20
9.5151644807
 30
0.0
 10
17.336534027
 20
9.5088366377
 30
0.0
 10
17.4314269155
 20
9.5042760824
 30
0.0
 10
17.5262079547
 20
9.5000867423
 30
0.0
 10
17.6209430358
 20
9.4965137656
 30
0.0
 10
17.7156241775
 20
9.4937176595
 30
0.0
 10
17.8101414955
 20
9.491490151
 30
0.0
 10
17.8810093714
 20
9.4904911899
 30
0.0
 10
17.9282312399
 20
9.4901601294
 30
0.0
  0
SPLINE
  5
3EC
100
AcDbEntity
  8
0
100
AcDbSpline
 62
9
  6
CONTINUOUS
 70
0
 71
3
 72
14
 73
10
 74
0
 42
0.0000001
 43
0.0000001
 44
0.0000000001
 40
0.0
 40
0.0
 40
0.0
 40
0.0
 40
0.0533852365
 40
0.1193387608
 40
0.2052209474
 40
0.3142366226
 40
0.4477780078
 40
0.6064615908
 40
1.0
 40
1.0
 40
1.0
 40
1.0
 10
15.6474159519
 20
9.5653344992
 30
0.0
 10
15.647385188
 20
9.5653343488
 30
0.0
 10
15.647316059
 20
9.5653555673
 30
0.0
 10
15.6472272627
 20
9.5654366375
 30
0.0
 10
15.6471422844
 20
9.5655614532
 30
0.0
 10
15.6470595137
 20
9.5657321729
 30
0.0
 10
15.64697863
 20
9.5659490159
 30
0.0
 10
15.646865613
 20
9.5663279077
 30
0.0
 10
15.6467983524
 20
9.5666394294
 30
0.0
 10
15.6467559669
 20
9.5668622173
 30
0.0
  0
SPLINE
  5
3ED
100
AcDbEntity
  8
0
100
AcDbSpline
 62
9
  6
CONTINUOUS
 70
0
 71
3
 72
13
 73
9
 74
0
 42
0.0000001
 43
0.0000001
 44
0.0000000001
 40
0.0
 40
0.0
 40
0.0
 40
0.0
 40
0.0724078928
 40
0.1644366351
 40
0.2742686889
 40
0.3997142171
 40
0.6867224395
 40
1.0
 40
1.0
 40
1.0
 40
1.0
 10
15.6467559669
 20
9.5668622173
 30
0.0
 10
15.6466724705
 20
9.5673010938
 30
0.0
 10
15.6465312818
 20
9.5683066875
 30
0.0
 10
15.6463651892
 20
9.5699907627
 30
0.0
 10
15.6462161157
 20
9.5720048916
 30
0.0
 10
15.646029547
 20
9.5752220078
 30
0.0
 10
15.6458704495
 20
9.5796974532
 30
0.0
 10
15.6458235662
 20
9.5834011436
 30
0.0
 10
15.6458183592
 20
9.5853340236
 30
0.0
  0
SPLINE
  5
3EE
100
AcDbEntity
  8
0
100
AcDbSpline
 62
7
  6
CONTINUOUS
 70
0
 71
3
 72
13
 73
9
 74
0
 42
0.0000001
 43
0.0000001
 44
0.0000000001
 40
0.0
 40
0.0
 40
0.0
 40
0.0
 40
0.1025018802
 40
0.186350863
 40
0.2957632716
 40
0.4316369546
 40
0.5942891935
 40
1.0
 40
1.0
 40
1.0
 40
1.0
 10
15.645818412
 20
9.565330037
 30
0.0
 10
15.6457613516
 20
9.5653299551
 30
0.0
 10
15.645674229
 20
9.5654185773
 30
0.0
 10
15.6455994441
 20
9.565558947
 30
0.0
 10
15.6455296908
 20
9.5657308409
 30
0.0
 10
15.6454622783
 20
9.5659470996
 30
0.0
 10
15.6453647069
 20
9.5663272545
 30
0.0
 10
15.6453049092
 20
9.5666380951
 30
0.0
 10
15.6452663101
 20
9.5668606224
 30
0.0
  0
SPLINE
  5
3EF
100
AcDbEntity
  8
0
100
AcDbSpline
 62
7
  6
CONTINUOUS
 70
0
 71
3
 72
13
 73
9
 74
0
 42
0.0000001
 43
0.0000001
 44
0.0000000001
 40
0.0
 40
0.0
 40
0.0
 40
0.0
 40
0.0723703022
 40
0.1644285754
 40
0.2742837855
 40
0.3997321044
 40
0.686728717
 40
1.0
 40
1.0
 40
1.0
 40
1.0
 10
15.6452663101
 20
9.5668606224
 30
0.0
 10
15.6451900195
 20
9.5673004442
 30
0.0
 10
15.6450541346
 20
9.5683060885
 30
0.0
 10
15.644887311
 20
9.5699897709
 30
0.0
 10
15.6447387044
 20
9.5720037047
 30
0.0
 10
15.644561625
 20
9.5752205688
 30
0.0
 10
15.6444177034
 20
9.579695123
 30
0.0
 10
15.6443792731
 20
9.5833977388
 30
0.0
 10
15.6443795274
 20
9.5853300366
 30
0.0
  0
LINE
  5
3F0
100
AcDbEntity
  8
0
100
AcDbLine
 62
9
  6
CONTINUOUS
 10
15.6443795274
 20
9.5853300366
 11
15.6458183592
 21
9.5853340236
  0
SPLINE
  5
3F1
100
AcDbEntity
  8
0
100
AcDbSpline
 62
9
  6
CONTINUOUS
 70
0
 71
3
 72
11
 73
7
 74
0
 42
0.0000001
 43
0.0000001
 44
0.0000000001
 40
0.0
 40
0.0
 40
0.0
 40
0.0
 40
0.2646030588
 40
0.5088974168
 40
0.7480543901
 40
1.0
 40
1.0
 40
1.0
 40
1.0
 10
14.5222743071
 20
10.113315947
 30
0.0
 10
14.5221692017
 20
10.1135329829
 30
0.0
 10
14.5220034011
 20
10.1139704303
 30
0.0
 10
14.5219193225
 20
10.1146548025
 30
0.0
 10
14.522027137
 20
10.1153254001
 30
0.0
 10
14.5222216317
 20
10.1157353051
 30
0.0
 10
14.522343325
 20
10.1159300154
 30
0.0
  0
LINE
  5
3F2
100
AcDbEntity
  8
0
100
AcDbLine
 62
9
  6
CONTINUOUS
 10
14.540346475
 20
9.5653300337
 11
14.5400432768
 21
9.5668133494
  0
SPLINE
  5
3F3
100
AcDbEntity
  8
0
100
AcDbSpline
 62
9
  6
CONTINUOUS
 70
0
 71
3
 72
12
 73
8
 74
0
 42
0.0000001
 43
0.0000001
 44
0.0000000001
 40
0.0
 40
0.0
 40
0.0
 40
0.0
 40
0.0712907415
 40
0.1626814807
 40
0.3976974336
 40
0.6854806297
 40
1.0
 40
1.0
 40
1.0
 40
1.0
 10
14.5400432768
 20
9.5668133494
 30
0.0
 10
14.5400001486
 20
9.5672515168
 30
0.0
 10
14.539923707
 20
9.5682535014
 30
0.0
 10
14.5397871954
 20
9.570705898
 30
0.0
 10
14.5396597196
 20
9.5744973338
 30
0.0
 10
14.5395654927
 20
9.579667747
 30
0.0
 10
14.5395442183
 20
9.5833875751
 30
0.0
 10
14.5395442182
 20
9.5853300169
 30
0.0
  0
SPLINE
  5
3F4
100
AcDbEntity
  8
0
100
AcDbSpline
 62
9
  6
CONTINUOUS
 70
0
 71
3
 72
13
 73
9
 74
0
 42
0.0000001
 43
0.0000001
 44
0.0000000001
 40
0.0
 40
0.0
 40
0.0
 40
0.0
 40
0.1216564134
 40
0.2470674671
 40
0.5017471381
 40
0.7554153705
 40
0.8797135919
 40
1.0
 40
1.0
 40
1.0
 40
1.0
 10
14.522274403
 20
10.1133161697
 30
0.0
 10
14.5226409843
 20
10.1141701544
 30
0.0
 10
14.5235184061
 20
10.1158504657
 30
0.0
 10
14.5257489135
 20
10.1189769904
 30
0.0
 10
14.5293646405
 20
10.1223137493
 30
0.0
 10
14.5338331336
 20
10.1243556082
 30
0.0
 10
14.5375563704
 20
10.1251843037
 30
0.0
 10
14.5394276005
 20
10.1253300366
 30
0.0
 10
14.5403464744
 20
10.1253300366
 30
0.0
  0
SPLINE
  5
3F5
100
AcDbEntity
  8
0
100
AcDbSpline
 62
9
  6
CONTINUOUS
 70
0
 71
3
 72
22
 73
18
 74
0
 42
0.0000001
 43
0.0000001
 44
0.0000000001
 40
0.0
 40
0.0
 40
0.0
 40
0.0
 40
0.1885349813
 40
0.3710287355
 40
0.5398386999
 40
0.6172400987
 40
0.689071842
 40
0.7546801324
 40
0.8135234819
 40
0.8650991728
 40
0.908907512
 40
0.9444774238
 40
0.9715538968
 40
0.9818713495
 40
0.9900322737
 40
0.996050653
 40
1.0
 40
1.0
 40
1.0
 40
1.0
 10
14.5395442187
 20
10.1053300366
 30
0.0
 10
14.5395442187
 20
10.1065880702
 30
0.0
 10
14.5395537006
 20
10.1090638366
 30
0.0
 10
14.5395950185
 20
10.112665805
 30
0.0
 10
14.539652808
 20
10.1155258843
 30
0.0
 10
14.539712913
 20
10.1176472429
 30
0.0
 10
14.5397622298
 20
10.1190799733
 30
0.0
 10
14.5398167257
 20
10.1203885875
 30
0.0
 10
14.5398757858
 20
10.1215616976
 30
0.0
 10
14.5399388035
 20
10.1225888916
 30
0.0
 10
14.5400048974
 20
10.1234602748
 30
0.0
 10
14.5400737616
 20
10.1241672643
 30
0.0
 10
14.5401361739
 20
10.1246504071
 30
0.0
 10
14.5401898953
 20
10.1249495527
 30
0.0
 10
14.5402263182
 20
10.1251092168
 30
0.0
 10
14.5402623791
 20
10.1252243568
 30
0.0
 10
14.5402910452
 20
10.1252856797
 30
0.0
 10
14.5403076705
 20
10.1253061264
 30
0.0
  0
SPLINE
  5
3F6
100
AcDbEntity
  8
0
100
AcDbSpline
 62
9
  6
CONTINUOUS
 70
0
 71
3
 72
9
 73
5
 74
0
 42
0.0000001
 43
0.0000001
 44
0.0000000001
 40
0.0
 40
0.0
 40
0.0
 40
0.0
 40
0.3078806523
 40
1.0
 40
1.0
 40
1.0
 40
1.0
 10
14.5403076705
 20
10.1253061264
 30
0.0
 10
14.5403106696
 20
10.1253098149
 30
0.0
 10
14.5403208183
 20
10.1253211831
 30
0.0
 10
14.5403357871
 20
10.1253300375
 30
0.0
 10
14.540346474
 20
10.1253300373
 30
0.0
  0
SPLINE
  5
3F7
100
AcDbEntity
  8
0
100
AcDbSpline
 62
7
  6
CONTINUOUS
 70
0
 71
3
 72
13
 73
9
 74
0
 42
0.0000001
 43
0.0000001
 44
0.0000000001
 40
0.0
 40
0.0
 40
0.0
 40
0.0
 40
0.1026343147
 40
0.186528661
 40
0.2959601852
 40
0.4318254728
 40
0.5944418356
 40
1.0
 40
1.0
 40
1.0
 40
1.0
 10
15.6458182634
 20
10.1253300367
 30
0.0
 10
15.6457611343
 20
10.1253301187
 30
0.0
 10
15.6456738383
 20
10.1252416521
 30
0.0
 10
15.6455985954
 20
10.1251013937
 30
0.0
 10
15.6455283739
 20
10.1249296835
 30
0.0
 10
15.6454603618
 20
10.1247136454
 30
0.0
 10
15.6453617668
 20
10.1243339053
 30
0.0
 10
15.6453011299
 20
10.1240233623
 30
0.0
 10
15.6452619344
 20
10.1238010458
 30
0.0
  0
SPLINE
  5
3F8
100
AcDbEntity
  8
0
100
AcDbSpline
 62
7
  6
CONTINUOUS
 70
0
 71
3
 72
13
 73
9
 74
0
 42
0.0000001
 43
0.0000001
 44
0.0000000001
 40
0.0
 40
0.0
 40
0.0
 40
0.0
 40
0.0723677409
 40
0.1644266212
 40
0.2742854934
 40
0.3997383182
 40
0.686737088
 40
1.0
 40
1.0
 40
1.0
 40
1.0
 10
15.6452619344
 20
10.1238010458
 30
0.0
 10
15.6451844148
 20
10.1233613562
 30
0.0
 10
15.6450457579
 20
10.1223558791
 30
0.0
 10
15.6448741293
 20
10.1206723016
 30
0.0
 10
15.6447193421
 20
10.1186583404
 30
0.0
 10
15.644532041
 20
10.1154412857
 30
0.0
 10
15.6443769533
 20
10.1109660874
 30
0.0
 10
15.6443338016
 20
10.1072627307
 30
0.0
 10
15.6443318321
 20
10.1053300641
 30
0.0
  0
SPLINE
  5
3F9
100
AcDbEntity
  8
0
100
AcDbSpline
 62
9
  6
CONTINUOUS
 70
0
 71
3
 72
12
 73
8
 74
0
 42
0.0000001
 43
0.0000001
 44
0.0000000001
 40
0.0
 40
0.0
 40
0.0
 40
0.0
 40
0.158334864
 40
0.2529466778
 40
0.3626443862
 40
0.6376027122
 40
1.0
 40
1.0
 40
1.0
 40
1.0
 10
17.9314178777
 20
10.2204549275
 30
0.0
 10
17.9313113512
 20
10.2204538954
 30
0.0
 10
17.9311406828
 20
10.2203991202
 30
0.0
 10
17.9309425976
 20
10.220256042
 30
0.0
 10
17.9307142468
 20
10.2200262994
 30
0.0
 10
17.9304368916
 20
10.2196024171
 30
0.0
 10
17.9302580663
 20
10.2192117555
 30
0.0
 10
17.9301666007
 20
10.2189857316
 30
0.0
  0
SPLINE
  5
3FA
100
AcDbEntity
  8
0
100
AcDbSpline
 62
9
  6
CONTINUOUS
 70
0
 71
3
 72
13
 73
9
 74
0
 42
0.0000001
 43
0.0000001
 44
0.0000000001
 40
0.0
 40
0.0
 40
0.0
 40
0.0
 40
0.0744126489
 40
0.1695632406
 40
0.2840321084
 40
0.4147940647
 40
0.7048337791
 40
1.0
 40
1.0
 40
1.0
 40
1.0
 10
17.9301666007
 20
10.2189857316
 30
0.0
 10
17.9299929542
 20
10.2185566278
 30
0.0
 10
17.9296762565
 20
10.2175475348
 30
0.0
 10
17.9292853655
 20
10.2158235943
 30
0.0
 10
17.92894304
 20
10.213732796
 30
0.0
 10
17.9285536593
 20
10.2104251241
 30
0.0
 10
17.9282653457
 20
10.2059775177
 30
0.0
 10
17.9282148874
 20
10.2023360308
 30
0.0
 10
17.9282312384
 20
10.2004999295
 30
0.0
  0
SPLINE
  5
3FB
100
AcDbEntity
  8
0
100
AcDbSpline
 62
9
  6
CONTINUOUS
 70
0
 71
3
 72
13
 73
9
 74
0
 42
0.0000001
 43
0.0000001
 44
0.0000000001
 40
0.0
 40
0.0
 40
0.0
 40
0.0
 40
0.0932336757
 40
0.1719263766
 40
0.2771417828
 40
0.4110330914
 40
0.575234792
 40
1.0
 40
1.0
 40
1.0
 40
1.0
 10
15.6472302993
 20
10.1253260882
 30
0.0
 10
15.6471788062
 20
10.1253263585
 30
0.0
 10
15.6470990653
 20
10.1252451441
 30
0.0
 10
15.6470299726
 20
10.1251145228
 30
0.0
 10
15.6469638668
 20
10.1249494925
 30
0.0
 10
15.6468990536
 20
10.1247369852
 30
0.0
 10
15.6468023892
 20
10.1243491359
 30
0.0
 10
15.6467436731
 20
10.1240290332
 30
0.0
 10
15.6467053994
 20
10.1237975747
 30
0.0
  0
SPLINE
  5
3FC
100
AcDbEntity
  8
0
100
AcDbSpline
 62
9
  6
CONTINUOUS
 70
0
 71
3
 72
13
 73
9
 74
0
 42
0.0000001
 43
0.0000001
 44
0.0000000001
 40
0.0
 40
0.0
 40
0.0
 40
0.0
 40
0.072793902
 40
0.1672789914
 40
0.2817180172
 40
0.4127820877
 40
0.703832927
 40
1.0
 40
1.0
 40
1.0
 40
1.0
 10
15.6467053994
 20
10.1237975747
 30
0.0
 10
15.6466321739
 20
10.1233547476
 30
0.0
 10
15.6464994249
 20
10.1223314005
 30
0.0
 10
15.6463331504
 20
10.1206022192
 30
0.0
 10
15.6461841142
 20
10.1185109872
 30
0.0
 10
15.6460084455
 20
10.1152072061
 30
0.0
 10
15.6458662164
 20
10.110780143
 30
0.0
 10
15.6458233554
 20
10.1071594477
 30
0.0
 10
15.6458183581
 20
10.1053333153
 30
0.0
  0
LINE
  5
3FD
100
AcDbEntity
  8
0
100
AcDbLine
 62
9
  6
CONTINUOUS
 10
15.6458183582
 20
10.1053333153
 11
15.6443318321
 21
10.1053300641
  0
SPLINE
  5
3FE
100
AcDbEntity
  8
0
100
AcDbSpline
 62
9
  6
CONTINUOUS
 70
0
 71
3
 72
14
 73
10
 74
0
 42
0.0000001
 43
0.0000001
 44
0.0000000001
 40
0.0
 40
0.0
 40
0.0
 40
0.0
 40
0.1243760962
 40
0.2507653423
 40
0.378249233
 40
0.5060284773
 40
0.6331063064
 40
0.7583717891
 40
1.0
 40
1.0
 40
1.0
 40
1.0
 10
17.9375514597
 20
10.2194748568
 30
0.0
 10
17.9382995219
 20
10.2192213178
 30
0.0
 10
17.9397763282
 20
10.2186123772
 30
0.0
 10
17.9418722193
 20
10.2174267255
 30
0.0
 10
17.9438192942
 20
10.2159719339
 30
0.0
 10
17.9455682528
 20
10.2142789726
 30
0.0
 10
17.9470929178
 20
10.2123992401
 30
0.0
 10
17.9487611401
 20
10.2097362213
 30
0.0
 10
17.9496503647
 20
10.207554535
 30
0.0
 10
17.9500669922
 20
10.2060776981
 30
0.0
  0
LINE
  5
3FF
100
AcDbEntity
  8
0
100
AcDbLine
 62
9
  6
CONTINUOUS
 10
14.5395442205
 20
9.5853300407
 11
15.6443700943
 21
9.5853320438
  0
SPLINE
  5
400
100
AcDbEntity
  8
0
100
AcDbSpline
 62
9
  6
CONTINUOUS
 70
0
 71
3
 72
13
 73
9
 74
0
 42
0.0000001
 43
0.0000001
 44
0.0000000001
 40
0.0
 40
0.0
 40
0.0
 40
0.0
 40
0.120286478
 40
0.244584791
 40
0.4982531652
 40
0.7529328795
 40
0.8783438295
 40
1.0
 40
1.0
 40
1.0
 40
1.0
 10
14.5403464748
 20
9.5653300366
 30
0.0
 10
14.5394275929
 20
9.5653300366
 30
0.0
 10
14.5375563467
 20
9.565475772
 30
0.0
 10
14.5338330791
 20
9.5663044811
 30
0.0
 10
14.5293645547
 20
9.568346375
 30
0.0
 10
14.5257488187
 20
9.5716831845
 30
0.0
 10
14.523518318
 20
9.574809749
 30
0.0
 10
14.5226409054
 20
9.5764900793
 30
0.0
 10
14.5222743305
 20
9.5773440729
 30
0.0
  0
LINE
  5
401
100
AcDbEntity
  8
0
100
AcDbLine
 62
9
  6
CONTINUOUS
 10
14.5222743307
 20
9.5773440732
 11
14.5395442396
 21
9.5853299933
  0
SPLINE
  5
402
100
AcDbEntity
  8
0
100
AcDbSpline
 62
9
  6
CONTINUOUS
 70
0
 71
3
 72
11
 73
7
 74
0
 42
0.0000001
 43
0.0000001
 44
0.0000000001
 40
0.0
 40
0.0
 40
0.0
 40
0.0
 40
0.2497029368
 40
0.4995550907
 40
0.7496195263
 40
1.0
 40
1.0
 40
1.0
 40
1.0
 10
14.5222743071
 20
9.5773441264
 30
0.0
 10
14.5210748696
 20
9.5802849186
 30
0.0
 10
14.5189882632
 20
9.5863019289
 30
0.0
 10
14.5168813151
 20
9.5956216858
 30
0.0
 10
14.5158940712
 20
9.6051365431
 30
0.0
 10
14.5160514005
 20
9.6115224397
 30
0.0
 10
14.5163516191
 20
9.6146928642
 30
0.0
  0
SPLINE
  5
403
100
AcDbEntity
  8
0
100
AcDbSpline
 62
9
  6
CONTINUOUS
 70
0
 71
3
 72
14
 73
10
 74
0
 42
0.0000001
 43
0.0000001
 44
0.0000000001
 40
0.0
 40
0.0
 40
0.0
 40
0.0
 40
0.2490042707
 40
0.3765318229
 40
0.5041845761
 40
0.6309122
 40
0.7562023513
 40
0.87954648
 40
1.0
 40
1.0
 40
1.0
 40
1.0
 10
17.9753214746
 20
10.2090510842
 30
0.0
 10
17.9745079142
 20
10.21053012
 30
0.0
 10
17.9729605532
 20
10.2126060989
 30
0.0
 10
17.9704556989
 20
10.2149386274
 30
0.0
 10
17.9683513388
 20
10.2164602115
 30
0.0
 10
17.9660764607
 20
10.2176810671
 30
0.0
 10
17.9636841458
 20
10.2185698538
 30
0.0
 10
17.9612431749
 20
10.2191450076
 30
0.0
 10
17.9595963163
 20
10.2193307463
 30
0.0
 10
17.9587808738
 20
10.2193735738
 30
0.0
  0
SPLINE
  5
404
100
AcDbEntity
  8
0
100
AcDbSpline
 62
9
  6
CONTINUOUS
 70
0
 71
3
 72
9
 73
5
 74
0
 42
0.0000001
 43
0.0000001
 44
0.0000000001
 40
0.0
 40
0.0
 40
0.0
 40
0.0
 40
0.5019240521
 40
1.0
 40
1.0
 40
1.0
 40
1.0
 10
17.9518340657
 20
9.5110232814
 30
0.0
 10
17.9522745454
 20
9.5065966294
 30
0.0
 10
17.9523947303
 20
9.4976873943
 30
0.0
 10
17.9510684842
 20
9.4888816848
 30
0.0
 10
17.950066994
 20
9.4845823809
 30
0.0
  0
SPLINE
  5
405
100
AcDbEntity
  8
0
100
AcDbSpline
 62
9
  6
CONTINUOUS
 70
0
 71
3
 72
9
 73
5
 74
0
 42
0.0000001
 43
0.0000001
 44
0.0000000001
 40
0.0
 40
0.0
 40
0.0
 40
0.0
 40
0.4984647609
 40
1.0
 40
1.0
 40
1.0
 40
1.0
 10
17.931314523
 20
9.5109962182
 30
0.0
 10
17.9313103916
 20
9.5074878247
 30
0.0
 10
17.9307524789
 20
9.5004420739
 30
0.0
 10
17.9292187772
 20
9.4935491896
 30
0.0
 10
17.9282312585
 20
9.4901601252
 30
0.0
  0
LINE
  5
406
100
AcDbEntity
  8
0
100
AcDbLine
 62
9
  6
CONTINUOUS
 10
17.9312939705
 20
9.8453300366
 11
17.9312692423
 21
9.5109962584
  0
LINE
  5
407
100
AcDbEntity
  8
0
100
AcDbLine
 62
9
  6
CONTINUOUS
 10
17.93126925
 20
10.1796638148
 11
17.9312939782
 21
9.8453300366
  0
SPLINE
  5
408
100
AcDbEntity
  8
0
100
AcDbSpline
 62
9
  6
CONTINUOUS
 70
0
 71
3
 72
18
 73
14
 74
0
 42
0.0000001
 43
0.0000001
 44
0.0000000001
 40
0.0
 40
0.0
 40
0.0
 40
0.0
 40
0.0626935652
 40
0.1253883618
 40
0.1880778856
 40
0.2507591871
 40
0.3134282132
 40
0.3760808359
 40
0.5013146076
 40
0.62640872
 40
0.7512902361
 40
0.8758624761
 40
1.0
 40
1.0
 40
1.0
 40
1.0
 10
15.6458183616
 20
10.1053260496
 30
0.0
 10
15.6935646109
 20
10.1050337382
 30
0.0
 10
15.789064078
 20
10.1052130977
 30
0.0
 10
15.9322885459
 20
10.1075405944
 30
0.0
 10
16.0754618912
 20
10.1116830791
 30
0.0
 10
16.2185626952
 20
10.1173369804
 30
0.0
 10
16.3615811399
 20
10.1242115346
 30
0.0
 10
16.5521190377
 20
10.1346385919
 30
0.0
 10
16.7900315019
 20
10.1493372522
 30
0.0
 10
17.0752197475
 20
10.1673614437
 30
0.0
 10
17.3600170732
 20
10.1835833491
 30
0.0
 10
17.6442935541
 20
10.1957871772
 30
0.0
 10
17.8336910532
 20
10.199826553
 30
0.0
 10
17.9282312486
 20
10.2004999294
 30
0.0
  0
SPLINE
  5
409
100
AcDbEntity
  8
0
100
AcDbSpline
 62
9
  6
CONTINUOUS
 70
0
 71
3
 72
9
 73
5
 74
0
 42
0.0000001
 43
0.0000001
 44
0.0000000001
 40
0.0
 40
0.0
 40
0.0
 40
0.0
 40
0.5015295069
 40
1.0
 40
1.0
 40
1.0
 40
1.0
 10
17.9282312536
 20
10.2004999309
 30
0.0
 10
17.9292187716
 20
10.1971109101
 30
0.0
 10
17.9307525593
 20
10.1902180445
 30
0.0
 10
17.9313103836
 20
10.1831722872
 30
0.0
 10
17.9313145134
 20
10.179663855
 30
0.0
  0
LINE
  5
40A
100
AcDbEntity
  8
0
100
AcDbLine
 62
9
  6
CONTINUOUS
 10
17.9518237703
 20
10.1796367819
 11
17.9518095358
 21
9.8453300366
  0
SPLINE
  5
40B
100
AcDbEntity
  8
0
100
AcDbSpline
 62
9
  6
CONTINUOUS
 70
0
 71
3
 72
9
 73
5
 74
0
 42
0.0000001
 43
0.0000001
 44
0.0000000001
 40
0.0
 40
0.0
 40
0.0
 40
0.0
 40
0.4980658562
 40
1.0
 40
1.0
 40
1.0
 40
1.0
 10
17.9500669955
 20
10.2060776779
 30
0.0
 10
17.9510684287
 20
10.2017784547
 30
0.0
 10
17.952394778
 20
10.1929727679
 30
0.0
 10
17.9522745306
 20
10.1840635331
 30
0.0
 10
17.9518340657
 20
10.1796367918
 30
0.0
  0
SPLINE
  5
40C
100
AcDbEntity
  8
0
100
AcDbSpline
 62
9
  6
CONTINUOUS
 70
0
 71
3
 72
15
 73
11
 74
0
 42
0.0000001
 43
0.0000001
 44
0.0000000001
 40
0.0
 40
0.0
 40
0.0
 40
0.0
 40
0.0232488386
 40
0.0533662751
 40
0.1347633676
 40
0.2441886037
 40
0.3773161532
 40
0.5280833308
 40
0.6878138041
 40
1.0
 40
1.0
 40
1.0
 40
1.0
 10
17.9500669747
 20
10.2060776928
 30
0.0
 10
17.9498931187
 20
10.2060599395
 30
0.0
 10
17.9494953699
 20
10.2060065269
 30
0.0
 10
17.9484962701
 20
10.2058387915
 30
0.0
 10
17.9468689863
 20
10.2055046285
 30
0.0
 10
17.9444962933
 20
10.2049565356
 30
0.0
 10
17.941627026
 20
10.2042428222
 30
0.0
 10
17.9384019506
 20
10.203394525
 30
0.0
 10
17.9338878053
 20
10.2021568906
 30
0.0
 10
17.9304798023
 20
10.2011714451
 30
0.0
 10
17.9282312438
 20
10.2004999459
 30
0.0
  0
SPLINE
  5
40D
100
AcDbEntity
  8
0
100
AcDbSpline
 62
9
  6
CONTINUOUS
 70
0
 71
3
 72
10
 73
6
 74
0
 42
0.0000001
 43
0.0000001
 44
0.0000000001
 40
0.0
 40
0.0
 40
0.0
 40
0.0
 40
0.4956236442
 40
0.7472950465
 40
1.0
 40
1.0
 40
1.0
 40
1.0
 10
14.5328091407
 20
10.0759672091
 30
0.0
 10
14.5328092623
 20
10.0809737975
 30
0.0
 10
14.5338028732
 20
10.0885467553
 30
0.0
 10
14.5366322171
 20
10.0982499915
 30
0.0
 10
14.5385062749
 20
10.1029978569
 30
0.0
 10
14.5395435741
 20
10.1053303241
 30
0.0
  0
SPLINE
  5
40E
100
AcDbEntity
  8
0
100
AcDbSpline
 62
9
  6
CONTINUOUS
 70
0
 71
3
 72
13
 73
9
 74
0
 42
0.0000001
 43
0.0000001
 44
0.0000000001
 40
0.0
 40
0.0
 40
0.0
 40
0.0
 40
0.1026225204
 40
0.2050935719
 40
0.4249441501
 40
0.549408321
 40
0.6860496722
 40
1.0
 40
1.0
 40
1.0
 40
1.0
 10
17.9519202808
 20
10.2101078378
 30
0.0
 10
17.9519730793
 20
10.2099561655
 30
0.0
 10
17.9520471562
 20
10.2096408336
 30
0.0
 10
17.9520558659
 20
10.2089711957
 30
0.0
 10
17.9518426577
 20
10.2082868782
 30
0.0
 10
17.951470711
 20
10.2076318898
 30
0.0
 10
17.9509356596
 20
10.2069057465
 30
0.0
 10
17.9504339411
 20
10.2064043946
 30
0.0
 10
17.9500669955
 20
10.2060776779
 30
0.0
  0
SPLINE
  5
40F
100
AcDbEntity
  8
0
100
AcDbSpline
 62
9
  6
CONTINUOUS
 70
0
 71
3
 72
14
 73
10
 74
0
 42
0.0000001
 43
0.0000001
 44
0.0000000001
 40
0.0
 40
0.0
 40
0.0
 40
0.0
 40
0.2500005933
 40
0.3777177246
 40
0.5054023923
 40
0.632139476
 40
0.7574147277
 40
0.8804187558
 40
1.0
 40
1.0
 40
1.0
 40
1.0
 10
17.9519202806
 20
10.2101078381
 30
0.0
 10
17.9510992786
 20
10.2116003084
 30
0.0
 10
17.9495412362
 20
10.213695272
 30
0.0
 10
17.9470136964
 20
10.2160415849
 30
0.0
 10
17.944890111
 20
10.2175627266
 30
0.0
 10
17.9425927864
 20
10.2187694702
 30
0.0
 10
17.9401878758
 20
10.2196531495
 30
0.0
 10
17.9377415001
 20
10.2202243584
 30
0.0
 10
17.9360936727
 20
10.2204048434
 30
0.0
 10
17.9352797829
 20
10.2204426711
 30
0.0
  0
LINE
  5
410
100
AcDbEntity
  8
0
100
AcDbLine
 62
7
  6
CONTINUOUS
 10
4.1632147998
 20
10.2204549548
 11
4.1604322628
 21
10.2204623523
  0
LINE
  5
411
100
AcDbEntity
  8
0
100
AcDbLine
 62
7
  6
CONTINUOUS
 10
4.1604323157
 20
9.4701977215
 11
4.1617653037
 21
9.4701982011
  0
LINE
  5
412
100
AcDbEntity
  8
0
100
AcDbLine
 62
7
  6
CONTINUOUS
 10
4.1617653037
 20
9.4701982011
 11
4.1632148526
 21
9.470205119
  0
SPLINE
  5
413
100
AcDbEntity
  8
0
100
AcDbSpline
 62
9
  6
CONTINUOUS
 70
0
 71
3
 72
21
 73
17
 74
0
 42
0.0000001
 43
0.0000001
 44
0.0000000001
 40
0.0
 40
0.0
 40
0.0
 40
0.0
 40
0.2065904452
 40
0.4041604588
 40
0.585402809
 40
0.7400091673
 40
0.8041024142
 40
0.8587759689
 40
0.9040322933
 40
0.9398788876
 40
0.9664784915
 40
0.9765402093
 40
0.9846002003
 40
0.9907877358
 40
0.9952555366
 40
1.0
 40
1.0
 40
1.0
 40
1.0
 10
4.0034578363
 20
9.7447596939
 30
0.0
 10
4.003457836
 20
9.7434271783
 30
0.0
 10
4.0034528271
 20
9.7408203257
 30
0.0
 10
4.0034257529
 20
9.7370445242
 30
0.0
 10
4.0033754527
 20
9.733604299
 30
0.0
 10
4.003312637
 20
9.7310253237
 30
0.0
 10
4.0032453344
 20
9.7292633169
 30
0.0
 10
4.0031927809
 20
9.7282066276
 30
0.0
 10
4.0031363568
 20
9.7273326739
 30
0.0
 10
4.0030768832
 20
9.7266403767
 30
0.0
 10
4.0030221138
 20
9.7261759926
 30
0.0
 10
4.0029743066
 20
9.7258910439
 30
0.0
 10
4.0029422029
 20
9.725738369
 30
0.0
 10
4.0029083917
 20
9.7256200588
 30
0.0
 10
4.0028746181
 20
9.7255326583
 30
0.0
 10
4.00283209
 20
9.7254708567
 30
0.0
 10
4.0028014881
 20
9.7254708505
 30
0.0
  0
SPLINE
  5
414
100
AcDbEntity
  8
0
100
AcDbSpline
 62
9
  6
CONTINUOUS
 70
0
 71
3
 72
21
 73
17
 74
0
 42
0.0000001
 43
0.0000001
 44
0.0000000001
 40
0.0
 40
0.0
 40
0.0
 40
0.0
 40
0.004744333
 40
0.0092120068
 40
0.0153994259
 40
0.0234593488
 40
0.0335210835
 40
0.0601211205
 40
0.0959687921
 40
0.1412264865
 40
0.195901224
 40
0.2599949865
 40
0.4145996962
 40
0.5958394194
 40
0.7934086713
 40
1.0
 40
1.0
 40
1.0
 40
1.0
 10
3.9959572035
 20
9.7254708505
 30
0.0
 10
3.9959266023
 20
9.7254708564
 30
0.0
 10
3.9958840736
 20
9.7255326545
 30
0.0
 10
3.9958503002
 20
9.725620053
 30
0.0
 10
3.995816489
 20
9.7257383609
 30
0.0
 10
3.9957843854
 20
9.7258910349
 30
0.0
 10
3.9957365778
 20
9.7261759859
 30
0.0
 10
3.995681808
 20
9.72664038
 30
0.0
 10
3.995622334
 20
9.7273326958
 30
0.0
 10
3.9955659091
 20
9.728206673
 30
0.0
 10
3.995513355
 20
9.7292633821
 30
0.0
 10
3.9954460522
 20
9.7310253893
 30
0.0
 10
3.9953832373
 20
9.7336043405
 30
0.0
 10
3.9953329388
 20
9.7370445334
 30
0.0
 10
3.9953058647
 20
9.740820319
 30
0.0
 10
3.9953008555
 20
9.7434271726
 30
0.0
 10
3.9953008552
 20
9.7447596939
 30
0.0
  0
SPLINE
  5
415
100
AcDbEntity
  8
0
100
AcDbSpline
 62
9
  6
CONTINUOUS
 70
0
 71
3
 72
21
 73
17
 74
0
 42
0.0000001
 43
0.0000001
 44
0.0000000001
 40
0.0
 40
0.0
 40
0.0
 40
0.0
 40
0.2065904456
 40
0.4041604596
 40
0.58540281
 40
0.7400091684
 40
0.8041024153
 40
0.85877597
 40
0.9040322942
 40
0.9398788884
 40
0.966478492
 40
0.9765402097
 40
0.9846002006
 40
0.990787736
 40
0.9952555367
 40
1.0
 40
1.0
 40
1.0
 40
1.0
 10
3.9953008552
 20
9.9459003793
 30
0.0
 10
3.9953008555
 20
9.9472328949
 30
0.0
 10
3.9953058644
 20
9.9498397475
 30
0.0
 10
3.9953329386
 20
9.9536155491
 30
0.0
 10
3.9953832388
 20
9.9570557743
 30
0.0
 10
3.9954460545
 20
9.9596347496
 30
0.0
 10
3.9955133571
 20
9.9613967564
 30
0.0
 10
3.9955659106
 20
9.9624534456
 30
0.0
 10
3.9956223347
 20
9.9633273993
 30
0.0
 10
3.9956818083
 20
9.9640196965
 30
0.0
 10
3.9957365778
 20
9.9644840807
 30
0.0
 10
3.9957843849
 20
9.9647690293
 30
0.0
 10
3.9958164886
 20
9.9649217043
 30
0.0
 10
3.9958502998
 20
9.9650400145
 30
0.0
 10
3.9958840734
 20
9.9651274149
 30
0.0
 10
3.9959266015
 20
9.9651892165
 30
0.0
 10
3.9959572035
 20
9.9651892227
 30
0.0
  0
SPLINE
  5
416
100
AcDbEntity
  8
0
100
AcDbSpline
 62
9
  6
CONTINUOUS
 70
0
 71
3
 72
21
 73
17
 74
0
 42
0.0000001
 43
0.0000001
 44
0.0000000001
 40
0.0
 40
0.0
 40
0.0
 40
0.0
 40
0.004744333
 40
0.0092120068
 40
0.0153994259
 40
0.0234593488
 40
0.0335210836
 40
0.0601211205
 40
0.0959687921
 40
0.1412264865
 40
0.1959012241
 40
0.2599949865
 40
0.4145996962
 40
0.5958394195
 40
0.7934086713
 40
1.0
 40
1.0
 40
1.0
 40
1.0
 10
4.0028014881
 20
9.9651892227
 30
0.0
 10
4.0028320892
 20
9.9651892169
 30
0.0
 10
4.0028746179
 20
9.9651274188
 30
0.0
 10
4.0029083913
 20
9.9650400202
 30
0.0
 10
4.0029422025
 20
9.9649217123
 30
0.0
 10
4.0029743061
 20
9.9647690384
 30
0.0
 10
4.0030221137
 20
9.9644840873
 30
0.0
 10
4.0030768835
 20
9.9640196932
 30
0.0
 10
4.0031363575
 20
9.9633273774
 30
0.0
 10
4.0031927824
 20
9.9624534002
 30
0.0
 10
4.0032453365
 20
9.9613966912
 30
0.0
 10
4.0033126393
 20
9.9596346839
 30
0.0
 10
4.0033754543
 20
9.9570557327
 30
0.0
 10
4.0034257527
 20
9.9536155398
 30
0.0
 10
4.0034528268
 20
9.9498397542
 30
0.0
 10
4.003457836
 20
9.9472329007
 30
0.0
 10
4.0034578363
 20
9.9459003793
 30
0.0
  0
SPLINE
  5
417
100
AcDbEntity
  8
0
100
AcDbSpline
 62
9
  6
CONTINUOUS
 70
0
 71
3
 72
17
 73
13
 74
0
 42
0.0000001
 43
0.0000001
 44
0.0000000001
 40
0.0
 40
0.0
 40
0.0
 40
0.0
 40
0.1847335124
 40
0.3619064341
 40
0.5262608101
 40
0.671803687
 40
0.7932932397
 40
0.8879391138
 40
0.9251586097
 40
0.9559771051
 40
0.9807671712
 40
1.0
 40
1.0
 40
1.0
 40
1.0
 10
4.0062635837
 20
9.7447596939
 30
0.0
 10
4.0060879987
 20
9.7429806654
 30
0.0
 10
4.005758951
 20
9.739493911
 30
0.0
 10
4.0053387142
 20
9.7344184905
 30
0.0
 10
4.0050183537
 20
9.729715804
 30
0.0
 10
4.0048151506
 20
9.7255457814
 30
0.0
 10
4.0047389559
 20
9.7220462633
 30
0.0
 10
4.0047795466
 20
9.7195935462
 30
0.0
 10
4.0048860405
 20
9.7180225315
 30
0.0
 10
4.0049857904
 20
9.7171293324
 30
0.0
 10
4.0051091891
 20
9.716415283
 30
0.0
 10
4.0052177763
 20
9.7160021661
 30
0.0
 10
4.0052790613
 20
9.7158264289
 30
0.0
  0
SPLINE
  5
418
100
AcDbEntity
  8
0
100
AcDbSpline
 62
9
  6
CONTINUOUS
 70
0
 71
3
 72
8
 73
4
 74
0
 42
0.0000001
 43
0.0000001
 44
0.0000000001
 40
0.0
 40
0.0
 40
0.0
 40
0.0
 40
1.0
 40
1.0
 40
1.0
 40
1.0
 10
4.0052790613
 20
9.7158264289
 30
0.0
 10
4.0036791891
 20
9.7187345959
 30
0.0
 10
4.0028014881
 20
9.7221516599
 30
0.0
 10
4.0028014881
 20
9.7254708505
 30
0.0
  0
SPLINE
  5
419
100
AcDbEntity
  8
0
100
AcDbSpline
 62
9
  6
CONTINUOUS
 70
0
 71
3
 72
8
 73
4
 74
0
 42
0.0000001
 43
0.0000001
 44
0.0000000001
 40
0.0
 40
0.0
 40
0.0
 40
0.0
 40
1.0
 40
1.0
 40
1.0
 40
1.0
 10
4.0028014881
 20
9.9651892227
 30
0.0
 10
4.0028014881
 20
9.9685084133
 30
0.0
 10
4.0036791891
 20
9.9719254774
 30
0.0
 10
4.0052790613
 20
9.9748336444
 30
0.0
  0
SPLINE
  5
41A
100
AcDbEntity
  8
0
100
AcDbSpline
 62
9
  6
CONTINUOUS
 70
0
 71
3
 72
17
 73
13
 74
0
 42
0.0000001
 43
0.0000001
 44
0.0000000001
 40
0.0
 40
0.0
 40
0.0
 40
0.0
 40
0.0192320808
 40
0.0440208248
 40
0.0748373222
 40
0.1120554067
 40
0.2066981335
 40
0.3281867322
 40
0.4737286184
 40
0.6380819211
 40
0.8152607206
 40
1.0
 40
1.0
 40
1.0
 40
1.0
 10
4.0052790613
 20
9.9748336444
 30
0.0
 10
4.0052177791
 20
9.9746579138
 30
0.0
 10
4.0051091943
 20
9.9742448172
 30
0.0
 10
4.0049858042
 20
9.9735308062
 30
0.0
 10
4.0048860532
 20
9.9726376535
 30
0.0
 10
4.0047795486
 20
9.971066703
 30
0.0
 10
4.0047389684
 20
9.9686140388
 30
0.0
 10
4.0048151384
 20
9.9651145699
 30
0.0
 10
4.0050183223
 20
9.9609445753
 30
0.0
 10
4.0053387006
 20
9.9562418532
 30
0.0
 10
4.005758927
 20
9.9511663293
 30
0.0
 10
4.0060879908
 20
9.9476794631
 30
0.0
 10
4.0062635837
 20
9.9459003793
 30
0.0
  0
LINE
  5
41B
100
AcDbEntity
  8
0
100
AcDbLine
 62
9
  6
CONTINUOUS
 10
3.9984347767
 20
9.9748336444
 11
3.9970808477
 21
9.9717767071
  0
LINE
  5
41C
100
AcDbEntity
  8
0
100
AcDbLine
 62
9
  6
CONTINUOUS
 10
3.9962469273
 20
9.9685354737
 11
3.9959572034
 21
9.9651892227
  0
SPLINE
  5
41D
100
AcDbEntity
  8
0
100
AcDbSpline
 62
9
  6
CONTINUOUS
 70
0
 71
3
 72
9
 73
5
 74
0
 42
0.0000001
 43
0.0000001
 44
0.0000000001
 40
0.0
 40
0.0
 40
0.0
 40
0.0
 40
0.2496255858
 40
1.0
 40
1.0
 40
1.0
 40
1.0
 10
3.9959572035
 20
9.7254708505
 30
0.0
 10
3.9959572035
 20
9.724688987
 30
0.0
 10
3.9961513961
 20
9.7215598236
 30
0.0
 10
3.9970772523
 20
9.7184763409
 30
0.0
 10
3.998141602
 20
9.7163808736
 30
0.0
  0
LINE
  5
41E
100
AcDbEntity
  8
0
100
AcDbLine
 62
9
  6
CONTINUOUS
 10
4.1427605102
 20
9.8453300366
 11
4.1428025844
 21
10.1796367917
  0
SPLINE
  5
41F
100
AcDbEntity
  8
0
100
AcDbSpline
 62
9
  6
CONTINUOUS
 70
0
 71
3
 72
10
 73
6
 74
0
 42
0.0000001
 43
0.0000001
 44
0.0000000001
 40
0.0
 40
0.0
 40
0.0
 40
0.0
 40
0.2527172561
 40
0.5043865144
 40
1.0
 40
1.0
 40
1.0
 40
1.0
 10
7.5550926087
 20
10.1053301004
 30
0.0
 10
7.5561299114
 20
10.102997519
 30
0.0
 10
7.5580039965
 20
10.0982495979
 30
0.0
 10
7.560833416
 20
10.0885464591
 30
0.0
 10
7.561826945
 20
10.0809736586
 30
0.0
 10
7.5618269943
 20
10.075967209
 30
0.0
  0
SPLINE
  5
420
100
AcDbEntity
  8
0
100
AcDbSpline
 62
9
  6
CONTINUOUS
 70
0
 71
3
 72
15
 73
11
 74
0
 42
0.0000001
 43
0.0000001
 44
0.0000000001
 40
0.0
 40
0.0
 40
0.0
 40
0.0
 40
0.0512957509
 40
0.1212286106
 40
0.2124246484
 40
0.3266133085
 40
0.392518963
 40
0.4642199001
 40
0.6241652847
 40
1.0
 40
1.0
 40
1.0
 40
1.0
 10
7.6633783044
 20
9.7204659823
 30
0.0
 10
7.663554101
 20
9.72074726
 30
0.0
 10
7.6638663334
 20
9.721474258
 30
0.0
 10
7.6642122836
 20
9.7228053038
 30
0.0
 10
7.6644909237
 20
9.724566084
 30
0.0
 10
7.6646491959
 20
9.7263139512
 30
0.0
 10
7.6647396375
 20
9.7279397299
 30
0.0
 10
7.664805163
 20
9.7298628213
 30
0.0
 10
7.6648265872
 20
9.73379164
 30
0.0
 10
7.6646948652
 20
9.7372553397
 30
0.0
 10
7.6645638031
 20
9.7396820722
 30
0.0
  0
SPLINE
  5
421
100
AcDbEntity
  8
0
100
AcDbSpline
 62
9
  6
CONTINUOUS
 70
0
 71
3
 72
9
 73
5
 74
0
 42
0.0000001
 43
0.0000001
 44
0.0000000001
 40
0.0
 40
0.0
 40
0.0
 40
0.0
 40
0.5003165154
 40
1.0
 40
1.0
 40
1.0
 40
1.0
 10
7.5782850575
 20
9.6146928642
 30
0.0
 10
7.5788834176
 20
9.6083690827
 30
0.0
 10
7.5783182649
 20
9.5955227564
 30
0.0
 10
7.5747581904
 20
9.5832183284
 30
0.0
 10
7.5723623695
 20
9.5773441262
 30
0.0
  0
LINE
  5
422
100
AcDbEntity
  8
0
100
AcDbLine
 62
9
  6
CONTINUOUS
 10
7.5723622748
 20
9.5773439037
 11
7.5550923768
 21
9.5853298562
  0
SPLINE
  5
423
100
AcDbEntity
  8
0
100
AcDbSpline
 62
9
  6
CONTINUOUS
 70
0
 71
3
 72
15
 73
11
 74
0
 42
0.0000001
 43
0.0000001
 44
0.0000000001
 40
0.0
 40
0.0
 40
0.0
 40
0.0
 40
0.3757785932
 40
0.5358113932
 40
0.6075624459
 40
0.6735107622
 40
0.7877537287
 40
0.8789446933
 40
0.948814762
 40
1.0
 40
1.0
 40
1.0
 40
1.0
 10
7.6645553084
 20
9.9508222641
 30
0.0
 10
7.6646891962
 20
9.9532680397
 30
0.0
 10
7.6648247611
 20
9.9567596695
 30
0.0
 10
7.6648066018
 20
9.9607206136
 30
0.0
 10
7.664742312
 20
9.9626603966
 30
0.0
 10
7.6646526589
 20
9.9643002869
 30
0.0
 10
7.6644948958
 20
9.9660629602
 30
0.0
 10
7.6642159311
 20
9.9678381129
 30
0.0
 10
7.663868891
 20
9.9691790795
 30
0.0
 10
7.6635551324
 20
9.9699111634
 30
0.0
 10
7.6633783044
 20
9.9701940909
 30
0.0
  0
SPLINE
  5
424
100
AcDbEntity
  8
0
100
AcDbSpline
 62
9
  6
CONTINUOUS
 70
0
 71
3
 72
11
 73
7
 74
0
 42
0.0000001
 43
0.0000001
 44
0.0000000001
 40
0.0
 40
0.0
 40
0.0
 40
0.0
 40
0.2519456629
 40
0.4911026513
 40
0.7353969511
 40
1.0
 40
1.0
 40
1.0
 40
1.0
 10
7.5722933515
 20
10.1159300154
 30
0.0
 10
7.5724150451
 20
10.1157353052
 30
0.0
 10
7.5726095397
 20
10.1153254
 30
0.0
 10
7.572717354
 20
10.1146548023
 30
0.0
 10
7.5726332754
 20
10.1139704301
 30
0.0
 10
7.5724674749
 20
10.1135329827
 30
0.0
 10
7.5723623694
 20
10.1133159469
 30
0.0
  0
SPLINE
  5
425
100
AcDbEntity
  8
0
100
AcDbSpline
 62
9
  6
CONTINUOUS
 70
0
 71
3
 72
14
 73
10
 74
0
 42
0.0000001
 43
0.0000001
 44
0.0000000001
 40
0.0
 40
0.0
 40
0.0
 40
0.0
 40
0.2490292269
 40
0.3765694488
 40
0.5042296866
 40
0.6309585735
 40
0.7562452564
 40
0.8795760722
 40
1.0
 40
1.0
 40
1.0
 40
1.0
 10
4.1193152021
 20
10.2090510842
 30
0.0
 10
4.120129993
 20
10.2105323571
 30
0.0
 10
4.1216801717
 20
10.2126112515
 30
0.0
 10
4.1241898679
 20
10.2149461415
 30
0.0
 10
4.12629834
 20
10.2164685997
 30
0.0
 10
4.1285776358
 20
10.2176890603
 30
0.0
 10
4.1309741865
 20
10.2185765167
 30
0.0
 10
4.1334189839
 20
10.2191495395
 30
0.0
 10
4.1350681335
 20
10.2193333439
 30
0.0
 10
4.1358845868
 20
10.2193750652
 30
0.0
  0
SPLINE
  5
426
100
AcDbEntity
  8
0
100
AcDbSpline
 62
9
  6
CONTINUOUS
 70
0
 71
3
 72
12
 73
8
 74
0
 42
0.0000001
 43
0.0000001
 44
0.0000000001
 40
0.0
 40
0.0
 40
0.0
 40
0.0
 40
0.3140983159
 40
0.5748491793
 40
0.7948242072
 40
0.8973465729
 40
1.0
 40
1.0
 40
1.0
 40
1.0
 10
4.1445696826
 20
10.2060776924
 30
0.0
 10
4.1442027823
 20
10.2064044551
 30
0.0
 10
4.143564601
 20
10.207043709
 30
0.0
 10
4.1428593095
 20
10.2080795617
 30
0.0
 10
4.1425808113
 20
10.2089711043
 30
0.0
 10
4.1425895782
 20
10.2096409024
 30
0.0
 10
4.1426636172
 20
10.2099561886
 30
0.0
 10
4.1427163958
 20
10.2101078378
 30
0.0
  0
SPLINE
  5
427
100
AcDbEntity
  8
0
100
AcDbSpline
 62
9
  6
CONTINUOUS
 70
0
 71
3
 72
14
 73
10
 74
0
 42
0.0000001
 43
0.0000001
 44
0.0000000001
 40
0.0
 40
0.0
 40
0.0
 40
0.0
 40
0.2500005685
 40
0.3777176891
 40
0.5054023506
 40
0.6321394328
 40
0.7574146884
 40
0.8804187298
 40
1.0
 40
1.0
 40
1.0
 40
1.0
 10
4.1427163959
 20
10.2101078381
 30
0.0
 10
4.1435373971
 20
10.2116003069
 30
0.0
 10
4.1450954376
 20
10.2136952686
 30
0.0
 10
4.1476229742
 20
10.2160415799
 30
0.0
 10
4.1497465569
 20
10.2175627211
 30
0.0
 10
4.1520438787
 20
10.218769465
 30
0.0
 10
4.1544487866
 20
10.2196531451
 30
0.0
 10
4.1568951599
 20
10.2202243556
 30
0.0
 10
4.158542986
 20
10.2204048418
 30
0.0
 10
4.1593568752
 20
10.2204426703
 30
0.0
  0
SPLINE
  5
428
100
AcDbEntity
  8
0
100
AcDbSpline
 62
9
  6
CONTINUOUS
 70
0
 71
3
 72
15
 73
11
 74
0
 42
0.0000001
 43
0.0000001
 44
0.0000000001
 40
0.0
 40
0.0
 40
0.0
 40
0.0
 40
0.3121856586
 40
0.4719158887
 40
0.6226829273
 40
0.7558104825
 40
0.8652358904
 40
0.9466333043
 40
0.9767509397
 40
1.0
 40
1.0
 40
1.0
 40
1.0
 10
4.1664054165
 20
10.2004999067
 30
0.0
 10
4.1641568633
 20
10.201171403
 30
0.0
 10
4.1607488682
 20
10.2021568445
 30
0.0
 10
4.1562347327
 20
10.2033944742
 30
0.0
 10
4.1530096624
 20
10.2042427689
 30
0.0
 10
4.1501403969
 20
10.2049564809
 30
0.0
 10
4.1477677021
 20
10.2055045739
 30
0.0
 10
4.1461404146
 20
10.2058387378
 30
0.0
 10
4.1451413101
 20
10.2060064746
 30
0.0
 10
4.1447435586
 20
10.2060598881
 30
0.0
 10
4.1445697011
 20
10.2060776419
 30
0.0
  0
SPLINE
  5
429
100
AcDbEntity
  8
0
100
AcDbSpline
 62
9
  6
CONTINUOUS
 70
0
 71
3
 72
14
 73
10
 74
0
 42
0.0000001
 43
0.0000001
 44
0.0000000001
 40
0.0
 40
0.0
 40
0.0
 40
0.0
 40
0.2440030594
 40
0.3709638279
 40
0.4993499975
 40
0.6276521197
 40
0.7546922231
 40
0.879164617
 40
1.0
 40
1.0
 40
1.0
 40
1.0
 10
4.1445696918
 20
10.2060776411
 30
0.0
 10
4.1450670061
 20
10.2078405137
 30
0.0
 10
4.1461896037
 20
10.2104380223
 30
0.0
 10
4.1483660706
 20
10.2135012205
 30
0.0
 10
4.1503586481
 20
10.2155957132
 30
0.0
 10
4.1526408047
 20
10.2173711832
 30
0.0
 10
4.1551388492
 20
10.2187677074
 30
0.0
 10
4.1577616935
 20
10.2197624327
 30
0.0
 10
4.1595699759
 20
10.2201502006
 30
0.0
 10
4.1604683028
 20
10.2202759435
 30
0.0
  0
SPLINE
  5
42A
100
AcDbEntity
  8
0
100
AcDbSpline
 62
9
  6
CONTINUOUS
 70
0
 71
3
 72
19
 73
15
 74
0
 42
0.0000001
 43
0.0000001
 44
0.0000000001
 40
0.0
 40
0.0
 40
0.0
 40
0.0
 40
0.1784236893
 40
0.3597689018
 40
0.5336191339
 40
0.6886411193
 40
0.7556941306
 40
0.8147698526
 40
0.8654772459
 40
0.9074818884
 40
0.9407406636
 40
0.9661165957
 40
0.9850806306
 40
1.0
 40
1.0
 40
1.0
 40
1.0
 10
4.1664054364
 20
10.2004999067
 30
0.0
 10
4.1664163899
 20
10.2017298623
 30
0.0
 10
4.1663994563
 20
10.2042103951
 30
0.0
 10
4.1662564054
 20
10.2078870601
 30
0.0
 10
4.1659810035
 20
10.2113943976
 30
0.0
 10
4.1656447892
 20
10.2141047592
 30
0.0
 10
4.1653030736
 20
10.2160130499
 30
0.0
 10
4.1650376071
 20
10.2172033006
 30
0.0
 10
4.1647567054
 20
10.2182119098
 30
0.0
 10
4.1644659806
 20
10.2190311943
 30
0.0
 10
4.1641674556
 20
10.2196595632
 30
0.0
 10
4.1638642926
 20
10.2201037122
 30
0.0
 10
4.1635552101
 20
10.2203810716
 30
0.0
 10
4.1633216413
 20
10.2204539448
 30
0.0
 10
4.163218796
 20
10.2204549411
 30
0.0
  0
SPLINE
  5
42B
100
AcDbEntity
  8
0
100
AcDbSpline
 62
9
  6
CONTINUOUS
 70
0
 71
3
 72
24
 73
20
 74
0
 42
0.0000001
 43
0.0000001
 44
0.0000000001
 40
0.0
 40
0.0
 40
0.0
 40
0.0
 40
0.0626938342
 40
0.0940415903
 40
0.1253884638
 40
0.1880778733
 40
0.2507591567
 40
0.3760802353
 40
0.4387112089
 40
0.5013146112
 40
0.6264090944
 40
0.6888819916
 40
0.7512907823
 40
0.7824671314
 40
0.8136224474
 40
0.8758621877
 40
0.9069429636
 40
0.9379948785
 40
1.0
 40
1.0
 40
1.0
 40
1.0
 10
6.4488183444
 20
10.1053260498
 30
0.0
 10
6.4010716175
 20
10.1050453916
 30
0.0
 10
6.3294462947
 20
10.105181877
 30
0.0
 10
6.2339576695
 20
10.1063830995
 30
0.0
 10
6.1384825622
 20
10.1082330944
 30
0.0
 10
6.0191732999
 20
10.1116755512
 30
0.0
 10
5.8283928411
 20
10.1192135415
 30
0.0
 10
5.6377656705
 20
10.1292069224
 30
0.0
 10
5.4472788688
 20
10.140520964
 30
0.0
 10
5.2569955233
 20
10.1523447755
 30
0.0
 10
5.0668450073
 20
10.1643652484
 30
0.0
 10
4.8767885349
 20
10.1754955925
 30
0.0
 10
4.7581026496
 20
10.1818234356
 30
0.0
 10
4.663209761
 20
10.1863839909
 30
0.0
 10
4.5684287219
 20
10.190573331
 30
0.0
 10
4.4736936408
 20
10.1941463076
 30
0.0
 10
4.3790124991
 20
10.1969424137
 30
0.0
 10
4.2844951811
 20
10.1991699222
 30
0.0
 10
4.2136273051
 20
10.2001688834
 30
0.0
 10
4.1664054367
 20
10.2004999439
 30
0.0
  0
SPLINE
  5
42C
100
AcDbEntity
  8
0
100
AcDbSpline
 62
9
  6
CONTINUOUS
 70
0
 71
3
 72
14
 73
10
 74
0
 42
0.0000001
 43
0.0000001
 44
0.0000000001
 40
0.0
 40
0.0
 40
0.0
 40
0.0
 40
0.0533852365
 40
0.1193387608
 40
0.2052209474
 40
0.3142366226
 40
0.4477780078
 40
0.6064615908
 40
1.0
 40
1.0
 40
1.0
 40
1.0
 10
6.4472207247
 20
10.1253255741
 30
0.0
 10
6.4472514886
 20
10.1253257245
 30
0.0
 10
6.4473206175
 20
10.125304506
 30
0.0
 10
6.4474094139
 20
10.1252234357
 30
0.0
 10
6.4474943922
 20
10.1250986201
 30
0.0
 10
6.4475771629
 20
10.1249279003
 30
0.0
 10
6.4476580466
 20
10.1247110574
 30
0.0
 10
6.4477710636
 20
10.1243321655
 30
0.0
 10
6.4478383242
 20
10.1240206439
 30
0.0
 10
6.4478807097
 20
10.1237978559
 30
0.0
  0
SPLINE
  5
42D
100
AcDbEntity
  8
0
100
AcDbSpline
 62
9
  6
CONTINUOUS
 70
0
 71
3
 72
13
 73
9
 74
0
 42
0.0000001
 43
0.0000001
 44
0.0000000001
 40
0.0
 40
0.0
 40
0.0
 40
0.0
 40
0.0724078928
 40
0.1644366351
 40
0.2742686889
 40
0.3997142171
 40
0.6867224395
 40
1.0
 40
1.0
 40
1.0
 40
1.0
 10
6.4478807097
 20
10.1237978559
 30
0.0
 10
6.4479642061
 20
10.1233589794
 30
0.0
 10
6.4481053948
 20
10.1223533857
 30
0.0
 10
6.4482714873
 20
10.1206693105
 30
0.0
 10
6.4484205608
 20
10.1186551817
 30
0.0
 10
6.4486071295
 20
10.1154380655
 30
0.0
 10
6.448766227
 20
10.11096262
 30
0.0
 10
6.4488131104
 20
10.1072589296
 30
0.0
 10
6.4488183174
 20
10.1053260496
 30
0.0
  0
SPLINE
  5
42E
100
AcDbEntity
  8
0
100
AcDbSpline
 62
7
  6
CONTINUOUS
 70
0
 71
3
 72
13
 73
9
 74
0
 42
0.0000001
 43
0.0000001
 44
0.0000000001
 40
0.0
 40
0.0
 40
0.0
 40
0.0
 40
0.1025018802
 40
0.186350863
 40
0.2957632716
 40
0.4316369546
 40
0.5942891935
 40
1.0
 40
1.0
 40
1.0
 40
1.0
 10
6.4488182645
 20
10.1253300363
 30
0.0
 10
6.448875325
 20
10.1253301181
 30
0.0
 10
6.4489624476
 20
10.125241496
 30
0.0
 10
6.4490372325
 20
10.1251011263
 30
0.0
 10
6.4491069858
 20
10.1249292324
 30
0.0
 10
6.4491743982
 20
10.1247129736
 30
0.0
 10
6.4492719697
 20
10.1243328187
 30
0.0
 10
6.4493317674
 20
10.1240219782
 30
0.0
 10
6.4493703665
 20
10.1237994508
 30
0.0
  0
SPLINE
  5
42F
100
AcDbEntity
  8
0
100
AcDbSpline
 62
7
  6
CONTINUOUS
 70
0
 71
3
 72
13
 73
9
 74
0
 42
0.0000001
 43
0.0000001
 44
0.0000000001
 40
0.0
 40
0.0
 40
0.0
 40
0.0
 40
0.0723703022
 40
0.1644285754
 40
0.2742837855
 40
0.3997321044
 40
0.686728717
 40
1.0
 40
1.0
 40
1.0
 40
1.0
 10
6.4493703665
 20
10.1237994508
 30
0.0
 10
6.4494466571
 20
10.123359629
 30
0.0
 10
6.449582542
 20
10.1223539848
 30
0.0
 10
6.4497493656
 20
10.1206703024
 30
0.0
 10
6.4498979721
 20
10.1186563686
 30
0.0
 10
6.4500750515
 20
10.1154395045
 30
0.0
 10
6.4502189731
 20
10.1109649503
 30
0.0
 10
6.4502574035
 20
10.1072623344
 30
0.0
 10
6.4502571492
 20
10.1053300367
 30
0.0
  0
LINE
  5
430
100
AcDbEntity
  8
0
100
AcDbLine
 62
9
  6
CONTINUOUS
 10
6.4502571492
 20
10.1053300367
 11
6.4488183174
 21
10.1053260496
  0
SPLINE
  5
431
100
AcDbEntity
  8
0
100
AcDbSpline
 62
9
  6
CONTINUOUS
 70
0
 71
3
 72
11
 73
7
 74
0
 42
0.0000001
 43
0.0000001
 44
0.0000000001
 40
0.0
 40
0.0
 40
0.0
 40
0.0
 40
0.2646030588
 40
0.5088974168
 40
0.7480543901
 40
1.0
 40
1.0
 40
1.0
 40
1.0
 10
7.5723623695
 20
9.5773441262
 30
0.0
 10
7.5724674749
 20
9.5771270903
 30
0.0
 10
7.5726332755
 20
9.576689643
 30
0.0
 10
7.572717354
 20
9.5760052707
 30
0.0
 10
7.5726095395
 20
9.5753346731
 30
0.0
 10
7.5724150449
 20
9.5749247681
 30
0.0
 10
7.5722933515
 20
9.5747300578
 30
0.0
  0
LINE
  5
432
100
AcDbEntity
  8
0
100
AcDbLine
 62
9
  6
CONTINUOUS
 10
7.5542902015
 20
10.1253300395
 11
7.5545933998
 21
10.1238467239
  0
SPLINE
  5
433
100
AcDbEntity
  8
0
100
AcDbSpline
 62
9
  6
CONTINUOUS
 70
0
 71
3
 72
12
 73
8
 74
0
 42
0.0000001
 43
0.0000001
 44
0.0000000001
 40
0.0
 40
0.0
 40
0.0
 40
0.0
 40
0.0712907415
 40
0.1626814807
 40
0.3976974336
 40
0.6854806297
 40
1.0
 40
1.0
 40
1.0
 40
1.0
 10
7.5545933998
 20
10.1238467239
 30
0.0
 10
7.554636528
 20
10.1234085564
 30
0.0
 10
7.5547129696
 20
10.1224065719
 30
0.0
 10
7.5548494812
 20
10.1199541752
 30
0.0
 10
7.554976957
 20
10.1161627394
 30
0.0
 10
7.5550711839
 20
10.1109923263
 30
0.0
 10
7.5550924583
 20
10.1072724981
 30
0.0
 10
7.5550924584
 20
10.1053300563
 30
0.0
  0
SPLINE
  5
434
100
AcDbEntity
  8
0
100
AcDbSpline
 62
9
  6
CONTINUOUS
 70
0
 71
3
 72
13
 73
9
 74
0
 42
0.0000001
 43
0.0000001
 44
0.0000000001
 40
0.0
 40
0.0
 40
0.0
 40
0.0
 40
0.1216564134
 40
0.2470674671
 40
0.5017471381
 40
0.7554153705
 40
0.8797135919
 40
1.0
 40
1.0
 40
1.0
 40
1.0
 10
7.5723622736
 20
9.5773439036
 30
0.0
 10
7.5719956922
 20
9.5764899188
 30
0.0
 10
7.5711182705
 20
9.5748096075
 30
0.0
 10
7.5688877631
 20
9.5716830828
 30
0.0
 10
7.5652720361
 20
9.568346324
 30
0.0
 10
7.5608035429
 20
9.566304465
 30
0.0
 10
7.5570803062
 20
9.5654757695
 30
0.0
 10
7.5552090761
 20
9.5653300366
 30
0.0
 10
7.5542902022
 20
9.5653300366
 30
0.0
  0
SPLINE
  5
435
100
AcDbEntity
  8
0
100
AcDbSpline
 62
9
  6
CONTINUOUS
 70
0
 71
3
 72
22
 73
18
 74
0
 42
0.0000001
 43
0.0000001
 44
0.0000000001
 40
0.0
 40
0.0
 40
0.0
 40
0.0
 40
0.1885349813
 40
0.3710287355
 40
0.5398386999
 40
0.6172400987
 40
0.689071842
 40
0.7546801324
 40
0.8135234819
 40
0.8650991728
 40
0.908907512
 40
0.9444774238
 40
0.9715538968
 40
0.9818713495
 40
0.9900322737
 40
0.996050653
 40
1.0
 40
1.0
 40
1.0
 40
1.0
 10
7.5550924579
 20
9.5853300366
 30
0.0
 10
7.5550924579
 20
9.5840720031
 30
0.0
 10
7.555082976
 20
9.5815962366
 30
0.0
 10
7.5550416581
 20
9.5779942682
 30
0.0
 10
7.5549838685
 20
9.575134189
 30
0.0
 10
7.5549237635
 20
9.5730128304
 30
0.0
 10
7.5548744467
 20
9.5715800999
 30
0.0
 10
7.5548199509
 20
9.5702714857
 30
0.0
 10
7.5547608907
 20
9.5690983757
 30
0.0
 10
7.554697873
 20
9.5680711817
 30
0.0
 10
7.5546317791
 20
9.5671997984
 30
0.0
 10
7.554562915
 20
9.566492809
 30
0.0
 10
7.5545005027
 20
9.5660096661
 30
0.0
 10
7.5544467812
 20
9.5657105205
 30
0.0
 10
7.5544103584
 20
9.5655508565
 30
0.0
 10
7.5543742975
 20
9.5654357164
 30
0.0
 10
7.5543456313
 20
9.5653743936
 30
0.0
 10
7.5543290061
 20
9.5653539469
 30
0.0
  0
SPLINE
  5
436
100
AcDbEntity
  8
0
100
AcDbSpline
 62
9
  6
CONTINUOUS
 70
0
 71
3
 72
9
 73
5
 74
0
 42
0.0000001
 43
0.0000001
 44
0.0000000001
 40
0.0
 40
0.0
 40
0.0
 40
0.0
 40
0.3078806523
 40
1.0
 40
1.0
 40
1.0
 40
1.0
 10
7.5543290061
 20
9.5653539469
 30
0.0
 10
7.5543260069
 20
9.5653502583
 30
0.0
 10
7.5543158582
 20
9.5653388901
 30
0.0
 10
7.5543008895
 20
9.5653300358
 30
0.0
 10
7.5542902025
 20
9.5653300359
 30
0.0
  0
SPLINE
  5
437
100
AcDbEntity
  8
0
100
AcDbSpline
 62
7
  6
CONTINUOUS
 70
0
 71
3
 72
13
 73
9
 74
0
 42
0.0000001
 43
0.0000001
 44
0.0000000001
 40
0.0
 40
0.0
 40
0.0
 40
0.0
 40
0.1026343147
 40
0.186528661
 40
0.2959601852
 40
0.4318254728
 40
0.5944418356
 40
1.0
 40
1.0
 40
1.0
 40
1.0
 10
6.4488184131
 20
9.5653300365
 30
0.0
 10
6.4488755423
 20
9.5653299545
 30
0.0
 10
6.4489628383
 20
9.5654184211
 30
0.0
 10
6.4490380811
 20
9.5655586796
 30
0.0
 10
6.4491083026
 20
9.5657303897
 30
0.0
 10
6.4491763148
 20
9.5659464278
 30
0.0
 10
6.4492749098
 20
9.5663261679
 30
0.0
 10
6.4493355466
 20
9.566636711
 30
0.0
 10
6.4493747422
 20
9.5668590274
 30
0.0
  0
SPLINE
  5
438
100
AcDbEntity
  8
0
100
AcDbSpline
 62
7
  6
CONTINUOUS
 70
0
 71
3
 72
13
 73
9
 74
0
 42
0.0000001
 43
0.0000001
 44
0.0000000001
 40
0.0
 40
0.0
 40
0.0
 40
0.0
 40
0.0723677409
 40
0.1644266212
 40
0.2742854934
 40
0.3997383182
 40
0.686737088
 40
1.0
 40
1.0
 40
1.0
 40
1.0
 10
6.4493747422
 20
9.5668590274
 30
0.0
 10
6.4494522617
 20
9.5672987171
 30
0.0
 10
6.4495909186
 20
9.5683041941
 30
0.0
 10
6.4497625473
 20
9.5699877716
 30
0.0
 10
6.4499173344
 20
9.5720017328
 30
0.0
 10
6.4501046355
 20
9.5752187876
 30
0.0
 10
6.4502597232
 20
9.5796939859
 30
0.0
 10
6.4503028749
 20
9.5833973426
 30
0.0
 10
6.4503048445
 20
9.5853300091
 30
0.0
  0
SPLINE
  5
439
100
AcDbEntity
  8
0
100
AcDbSpline
 62
9
  6
CONTINUOUS
 70
0
 71
3
 72
12
 73
8
 74
0
 42
0.0000001
 43
0.0000001
 44
0.0000000001
 40
0.0
 40
0.0
 40
0.0
 40
0.0
 40
0.158334864
 40
0.2529466778
 40
0.3626443862
 40
0.6376027122
 40
1.0
 40
1.0
 40
1.0
 40
1.0
 10
4.1632187989
 20
9.4702051457
 30
0.0
 10
4.1633253253
 20
9.4702061778
 30
0.0
 10
4.1634959938
 20
9.470260953
 30
0.0
 10
4.163694079
 20
9.4704040313
 30
0.0
 10
4.1639224297
 20
9.4706337738
 30
0.0
 10
4.164199785
 20
9.4710576561
 30
0.0
 10
4.1643786102
 20
9.4714483177
 30
0.0
 10
4.1644700759
 20
9.4716743417
 30
0.0
  0
SPLINE
  5
43A
100
AcDbEntity
  8
0
100
AcDbSpline
 62
9
  6
CONTINUOUS
 70
0
 71
3
 72
13
 73
9
 74
0
 42
0.0000001
 43
0.0000001
 44
0.0000000001
 40
0.0
 40
0.0
 40
0.0
 40
0.0
 40
0.0744126489
 40
0.1695632406
 40
0.2840321084
 40
0.4147940647
 40
0.7048337791
 40
1.0
 40
1.0
 40
1.0
 40
1.0
 10
4.1644700759
 20
9.4716743417
 30
0.0
 10
4.1646437224
 20
9.4721034454
 30
0.0
 10
4.16496042
 20
9.4731125384
 30
0.0
 10
4.1653513111
 20
9.4748364789
 30
0.0
 10
4.1656936366
 20
9.4769272772
 30
0.0
 10
4.1660830173
 20
9.4802349491
 30
0.0
 10
4.1663713308
 20
9.4846825555
 30
0.0
 10
4.1664217892
 20
9.4883240424
 30
0.0
 10
4.1664054382
 20
9.4901601438
 30
0.0
  0
SPLINE
  5
43B
100
AcDbEntity
  8
0
100
AcDbSpline
 62
9
  6
CONTINUOUS
 70
0
 71
3
 72
13
 73
9
 74
0
 42
0.0000001
 43
0.0000001
 44
0.0000000001
 40
0.0
 40
0.0
 40
0.0
 40
0.0
 40
0.0932336757
 40
0.1719263766
 40
0.2771417828
 40
0.4110330914
 40
0.575234792
 40
1.0
 40
1.0
 40
1.0
 40
1.0
 10
6.4474063773
 20
9.565333985
 30
0.0
 10
6.4474578703
 20
9.5653337148
 30
0.0
 10
6.4475376113
 20
9.5654149291
 30
0.0
 10
6.447606704
 20
9.5655455504
 30
0.0
 10
6.4476728098
 20
9.5657105808
 30
0.0
 10
6.447737623
 20
9.5659230881
 30
0.0
 10
6.4478342873
 20
9.5663109373
 30
0.0
 10
6.4478930034
 20
9.56663104
 30
0.0
 10
6.4479312772
 20
9.5668624985
 30
0.0
  0
SPLINE
  5
43C
100
AcDbEntity
  8
0
100
AcDbSpline
 62
9
  6
CONTINUOUS
 70
0
 71
3
 72
13
 73
9
 74
0
 42
0.0000001
 43
0.0000001
 44
0.0000000001
 40
0.0
 40
0.0
 40
0.0
 40
0.0
 40
0.072793902
 40
0.1672789914
 40
0.2817180172
 40
0.4127820877
 40
0.703832927
 40
1.0
 40
1.0
 40
1.0
 40
1.0
 10
6.4479312772
 20
9.5668624985
 30
0.0
 10
6.4480045027
 20
9.5673053256
 30
0.0
 10
6.4481372516
 20
9.5683286727
 30
0.0
 10
6.4483035261
 20
9.5700578541
 30
0.0
 10
6.4484525624
 20
9.572149086
 30
0.0
 10
6.4486282311
 20
9.5754528672
 30
0.0
 10
6.4487704602
 20
9.5798799302
 30
0.0
 10
6.4488133212
 20
9.5835006256
 30
0.0
 10
6.4488183185
 20
9.585326758
 30
0.0
  0
LINE
  5
43D
100
AcDbEntity
  8
0
100
AcDbLine
 62
9
  6
CONTINUOUS
 10
6.4488183184
 20
9.585326758
 11
6.4503048445
 21
9.5853300091
  0
SPLINE
  5
43E
100
AcDbEntity
  8
0
100
AcDbSpline
 62
9
  6
CONTINUOUS
 70
0
 71
3
 72
14
 73
10
 74
0
 42
0.0000001
 43
0.0000001
 44
0.0000000001
 40
0.0
 40
0.0
 40
0.0
 40
0.0
 40
0.1243760962
 40
0.2507653423
 40
0.378249233
 40
0.5060284773
 40
0.6331063064
 40
0.7583717891
 40
1.0
 40
1.0
 40
1.0
 40
1.0
 10
4.1570852169
 20
9.4711852164
 30
0.0
 10
4.1563371547
 20
9.4714387555
 30
0.0
 10
4.1548603484
 20
9.4720476961
 30
0.0
 10
4.1527644572
 20
9.4732333478
 30
0.0
 10
4.1508173824
 20
9.4746881394
 30
0.0
 10
4.1490684238
 20
9.4763811006
 30
0.0
 10
4.1475437588
 20
9.4782608331
 30
0.0
 10
4.1458755365
 20
9.4809238519
 30
0.0
 10
4.1449863118
 20
9.4831055382
 30
0.0
 10
4.1445696844
 20
9.4845823751
 30
0.0
  0
LINE
  5
43F
100
AcDbEntity
  8
0
100
AcDbLine
 62
9
  6
CONTINUOUS
 10
7.5550924561
 20
10.1053300326
 11
6.4502665823
 21
10.1053280294
  0
SPLINE
  5
440
100
AcDbEntity
  8
0
100
AcDbSpline
 62
9
  6
CONTINUOUS
 70
0
 71
3
 72
13
 73
9
 74
0
 42
0.0000001
 43
0.0000001
 44
0.0000000001
 40
0.0
 40
0.0
 40
0.0
 40
0.0
 40
0.120286478
 40
0.244584791
 40
0.4982531652
 40
0.7529328795
 40
0.8783438295
 40
1.0
 40
1.0
 40
1.0
 40
1.0
 10
7.5542902018
 20
10.1253300366
 30
0.0
 10
7.5552090836
 20
10.1253300366
 30
0.0
 10
7.5570803299
 20
10.1251843012
 30
0.0
 10
7.5608035974
 20
10.1243555922
 30
0.0
 10
7.5652721218
 20
10.1223136983
 30
0.0
 10
7.5688878578
 20
10.1189768888
 30
0.0
 10
7.5711183585
 20
10.1158503243
 30
0.0
 10
7.5719957712
 20
10.1141699939
 30
0.0
 10
7.5723623461
 20
10.1133160003
 30
0.0
  0
LINE
  5
441
100
AcDbEntity
  8
0
100
AcDbLine
 62
9
  6
CONTINUOUS
 10
7.5723623459
 20
10.1133160001
 11
7.555092437
 21
10.10533008
  0
SPLINE
  5
442
100
AcDbEntity
  8
0
100
AcDbSpline
 62
9
  6
CONTINUOUS
 70
0
 71
3
 72
11
 73
7
 74
0
 42
0.0000001
 43
0.0000001
 44
0.0000000001
 40
0.0
 40
0.0
 40
0.0
 40
0.0
 40
0.2497029368
 40
0.4995550907
 40
0.7496195263
 40
1.0
 40
1.0
 40
1.0
 40
1.0
 10
7.5723623694
 20
10.1133159469
 30
0.0
 10
7.573561807
 20
10.1103751546
 30
0.0
 10
7.5756484134
 20
10.1043581443
 30
0.0
 10
7.5777553615
 20
10.0950383875
 30
0.0
 10
7.5787426054
 20
10.0855235302
 30
0.0
 10
7.578585276
 20
10.0791376336
 30
0.0
 10
7.5782850575
 20
10.075967209
 30
0.0
  0
SPLINE
  5
443
100
AcDbEntity
  8
0
100
AcDbSpline
 62
9
  6
CONTINUOUS
 70
0
 71
3
 72
14
 73
10
 74
0
 42
0.0000001
 43
0.0000001
 44
0.0000000001
 40
0.0
 40
0.0
 40
0.0
 40
0.0
 40
0.2490042707
 40
0.3765318229
 40
0.5041845761
 40
0.6309122
 40
0.7562023513
 40
0.87954648
 40
1.0
 40
1.0
 40
1.0
 40
1.0
 10
4.119315202
 20
9.4816089891
 30
0.0
 10
4.1201287623
 20
9.4801299533
 30
0.0
 10
4.1216761234
 20
9.4780539744
 30
0.0
 10
4.1241809777
 20
9.4757214458
 30
0.0
 10
4.1262853378
 20
9.4741998618
 30
0.0
 10
4.1285602158
 20
9.4729790061
 30
0.0
 10
4.1309525308
 20
9.4720902194
 30
0.0
 10
4.1333935016
 20
9.4715150656
 30
0.0
 10
4.1350403603
 20
9.4713293269
 30
0.0
 10
4.1358558028
 20
9.4712864994
 30
0.0
  0
SPLINE
  5
444
100
AcDbEntity
  8
0
100
AcDbSpline
 62
9
  6
CONTINUOUS
 70
0
 71
3
 72
9
 73
5
 74
0
 42
0.0000001
 43
0.0000001
 44
0.0000000001
 40
0.0
 40
0.0
 40
0.0
 40
0.0
 40
0.5019240521
 40
1.0
 40
1.0
 40
1.0
 40
1.0
 10
4.1428026109
 20
10.1796367918
 30
0.0
 10
4.1423621311
 20
10.1840634438
 30
0.0
 10
4.1422419462
 20
10.192972679
 30
0.0
 10
4.1435681924
 20
10.2017783884
 30
0.0
 10
4.1445696826
 20
10.2060776924
 30
0.0
  0
SPLINE
  5
445
100
AcDbEntity
  8
0
100
AcDbSpline
 62
9
  6
CONTINUOUS
 70
0
 71
3
 72
9
 73
5
 74
0
 42
0.0000001
 43
0.0000001
 44
0.0000000001
 40
0.0
 40
0.0
 40
0.0
 40
0.0
 40
0.4984647609
 40
1.0
 40
1.0
 40
1.0
 40
1.0
 10
4.1633221536
 20
10.179663855
 30
0.0
 10
4.163326285
 20
10.1831722486
 30
0.0
 10
4.1638841977
 20
10.1902179994
 30
0.0
 10
4.1654178993
 20
10.1971108836
 30
0.0
 10
4.1664054181
 20
10.2004999481
 30
0.0
  0
LINE
  5
446
100
AcDbEntity
  8
0
100
AcDbLine
 62
9
  6
CONTINUOUS
 10
4.1633427061
 20
9.8453300366
 11
4.1633674342
 21
10.1796638148
  0
LINE
  5
447
100
AcDbEntity
  8
0
100
AcDbLine
 62
9
  6
CONTINUOUS
 10
4.1633674265
 20
9.5109962584
 11
4.1633426984
 21
9.8453300366
  0
SPLINE
  5
448
100
AcDbEntity
  8
0
100
AcDbSpline
 62
9
  6
CONTINUOUS
 70
0
 71
3
 72
18
 73
14
 74
0
 42
0.0000001
 43
0.0000001
 44
0.0000000001
 40
0.0
 40
0.0
 40
0.0
 40
0.0
 40
0.0626935652
 40
0.1253883618
 40
0.1880778856
 40
0.2507591871
 40
0.3134282132
 40
0.3760808359
 40
0.5013146076
 40
0.62640872
 40
0.7512902361
 40
0.8758624761
 40
1.0
 40
1.0
 40
1.0
 40
1.0
 10
6.448818315
 20
9.5853340236
 30
0.0
 10
6.4010720656
 20
9.5856263351
 30
0.0
 10
6.3055725986
 20
9.5854469756
 30
0.0
 10
6.1623481306
 20
9.5831194789
 30
0.0
 10
6.0191747853
 20
9.5789769941
 30
0.0
 10
5.8760739813
 20
9.5733230929
 30
0.0
 10
5.7330555366
 20
9.5664485387
 30
0.0
 10
5.5425176388
 20
9.5560214813
 30
0.0
 10
5.3046051746
 20
9.5413228211
 30
0.0
 10
5.019416929
 20
9.5232986295
 30
0.0
 10
4.7346196034
 20
9.5070767242
 30
0.0
 10
4.4503431224
 20
9.494872896
 30
0.0
 10
4.2609456234
 20
9.4908335202
 30
0.0
 10
4.166405428
 20
9.4901601438
 30
0.0
  0
SPLINE
  5
449
100
AcDbEntity
  8
0
100
AcDbSpline
 62
9
  6
CONTINUOUS
 70
0
 71
3
 72
9
 73
5
 74
0
 42
0.0000001
 43
0.0000001
 44
0.0000000001
 40
0.0
 40
0.0
 40
0.0
 40
0.0
 40
0.5015295069
 40
1.0
 40
1.0
 40
1.0
 40
1.0
 10
4.1664054229
 20
9.4901601423
 30
0.0
 10
4.1654179049
 20
9.4935491631
 30
0.0
 10
4.1638841173
 20
9.5004420287
 30
0.0
 10
4.1633262929
 20
9.5074877861
 30
0.0
 10
4.1633221632
 20
9.5109962182
 30
0.0
  0
LINE
  5
44A
100
AcDbEntity
  8
0
100
AcDbLine
 62
9
  6
CONTINUOUS
 10
4.1428129063
 20
9.5110232914
 11
4.1428271408
 21
9.8453300366
  0
SPLINE
  5
44B
100
AcDbEntity
  8
0
100
AcDbSpline
 62
9
  6
CONTINUOUS
 70
0
 71
3
 72
9
 73
5
 74
0
 42
0.0000001
 43
0.0000001
 44
0.0000000001
 40
0.0
 40
0.0
 40
0.0
 40
0.0
 40
0.4980658562
 40
1.0
 40
1.0
 40
1.0
 40
1.0
 10
4.1445696811
 20
9.4845823954
 30
0.0
 10
4.1435682479
 20
9.4888816186
 30
0.0
 10
4.1422418986
 20
9.4976873053
 30
0.0
 10
4.142362146
 20
9.5065965402
 30
0.0
 10
4.1428026109
 20
9.5110232814
 30
0.0
  0
SPLINE
  5
44C
100
AcDbEntity
  8
0
100
AcDbSpline
 62
9
  6
CONTINUOUS
 70
0
 71
3
 72
15
 73
11
 74
0
 42
0.0000001
 43
0.0000001
 44
0.0000000001
 40
0.0
 40
0.0
 40
0.0
 40
0.0
 40
0.0232488386
 40
0.0533662751
 40
0.1347633676
 40
0.2441886037
 40
0.3773161532
 40
0.5280833308
 40
0.6878138041
 40
1.0
 40
1.0
 40
1.0
 40
1.0
 10
4.1445697018
 20
9.4845823805
 30
0.0
 10
4.1447435578
 20
9.4846001337
 30
0.0
 10
4.1451413067
 20
9.4846535463
 30
0.0
 10
4.1461404065
 20
9.4848212818
 30
0.0
 10
4.1477676902
 20
9.4851554447
 30
0.0
 10
4.1501403833
 20
9.4857035376
 30
0.0
 10
4.1530096506
 20
9.486417251
 30
0.0
 10
4.156234726
 20
9.4872655482
 30
0.0
 10
4.1607488712
 20
9.4885031826
 30
0.0
 10
4.1641568742
 20
9.4894886282
 30
0.0
 10
4.1664054328
 20
9.4901601274
 30
0.0
  0
SPLINE
  5
44D
100
AcDbEntity
  8
0
100
AcDbSpline
 62
9
  6
CONTINUOUS
 70
0
 71
3
 72
10
 73
6
 74
0
 42
0.0000001
 43
0.0000001
 44
0.0000000001
 40
0.0
 40
0.0
 40
0.0
 40
0.0
 40
0.4956236442
 40
0.7472950465
 40
1.0
 40
1.0
 40
1.0
 40
1.0
 10
7.5618275358
 20
9.6146928642
 30
0.0
 10
7.5618274142
 20
9.6096862757
 30
0.0
 10
7.5608338034
 20
9.6021133179
 30
0.0
 10
7.5580044595
 20
9.5924100817
 30
0.0
 10
7.5561304017
 20
9.5876622163
 30
0.0
 10
7.5550931025
 20
9.5853297491
 30
0.0
  0
SPLINE
  5
44E
100
AcDbEntity
  8
0
100
AcDbSpline
 62
9
  6
CONTINUOUS
 70
0
 71
3
 72
13
 73
9
 74
0
 42
0.0000001
 43
0.0000001
 44
0.0000000001
 40
0.0
 40
0.0
 40
0.0
 40
0.0
 40
0.1026225204
 40
0.2050935719
 40
0.4249441501
 40
0.549408321
 40
0.6860496722
 40
1.0
 40
1.0
 40
1.0
 40
1.0
 10
4.1427163958
 20
9.4805522354
 30
0.0
 10
4.1426635972
 20
9.4807039077
 30
0.0
 10
4.1425895204
 20
9.4810192397
 30
0.0
 10
4.1425808107
 20
9.4816888775
 30
0.0
 10
4.1427940189
 20
9.482373195
 30
0.0
 10
4.1431659655
 20
9.4830281834
 30
0.0
 10
4.143701017
 20
9.4837543267
 30
0.0
 10
4.1442027355
 20
9.4842556786
 30
0.0
 10
4.1445696811
 20
9.4845823954
 30
0.0
  0
SPLINE
  5
44F
100
AcDbEntity
  8
0
100
AcDbSpline
 62
9
  6
CONTINUOUS
 70
0
 71
3
 72
14
 73
10
 74
0
 42
0.0000001
 43
0.0000001
 44
0.0000000001
 40
0.0
 40
0.0
 40
0.0
 40
0.0
 40
0.2500005933
 40
0.3777177246
 40
0.5054023923
 40
0.632139476
 40
0.7574147277
 40
0.8804187558
 40
1.0
 40
1.0
 40
1.0
 40
1.0
 10
4.1427163959
 20
9.4805522352
 30
0.0
 10
4.143537398
 20
9.4790597649
 30
0.0
 10
4.1450954404
 20
9.4769648013
 30
0.0
 10
4.1476229802
 20
9.4746184884
 30
0.0
 10
4.1497465656
 20
9.4730973467
 30
0.0
 10
4.1520438902
 20
9.4718906031
 30
0.0
 10
4.1544488008
 20
9.4710069238
 30
0.0
 10
4.1568951764
 20
9.4704357148
 30
0.0
 10
4.1585430038
 20
9.4702552298
 30
0.0
 10
4.1593568937
 20
9.4702174021
 30
0.0
  0
LINE
  5
450
100
AcDbEntity
  8
0
100
AcDbLine
 62
7
  6
CONTINUOUS
 10
5.8973677221
 20
9.5519987506
 11
5.8976567321
 21
8.7156584461
  0
LINE
  5
451
100
AcDbEntity
  8
0
100
AcDbLine
 62
7
  6
CONTINUOUS
 10
5.8976567321
 20
10.9750016271
 11
5.897367724
 21
10.1386728663
  0
SPLINE
  5
452
100
AcDbEntity
  8
0
100
AcDbSpline
 62
7
  6
CONTINUOUS
 70
0
 71
3
 72
9
 73
5
 74
0
 42
0.0000001
 43
0.0000001
 44
0.0000000001
 40
0.0
 40
0.0
 40
0.0
 40
0.0
 40
0.5000000013
 40
1.0
 40
1.0
 40
1.0
 40
1.0
 10
5.9176467255
 20
8.6956684532
 30
0.0
 10
6.2941630422
 20
8.6954801169
 30
0.0
 10
7.04731834
 20
8.6952304484
 30
0.0
 10
7.8004736233
 20
8.6954801169
 30
0.0
 10
8.1769899307
 20
8.6956684532
 30
0.0
  0
SPLINE
  5
453
100
AcDbEntity
  8
0
100
AcDbSpline
 62
7
  6
CONTINUOUS
 70
0
 71
3
 72
9
 73
5
 74
0
 42
0.0000001
 43
0.0000001
 44
0.0000000001
 40
0.0
 40
0.0
 40
0.0
 40
0.0
 40
0.5
 40
1.0
 40
1.0
 40
1.0
 40
1.0
 10
8.1969799241
 20
8.7156584466
 30
0.0
 10
8.1971682594
 20
9.0921747551
 30
0.0
 10
8.1974179243
 20
9.8453300366
 30
0.0
 10
8.1971682594
 20
10.5984853181
 30
0.0
 10
8.1969799241
 20
10.9750016266
 30
0.0
  0
SPLINE
  5
454
100
AcDbEntity
  8
0
100
AcDbSpline
 62
7
  6
CONTINUOUS
 70
0
 71
3
 72
9
 73
5
 74
0
 42
0.0000001
 43
0.0000001
 44
0.0000000001
 40
0.0
 40
0.0
 40
0.0
 40
0.0
 40
0.4999999987
 40
1.0
 40
1.0
 40
1.0
 40
1.0
 10
8.1769899307
 20
10.99499162
 30
0.0
 10
7.8004736233
 20
10.9951799563
 30
0.0
 10
7.04731834
 20
10.9954296249
 30
0.0
 10
6.2941630422
 20
10.9951799563
 30
0.0
 10
5.9176467255
 20
10.99499162
 30
0.0
  0
LINE
  5
455
100
AcDbEntity
  8
0
100
AcDbLine
 62
9
  6
CONTINUOUS
 10
6.0936488945
 20
8.885982585
 11
6.121651179
 21
8.8999576174
  0
LINE
  5
456
100
AcDbEntity
  8
0
100
AcDbLine
 62
9
  6
CONTINUOUS
 10
7.9798871467
 20
10.7608219391
 11
7.9927035823
 21
10.77077848
  0
LINE
  5
457
100
AcDbEntity
  8
0
100
AcDbLine
 62
9
  6
CONTINUOUS
 10
8.0066661348
 20
8.8916613512
 11
7.9926750108
 21
8.9196963396
  0
LINE
  5
458
100
AcDbEntity
  8
0
100
AcDbLine
 62
9
  6
CONTINUOUS
 10
8.006668083
 20
10.7989901917
 11
8.040177761
 21
10.8213412752
  0
LINE
  5
459
100
AcDbEntity
  8
0
100
AcDbLine
 62
9
  6
CONTINUOUS
 10
8.0066563947
 20
8.8916808847
 11
8.040175219
 21
8.8693230495
  0
SPLINE
  5
45A
100
AcDbEntity
  8
0
100
AcDbSpline
 62
9
  6
CONTINUOUS
 70
0
 71
3
 72
15
 73
11
 74
0
 42
0.0000001
 43
0.0000001
 44
0.0000000001
 40
0.0
 40
0.0
 40
0.0
 40
0.0
 40
0.1154433541
 40
0.2392537845
 40
0.3684030531
 40
0.5000013627
 40
0.6315994675
 40
0.7607481622
 40
0.8845577224
 40
1.0
 40
1.0
 40
1.0
 40
1.0
 10
8.040175219
 20
8.8693230495
 30
0.0
 10
8.0399120831
 20
8.8684068189
 30
0.0
 10
8.0392206574
 20
8.8665484054
 30
0.0
 10
8.0378113896
 20
8.8638449802
 30
0.0
 10
8.0360195039
 20
8.8612144061
 30
0.0
 10
8.0338800773
 20
8.8587695193
 30
0.0
 10
8.0314351306
 20
8.8566301683
 30
0.0
 10
8.028804513
 20
8.8548383706
 30
0.0
 10
8.0261010609
 20
8.853429199
 30
0.0
 10
8.0242426385
 20
8.8527378427
 30
0.0
 10
8.0233264069
 20
8.8524747426
 30
0.0
  0
LINE
  5
45B
100
AcDbEntity
  8
0
100
AcDbLine
 62
9
  6
CONTINUOUS
 10
8.0009778183
 20
8.8859801782
 11
8.0233290516
 21
8.8524705924
  0
LINE
  5
45C
100
AcDbEntity
  8
0
100
AcDbLine
 62
9
  6
CONTINUOUS
 10
6.0936688148
 20
8.885992089
 11
6.0713107564
 21
8.8524729122
  0
SPLINE
  5
45D
100
AcDbEntity
  8
0
100
AcDbSpline
 62
9
  6
CONTINUOUS
 70
0
 71
3
 72
15
 73
11
 74
0
 42
0.0000001
 43
0.0000001
 44
0.0000000001
 40
0.0
 40
0.0
 40
0.0
 40
0.0
 40
0.11544272
 40
0.2392527159
 40
0.3684017468
 40
0.5000000227
 40
0.6315983062
 40
0.760747338
 40
0.8845573122
 40
1.0
 40
1.0
 40
1.0
 40
1.0
 10
6.0713107564
 20
8.8524729122
 30
0.0
 10
6.0703945138
 20
8.8527360409
 30
0.0
 10
6.0685360732
 20
8.8534274565
 30
0.0
 10
6.0658326042
 20
8.8548367191
 30
0.0
 10
6.0632019818
 20
8.8566286109
 30
0.0
 10
6.0607570457
 20
8.8587680564
 30
0.0
 10
6.0586176484
 20
8.8612130348
 30
0.0
 10
6.0568258096
 20
8.8638436933
 30
0.0
 10
6.0554166043
 20
8.8665471917
 30
0.0
 10
6.0547252313
 20
8.868405648
 30
0.0
 10
6.054462125
 20
8.8693218967
 30
0.0
  0
LINE
  5
45E
100
AcDbEntity
  8
0
100
AcDbLine
 62
9
  6
CONTINUOUS
 10
6.0879772649
 20
8.8916768301
 11
6.054471134
 21
8.8693280804
  0
LINE
  5
45F
100
AcDbEntity
  8
0
100
AcDbLine
 62
9
  6
CONTINUOUS
 10
6.086239358
 20
9.5636289742
 11
6.0862488017
 21
9.5565782734
  0
LINE
  5
460
100
AcDbEntity
  8
0
100
AcDbLine
 62
9
  6
CONTINUOUS
 10
6.0862488017
 20
9.5565782734
 11
6.0879772531
 21
8.8916768492
  0
LINE
  5
461
100
AcDbEntity
  8
0
100
AcDbLine
 62
9
  6
CONTINUOUS
 10
6.0544613904
 20
8.8693235426
 11
5.899504561
 21
8.7138492084
  0
LINE
  5
462
100
AcDbEntity
  8
0
100
AcDbLine
 62
9
  6
CONTINUOUS
 10
5.899504561
 20
8.7138492084
 11
5.8979439815
 21
8.712283728
  0
LINE
  5
463
100
AcDbEntity
  8
0
100
AcDbLine
 62
9
  6
CONTINUOUS
 10
6.0527554356
 20
9.5632523928
 11
6.0527646338
 21
9.5557663124
  0
LINE
  5
464
100
AcDbEntity
  8
0
100
AcDbLine
 62
9
  6
CONTINUOUS
 10
6.0527646338
 20
9.5557663124
 11
6.0544258133
 21
8.8693204827
  0
LINE
  5
465
100
AcDbEntity
  8
0
100
AcDbLine
 62
9
  6
CONTINUOUS
 10
6.0713096196
 20
8.8524737991
 11
5.9158316432
 21
8.6975182087
  0
LINE
  5
466
100
AcDbEntity
  8
0
100
AcDbLine
 62
9
  6
CONTINUOUS
 10
5.9158316432
 20
8.6975182087
 11
5.9142657416
 21
8.6959581781
  0
LINE
  5
467
100
AcDbEntity
  8
0
100
AcDbLine
 62
9
  6
CONTINUOUS
 10
8.0233253583
 20
8.8524740439
 11
8.1788017786
 21
8.697514881
  0
LINE
  5
468
100
AcDbEntity
  8
0
100
AcDbLine
 62
9
  6
CONTINUOUS
 10
8.1788017786
 20
8.697514881
 11
8.1803646251
 21
8.695956926
  0
SPLINE
  5
469
100
AcDbEntity
  8
0
100
AcDbSpline
 62
9
  6
CONTINUOUS
 70
0
 71
3
 72
14
 73
10
 74
0
 42
0.0000001
 43
0.0000001
 44
0.0000000001
 40
0.0
 40
0.0
 40
0.0
 40
0.0
 40
0.1106711295
 40
0.2304261323
 40
0.4873090608
 40
0.620729078
 40
0.7529229786
 40
0.8801116777
 40
1.0
 40
1.0
 40
1.0
 40
1.0
 10
6.1318372683
 20
8.9127816197
 30
0.0
 10
6.1309405958
 20
8.9130218266
 30
0.0
 10
6.1291094266
 20
8.9136628582
 30
0.0
 10
6.1254440957
 20
8.9154859014
 30
0.0
 10
6.1219772967
 20
8.9180859694
 30
0.0
 10
6.1190436263
 20
8.9213546586
 30
0.0
 10
6.1171629961
 20
8.9240721223
 30
0.0
 10
6.1157157992
 20
8.9269152737
 30
0.0
 10
6.1150293411
 20
8.9288791104
 30
0.0
 10
6.1147691804
 20
8.9298504756
 30
0.0
  0
LINE
  5
46A
100
AcDbEntity
  8
0
100
AcDbLine
 62
9
  6
CONTINUOUS
 10
6.1019374448
 20
10.77078828
 11
6.1147582001
 21
10.760820608
  0
LINE
  5
46B
100
AcDbEntity
  8
0
100
AcDbLine
 62
9
  6
CONTINUOUS
 10
6.1147691804
 20
8.9298504756
 11
6.7485490208
 21
9.5665581928
  0
LINE
  5
46C
100
AcDbEntity
  8
0
100
AcDbLine
 62
9
  6
CONTINUOUS
 10
8.0401749498
 20
8.869323043
 11
8.1951334607
 21
8.7138463091
  0
LINE
  5
46D
100
AcDbEntity
  8
0
100
AcDbLine
 62
9
  6
CONTINUOUS
 10
8.1951334607
 20
8.7138463091
 11
8.1966911974
 21
8.7122830172
  0
LINE
  5
46E
100
AcDbEntity
  8
0
100
AcDbLine
 62
9
  6
CONTINUOUS
 10
8.0401743935
 20
10.8213373666
 11
8.1951334816
 21
10.9768135453
  0
LINE
  5
46F
100
AcDbEntity
  8
0
100
AcDbLine
 62
9
  6
CONTINUOUS
 10
8.1951334816
 20
10.9768135453
 11
8.1966914252
 21
10.97837638
  0
LINE
  5
470
100
AcDbEntity
  8
0
100
AcDbLine
 62
9
  6
CONTINUOUS
 10
6.1218607152
 20
8.8999502913
 11
6.1318238395
 21
8.9127649298
  0
LINE
  5
471
100
AcDbEntity
  8
0
100
AcDbLine
 62
9
  6
CONTINUOUS
 10
8.0233254901
 20
10.8381869392
 11
8.1788020846
 21
10.9931451455
  0
LINE
  5
472
100
AcDbEntity
  8
0
100
AcDbLine
 62
9
  6
CONTINUOUS
 10
8.1788020846
 20
10.9931451455
 11
8.1803653717
 21
10.9947028812
  0
LINE
  5
473
100
AcDbEntity
  8
0
100
AcDbLine
 62
9
  6
CONTINUOUS
 10
7.9727775166
 20
10.79071094
 11
7.9628123884
 21
10.7778937824
  0
LINE
  5
474
100
AcDbEntity
  8
0
100
AcDbLine
 62
9
  6
CONTINUOUS
 10
8.0009673961
 20
10.8046682567
 11
8.0233254861
 21
10.8381874656
  0
SPLINE
  5
475
100
AcDbEntity
  8
0
100
AcDbSpline
 62
9
  6
CONTINUOUS
 70
0
 71
3
 72
15
 73
11
 74
0
 42
0.0000001
 43
0.0000001
 44
0.0000000001
 40
0.0
 40
0.0
 40
0.0
 40
0.0
 40
0.1154436474
 40
0.2392543548
 40
0.3684038361
 40
0.5000022468
 40
0.6316003129
 40
0.7607488413
 40
0.8845581183
 40
1.0
 40
1.0
 40
1.0
 40
1.0
 10
8.0233254861
 20
10.8381874656
 30
0.0
 10
8.0242417219
 20
10.8379243239
 30
0.0
 10
8.0261001445
 20
10.8372328846
 30
0.0
 10
8.0288035795
 20
10.835823593
 30
0.0
 10
8.0314341583
 20
10.8340316812
 30
0.0
 10
8.0338790431
 20
10.8318922276
 30
0.0
 10
8.0360183841
 20
10.8294472545
 30
0.0
 10
8.0378101646
 20
10.8268166133
 30
0.0
 10
8.0392193132
 20
10.8241131423
 30
0.0
 10
8.0399106508
 20
10.8222547097
 30
0.0
 10
8.0401737409
 20
10.8213384742
 30
0.0
  0
LINE
  5
476
100
AcDbEntity
  8
0
100
AcDbLine
 62
9
  6
CONTINUOUS
 10
6.1019638586
 20
10.770958213
 11
6.0879804846
 21
10.7989795711
  0
LINE
  5
477
100
AcDbEntity
  8
0
100
AcDbLine
 62
9
  6
CONTINUOUS
 10
6.1216495436
 20
10.7907032584
 11
6.0936483752
 21
10.8046773723
  0
LINE
  5
478
100
AcDbEntity
  8
0
100
AcDbLine
 62
9
  6
CONTINUOUS
 10
6.0936603296
 20
10.8046798103
 11
6.0713086897
 21
10.8381891562
  0
LINE
  5
479
100
AcDbEntity
  8
0
100
AcDbLine
 62
9
  6
CONTINUOUS
 10
6.0879805329
 20
10.7989795651
 11
6.0544626893
 21
10.8213366911
  0
LINE
  5
47A
100
AcDbEntity
  8
0
100
AcDbLine
 62
9
  6
CONTINUOUS
 10
6.1019628318
 20
8.9196993859
 11
6.0879793587
 21
8.8916760962
  0
SPLINE
  5
47B
100
AcDbEntity
  8
0
100
AcDbSpline
 62
9
  6
CONTINUOUS
 70
0
 71
3
 72
15
 73
11
 74
0
 42
0.0000001
 43
0.0000001
 44
0.0000000001
 40
0.0
 40
0.0
 40
0.0
 40
0.0
 40
0.1154431857
 40
0.2392532448
 40
0.3684020947
 40
0.5000000883
 40
0.6315980805
 40
0.7607469044
 40
0.8845568994
 40
1.0
 40
1.0
 40
1.0
 40
1.0
 10
6.0544626893
 20
10.8213366911
 30
0.0
 10
6.0547258201
 20
10.8222528987
 30
0.0
 10
6.0554172265
 20
10.824111265
 30
0.0
 10
6.0568264482
 20
10.8268146249
 30
0.0
 10
6.0586182715
 20
10.8294451404
 30
0.0
 10
6.060757623
 20
10.8318899825
 30
0.0
 10
6.0632024852
 20
10.8340293108
 30
0.0
 10
6.0658330179
 20
10.8358211077
 30
0.0
 10
6.0685363922
 20
10.8372302989
 30
0.0
 10
6.0703947666
 20
10.8379216808
 30
0.0
 10
6.0713109774
 20
10.8381847978
 30
0.0
  0
LINE
  5
47C
100
AcDbEntity
  8
0
100
AcDbLine
 62
9
  6
CONTINUOUS
 10
7.9729885453
 20
8.89995595
 11
8.0009901619
 21
8.8859820228
  0
LINE
  5
47D
100
AcDbEntity
  8
0
100
AcDbLine
 62
9
  6
CONTINUOUS
 10
6.0879805634
 20
10.7989795278
 11
6.0862521304
 21
10.1340885362
  0
LINE
  5
47E
100
AcDbEntity
  8
0
100
AcDbLine
 62
9
  6
CONTINUOUS
 10
6.0544258809
 20
10.8213368778
 11
6.0527647196
 21
10.1349014146
  0
LINE
  5
47F
100
AcDbEntity
  8
0
100
AcDbLine
 62
9
  6
CONTINUOUS
 10
7.9926980941
 20
8.9198711324
 11
7.9798833109
 21
8.9298342101
  0
LINE
  5
480
100
AcDbEntity
  8
0
100
AcDbLine
 62
9
  6
CONTINUOUS
 10
6.0544622377
 20
10.8213366852
 11
5.8995031394
 21
10.9768137696
  0
LINE
  5
481
100
AcDbEntity
  8
0
100
AcDbLine
 62
9
  6
CONTINUOUS
 10
5.8995031394
 20
10.9768137696
 11
5.8979453423
 21
10.9783770707
  0
LINE
  5
482
100
AcDbEntity
  8
0
100
AcDbLine
 62
9
  6
CONTINUOUS
 10
6.0713110118
 20
10.8381855669
 11
5.9158339742
 21
10.9931450012
  0
LINE
  5
483
100
AcDbEntity
  8
0
100
AcDbLine
 62
9
  6
CONTINUOUS
 10
5.9158339742
 20
10.9931450012
 11
5.9142711273
 21
10.9947029577
  0
LINE
  5
484
100
AcDbEntity
  8
0
100
AcDbLine
 62
9
  6
CONTINUOUS
 10
7.9926927609
 20
10.7710009925
 11
8.0066665427
 21
10.7990024141
  0
LINE
  5
485
100
AcDbEntity
  8
0
100
AcDbLine
 62
9
  6
CONTINUOUS
 10
6.1148041717
 20
8.92988545
 11
6.1129540375
 21
9.5572255721
  0
LINE
  5
486
100
AcDbEntity
  8
0
100
AcDbLine
 62
9
  6
CONTINUOUS
 10
6.1129437871
 20
10.1268328663
 11
6.1129541167
 21
10.1334406483
  0
LINE
  5
487
100
AcDbEntity
  8
0
100
AcDbLine
 62
9
  6
CONTINUOUS
 10
6.1129541167
 20
10.1334406483
 11
6.1148042458
 21
10.7607756518
  0
LINE
  5
488
100
AcDbEntity
  8
0
100
AcDbLine
 62
9
  6
CONTINUOUS
 10
6.7479186932
 20
10.1247347151
 11
6.1147697274
 21
10.7608106702
  0
SPLINE
  5
489
100
AcDbEntity
  8
0
100
AcDbSpline
 62
9
  6
CONTINUOUS
 70
0
 71
3
 72
14
 73
10
 74
0
 42
0.0000001
 43
0.0000001
 44
0.0000000001
 40
0.0
 40
0.0
 40
0.0
 40
0.0
 40
0.1198866405
 40
0.2470742637
 40
0.3792677747
 40
0.5126879529
 40
0.7695722708
 40
0.8893281414
 40
1.0
 40
1.0
 40
1.0
 40
1.0
 10
6.1147697274
 20
10.7608106702
 30
0.0
 10
6.1150299035
 20
10.7617820119
 30
0.0
 10
6.1157163898
 20
10.7637458036
 30
0.0
 10
6.1171636237
 20
10.7665888898
 30
0.0
 10
6.1190442939
 20
10.7693062937
 30
0.0
 10
6.1219780305
 20
10.7725749097
 30
0.0
 10
6.1254449076
 20
10.7751748806
 30
0.0
 10
6.1291103094
 20
10.7769977958
 30
0.0
 10
6.130941511
 20
10.777638751
 30
0.0
 10
6.1318381968
 20
10.7778789149
 30
0.0
  0
LINE
  5
48A
100
AcDbEntity
  8
0
100
AcDbLine
 62
9
  6
CONTINUOUS
 10
6.1147576348
 20
8.9298428719
 11
6.1019347689
 21
8.9198824686
  0
LINE
  5
48B
100
AcDbEntity
  8
0
100
AcDbLine
 62
9
  6
CONTINUOUS
 10
7.9628096475
 20
8.9127612202
 11
7.9727659499
 21
8.8999448079
  0
SPLINE
  5
48C
100
AcDbEntity
  8
0
100
AcDbSpline
 62
9
  6
CONTINUOUS
 70
0
 71
3
 72
18
 73
14
 74
0
 42
0.0000001
 43
0.0000001
 44
0.0000000001
 40
0.0
 40
0.0
 40
0.0
 40
0.0
 40
0.1997703843
 40
0.3830351652
 40
0.5473060704
 40
0.6898426427
 40
0.8081775254
 40
0.85762227
 40
0.9002574979
 40
0.9358720012
 40
0.9643928379
 40
0.985781625
 40
1.0
 40
1.0
 40
1.0
 40
1.0
 10
6.1318710498
 20
8.9128152753
 30
0.0
 10
6.175500274
 20
8.9562818525
 30
0.0
 10
6.2591628359
 20
9.0396147556
 30
0.0
 10
6.3787319729
 20
9.1586597133
 30
0.0
 10
6.48582276
 20
9.2652301478
 30
0.0
 10
6.5787422793
 20
9.3576636884
 30
0.0
 10
6.6465716793
 20
9.4251255413
 30
0.0
 10
6.6925590931
 20
9.4708745506
 30
0.0
 10
6.7204623738
 20
9.4986433857
 30
0.0
 10
6.7437851917
 20
9.5218703331
 30
0.0
 10
6.7624577333
 20
9.5404845888
 30
0.0
 10
6.7764468727
 20
9.5544539797
 30
0.0
 10
6.7842043993
 20
9.5622204992
 30
0.0
 10
6.7872944566
 20
9.5653293449
 30
0.0
  0
SPLINE
  5
48D
100
AcDbEntity
  8
0
100
AcDbSpline
 62
9
  6
CONTINUOUS
 70
0
 71
3
 72
18
 73
14
 74
0
 42
0.0000001
 43
0.0000001
 44
0.0000000001
 40
0.0
 40
0.0
 40
0.0
 40
0.0
 40
0.0142179987
 40
0.0356065339
 40
0.0641222757
 40
0.0997218747
 40
0.1423319274
 40
0.1917587933
 40
0.3101071709
 40
0.4526357527
 40
0.6169167446
 40
0.8002100132
 40
1.0
 40
1.0
 40
1.0
 40
1.0
 10
7.3073406427
 20
9.5653298256
 30
0.0
 10
7.3104305779
 20
9.5622210198
 30
0.0
 10
7.3181877967
 20
9.5544544606
 30
0.0
 10
7.3321754684
 20
9.5404860858
 30
0.0
 10
7.3508435111
 20
9.5218761454
 30
0.0
 10
7.3741567234
 20
9.4986592701
 30
0.0
 10
7.4020480916
 20
9.470903773
 30
0.0
 10
7.44802971
 20
9.4251618232
 30
0.0
 10
7.5158548832
 20
9.3577010775
 30
0.0
 10
7.6087778518
 20
9.2652641168
 30
0.0
 10
7.715875828
 20
9.1586874564
 30
0.0
 10
7.8354575501
 20
9.0396296262
 30
0.0
 10
7.9191304655
 20
8.9562860445
 30
0.0
 10
7.9627639529
 20
8.9128151501
 30
0.0
  0
LINE
  5
48E
100
AcDbEntity
  8
0
100
AcDbLine
 62
9
  6
CONTINUOUS
 10
7.3467286183
 20
9.5659147361
 11
7.9798662893
 21
8.9298490488
  0
SPLINE
  5
48F
100
AcDbEntity
  8
0
100
AcDbSpline
 62
9
  6
CONTINUOUS
 70
0
 71
3
 72
14
 73
10
 74
0
 42
0.0000001
 43
0.0000001
 44
0.0000000001
 40
0.0
 40
0.0
 40
0.0
 40
0.0
 40
0.1198868148
 40
0.2470744532
 40
0.3792678442
 40
0.5126878569
 40
0.7695720164
 40
0.8893279401
 40
1.0
 40
1.0
 40
1.0
 40
1.0
 10
7.9798662893
 20
8.9298490488
 30
0.0
 10
7.9796061075
 20
8.9288777267
 30
0.0
 10
7.9789196153
 20
8.9269139769
 30
0.0
 10
7.9774723876
 20
8.9240709545
 30
0.0
 10
7.9755917394
 20
8.9213536138
 30
0.0
 10
7.9726580478
 20
8.9180850736
 30
0.0
 10
7.969191235
 20
8.9154851586
 30
0.0
 10
7.9655259024
 20
8.9136622752
 30
0.0
 10
7.9636947345
 20
8.913021328
 30
0.0
 10
7.9627980646
 20
8.9127811655
 30
0.0
  0
LINE
  5
490
100
AcDbEntity
  8
0
100
AcDbLine
 62
9
  6
CONTINUOUS
 10
7.3464182489
 20
10.1244370856
 11
7.9798331241
 21
10.7607766811
  0
SPLINE
  5
491
100
AcDbEntity
  8
0
100
AcDbSpline
 62
9
  6
CONTINUOUS
 70
0
 71
3
 72
25
 73
21
 74
0
 42
0.0000001
 43
0.0000001
 44
0.0000000001
 40
0.0
 40
0.0
 40
0.0
 40
0.0
 40
0.0142211223
 40
0.0355861838
 40
0.0489499312
 40
0.0641059819
 40
0.0810432196
 40
0.0997443461
 40
0.142364982
 40
0.191805392
 40
0.2478321916
 40
0.3101732342
 40
0.3785579918
 40
0.4527096455
 40
0.5323198481
 40
0.6170071608
 40
0.7064216992
 40
0.8002579982
 40
0.8982173737
 40
1.0
 40
1.0
 40
1.0
 40
1.0
 10
7.307340574
 20
10.1253303705
 30
0.0
 10
7.3104371342
 20
10.1284342641
 30
0.0
 10
7.3181956689
 20
10.1361914325
 30
0.0
 10
7.3288578471
 20
10.1468715857
 30
0.0
 10
7.3397379585
 20
10.1577414489
 30
0.0
 10
7.3496669705
 20
10.1676318278
 30
0.0
 10
7.3607699125
 20
10.1786753449
 30
0.0
 10
7.3778762975
 20
10.1956900297
 30
0.0
 10
7.402074204
 20
10.2197847021
 30
0.0
 10
7.434442837
 20
10.2519826535
 30
0.0
 10
7.4711268505
 20
10.2884633308
 30
0.0
 10
7.5119445322
 20
10.3290701507
 30
0.0
 10
7.5567220478
 20
10.3736196166
 30
0.0
 10
7.6052774357
 20
10.4219205804
 30
0.0
 10
7.6574030242
 20
10.473759252
 30
0.0
 10
7.7128458406
 20
10.528935443
 30
0.0
 10
7.7713775468
 20
10.58722544
 30
0.0
 10
7.8328077785
 20
10.6484035664
 30
0.0
 10
7.896937353
 20
10.7122748776
 30
0.0
 10
7.9405671929
 20
10.7557330666
 30
0.0
 10
7.9627994055
 20
10.777878343
 30
0.0
  0
SPLINE
  5
492
100
AcDbEntity
  8
0
100
AcDbSpline
 62
9
  6
CONTINUOUS
 70
0
 71
3
 72
14
 73
10
 74
0
 42
0.0000001
 43
0.0000001
 44
0.0000000001
 40
0.0
 40
0.0
 40
0.0
 40
0.0
 40
0.1198864487
 40
0.2470734381
 40
0.3792660526
 40
0.5126854605
 40
0.7695698134
 40
0.8893265589
 40
1.0
 40
1.0
 40
1.0
 40
1.0
 10
7.9627994055
 20
10.777878343
 30
0.0
 10
7.9637706973
 20
10.7776181671
 30
0.0
 10
7.9657343847
 20
10.7769316973
 30
0.0
 10
7.9685773208
 20
10.775484528
 30
0.0
 10
7.9712945875
 20
10.7736039638
 30
0.0
 10
7.9745630636
 20
10.7706703975
 30
0.0
 10
7.9771629676
 20
10.7672037258
 30
0.0
 10
7.9789858967
 20
10.7635385199
 30
0.0
 10
7.9796268837
 20
10.7617074034
 30
0.0
 10
7.9798670707
 20
10.7608107546
 30
0.0
  0
SPLINE
  5
493
100
AcDbEntity
  8
0
100
AcDbSpline
 62
9
  6
CONTINUOUS
 70
0
 71
3
 72
18
 73
14
 74
0
 42
0.0000001
 43
0.0000001
 44
0.0000000001
 40
0.0
 40
0.0
 40
0.0
 40
0.0
 40
0.014218093
 40
0.0356057814
 40
0.0641205785
 40
0.0997199777
 40
0.1423310755
 40
0.1917593522
 40
0.3101078914
 40
0.4526335512
 40
0.6169166654
 40
0.8002101831
 40
1.0
 40
1.0
 40
1.0
 40
1.0
 10
6.7872960642
 20
10.1253303159
 30
0.0
 10
6.7842060915
 20
10.1284391004
 30
0.0
 10
6.7764490608
 20
10.1362054566
 30
0.0
 10
6.7624618266
 20
10.1501734158
 30
0.0
 10
6.7437943084
 20
10.1687828616
 30
0.0
 10
6.7204811926
 20
10.1919996017
 30
0.0
 10
6.6925893658
 20
10.219755398
 30
0.0
 10
6.6466072766
 20
10.2654976465
 30
0.0
 10
6.5787827637
 20
10.3329579169
 30
0.0
 10
6.4858601935
 20
10.4253942467
 30
0.0
 10
6.3787629417
 20
10.5319705271
 30
0.0
 10
6.2591810938
 20
10.6510282246
 30
0.0
 10
6.1755084268
 20
10.7343714127
 30
0.0
 10
6.1318751542
 20
10.7778420952
 30
0.0
  0
LINE
  5
494
100
AcDbEntity
  8
0
100
AcDbLine
 62
9
  6
CONTINUOUS
 10
6.1318280369
 20
10.7778953525
 11
6.1218696137
 21
10.7907144238
  0
LINE
  5
495
100
AcDbEntity
  8
0
100
AcDbLine
 62
9
  6
CONTINUOUS
 10
8.0009856965
 20
10.8046773731
 11
7.9729532833
 21
10.7906873347
  0
LINE
  5
496
100
AcDbEntity
  8
0
100
AcDbLine
 62
7
  6
CONTINUOUS
 10
16.1972689544
 20
10.1386613226
 11
16.1969799444
 21
10.9750016271
  0
LINE
  5
497
100
AcDbEntity
  8
0
100
AcDbLine
 62
7
  6
CONTINUOUS
 10
16.1969799444
 20
8.7156584461
 11
16.1972689526
 21
9.5519872069
  0
SPLINE
  5
498
100
AcDbEntity
  8
0
100
AcDbSpline
 62
7
  6
CONTINUOUS
 70
0
 71
3
 72
9
 73
5
 74
0
 42
0.0000001
 43
0.0000001
 44
0.0000000001
 40
0.0
 40
0.0
 40
0.0
 40
0.0
 40
0.5000000013
 40
1.0
 40
1.0
 40
1.0
 40
1.0
 10
16.1769899511
 20
10.99499162
 30
0.0
 10
15.8004736343
 20
10.9951799563
 30
0.0
 10
15.0473183365
 20
10.9954296249
 30
0.0
 10
14.2941630533
 20
10.9951799563
 30
0.0
 10
13.9176467459
 20
10.99499162
 30
0.0
  0
SPLINE
  5
499
100
AcDbEntity
  8
0
100
AcDbSpline
 62
7
  6
CONTINUOUS
 70
0
 71
3
 72
9
 73
5
 74
0
 42
0.0000001
 43
0.0000001
 44
0.0000000001
 40
0.0
 40
0.0
 40
0.0
 40
0.0
 40
0.5
 40
1.0
 40
1.0
 40
1.0
 40
1.0
 10
13.8976567525
 20
10.9750016266
 30
0.0
 10
13.8974684172
 20
10.5984853181
 30
0.0
 10
13.8972187523
 20
9.8453300366
 30
0.0
 10
13.8974684172
 20
9.0921747551
 30
0.0
 10
13.8976567525
 20
8.7156584466
 30
0.0
  0
SPLINE
  5
49A
100
AcDbEntity
  8
0
100
AcDbSpline
 62
7
  6
CONTINUOUS
 70
0
 71
3
 72
9
 73
5
 74
0
 42
0.0000001
 43
0.0000001
 44
0.0000000001
 40
0.0
 40
0.0
 40
0.0
 40
0.0
 40
0.4999999987
 40
1.0
 40
1.0
 40
1.0
 40
1.0
 10
13.9176467459
 20
8.6956684532
 30
0.0
 10
14.2941630533
 20
8.6954801169
 30
0.0
 10
15.0473183365
 20
8.6952304484
 30
0.0
 10
15.8004736343
 20
8.6954801169
 30
0.0
 10
16.1769899511
 20
8.6956684532
 30
0.0
  0
LINE
  5
49B
100
AcDbEntity
  8
0
100
AcDbLine
 62
9
  6
CONTINUOUS
 10
16.0009877821
 20
10.8046774883
 11
15.9729854976
 21
10.7907024559
  0
LINE
  5
49C
100
AcDbEntity
  8
0
100
AcDbLine
 62
9
  6
CONTINUOUS
 10
14.1147495298
 20
8.9298381341
 11
14.1019330942
 21
8.9198815932
  0
LINE
  5
49D
100
AcDbEntity
  8
0
100
AcDbLine
 62
9
  6
CONTINUOUS
 10
14.0879705418
 20
10.798998722
 11
14.1019616657
 21
10.7709637336
  0
LINE
  5
49E
100
AcDbEntity
  8
0
100
AcDbLine
 62
9
  6
CONTINUOUS
 10
14.0879685936
 20
8.8916698815
 11
14.0544589156
 21
8.8693187981
  0
LINE
  5
49F
100
AcDbEntity
  8
0
100
AcDbLine
 62
9
  6
CONTINUOUS
 10
14.0879802819
 20
10.7989791885
 11
14.0544614575
 21
10.8213370238
  0
SPLINE
  5
4A0
100
AcDbEntity
  8
0
100
AcDbSpline
 62
9
  6
CONTINUOUS
 70
0
 71
3
 72
15
 73
11
 74
0
 42
0.0000001
 43
0.0000001
 44
0.0000000001
 40
0.0
 40
0.0
 40
0.0
 40
0.0
 40
0.1154433541
 40
0.2392537845
 40
0.3684030531
 40
0.5000013627
 40
0.6315994675
 40
0.7607481622
 40
0.8845577224
 40
1.0
 40
1.0
 40
1.0
 40
1.0
 10
14.0544614575
 20
10.8213370238
 30
0.0
 10
14.0547245934
 20
10.8222532544
 30
0.0
 10
14.0554160192
 20
10.8241116679
 30
0.0
 10
14.056825287
 20
10.826815093
 30
0.0
 10
14.0586171726
 20
10.8294456671
 30
0.0
 10
14.0607565992
 20
10.8318905539
 30
0.0
 10
14.063201546
 20
10.8340299049
 30
0.0
 10
14.0658321636
 20
10.8358217026
 30
0.0
 10
14.0685356156
 20
10.8372308742
 30
0.0
 10
14.0703940381
 20
10.8379222305
 30
0.0
 10
14.0713102697
 20
10.8381853307
 30
0.0
  0
LINE
  5
4A1
100
AcDbEntity
  8
0
100
AcDbLine
 62
9
  6
CONTINUOUS
 10
14.0936588583
 20
10.804679895
 11
14.071307625
 21
10.8381894808
  0
LINE
  5
4A2
100
AcDbEntity
  8
0
100
AcDbLine
 62
9
  6
CONTINUOUS
 10
16.0009678618
 20
10.8046679842
 11
16.0233259202
 21
10.8381871611
  0
SPLINE
  5
4A3
100
AcDbEntity
  8
0
100
AcDbSpline
 62
9
  6
CONTINUOUS
 70
0
 71
3
 72
15
 73
11
 74
0
 42
0.0000001
 43
0.0000001
 44
0.0000000001
 40
0.0
 40
0.0
 40
0.0
 40
0.0
 40
0.11544272
 40
0.2392527159
 40
0.3684017468
 40
0.5000000227
 40
0.6315983062
 40
0.760747338
 40
0.8845573122
 40
1.0
 40
1.0
 40
1.0
 40
1.0
 10
16.0233259202
 20
10.8381871611
 30
0.0
 10
16.0242421627
 20
10.8379240323
 30
0.0
 10
16.0261006034
 20
10.8372326167
 30
0.0
 10
16.0288040723
 20
10.8358233542
 30
0.0
 10
16.0314346948
 20
10.8340314623
 30
0.0
 10
16.0338796309
 20
10.8318920168
 30
0.0
 10
16.0360190281
 20
10.8294470384
 30
0.0
 10
16.037810867
 20
10.8268163799
 30
0.0
 10
16.0392200723
 20
10.8241128815
 30
0.0
 10
16.0399114453
 20
10.8222544252
 30
0.0
 10
16.0401745516
 20
10.8213381765
 30
0.0
  0
LINE
  5
4A4
100
AcDbEntity
  8
0
100
AcDbLine
 62
9
  6
CONTINUOUS
 10
16.0066594117
 20
10.7989832432
 11
16.0401655426
 21
10.8213319929
  0
LINE
  5
4A5
100
AcDbEntity
  8
0
100
AcDbLine
 62
9
  6
CONTINUOUS
 10
16.0083973186
 20
10.127031099
 11
16.0083878749
 21
10.1340817998
  0
LINE
  5
4A6
100
AcDbEntity
  8
0
100
AcDbLine
 62
9
  6
CONTINUOUS
 10
16.0083878749
 20
10.1340817998
 11
16.0066594234
 21
10.798983224
  0
LINE
  5
4A7
100
AcDbEntity
  8
0
100
AcDbLine
 62
9
  6
CONTINUOUS
 10
16.0401752862
 20
10.8213365307
 11
16.1951321156
 21
10.9768108648
  0
LINE
  5
4A8
100
AcDbEntity
  8
0
100
AcDbLine
 62
9
  6
CONTINUOUS
 10
16.1951321156
 20
10.9768108648
 11
16.1966926951
 21
10.9783763452
  0
LINE
  5
4A9
100
AcDbEntity
  8
0
100
AcDbLine
 62
9
  6
CONTINUOUS
 10
16.0418812409
 20
10.1274076805
 11
16.0418720427
 21
10.1348937609
  0
LINE
  5
4AA
100
AcDbEntity
  8
0
100
AcDbLine
 62
9
  6
CONTINUOUS
 10
16.0418720427
 20
10.1348937609
 11
16.0402108633
 21
10.8213395905
  0
LINE
  5
4AB
100
AcDbEntity
  8
0
100
AcDbLine
 62
9
  6
CONTINUOUS
 10
16.023327057
 20
10.8381862741
 11
16.1788050333
 21
10.9931418645
  0
LINE
  5
4AC
100
AcDbEntity
  8
0
100
AcDbLine
 62
9
  6
CONTINUOUS
 10
16.1788050333
 20
10.9931418645
 11
16.1803709349
 21
10.9947018952
  0
LINE
  5
4AD
100
AcDbEntity
  8
0
100
AcDbLine
 62
9
  6
CONTINUOUS
 10
14.0713113183
 20
10.8381860293
 11
13.915834898
 21
10.9931451922
  0
LINE
  5
4AE
100
AcDbEntity
  8
0
100
AcDbLine
 62
9
  6
CONTINUOUS
 10
13.915834898
 20
10.9931451922
 11
13.9142720514
 21
10.9947031473
  0
SPLINE
  5
4AF
100
AcDbEntity
  8
0
100
AcDbSpline
 62
9
  6
CONTINUOUS
 70
0
 71
3
 72
14
 73
10
 74
0
 42
0.0000001
 43
0.0000001
 44
0.0000000001
 40
0.0
 40
0.0
 40
0.0
 40
0.0
 40
0.1106711295
 40
0.2304261323
 40
0.4873090608
 40
0.620729078
 40
0.7529229786
 40
0.8801116777
 40
1.0
 40
1.0
 40
1.0
 40
1.0
 10
15.9627994083
 20
10.7778784535
 30
0.0
 10
15.9636960808
 20
10.7776382466
 30
0.0
 10
15.96552725
 20
10.7769972151
 30
0.0
 10
15.9691925809
 20
10.7751741719
 30
0.0
 10
15.9726593799
 20
10.7725741039
 30
0.0
 10
15.9755930503
 20
10.7693054146
 30
0.0
 10
15.9774736805
 20
10.766587951
 30
0.0
 10
15.9789208773
 20
10.7637447995
 30
0.0
 10
15.9796073355
 20
10.7617809629
 30
0.0
 10
15.9798674962
 20
10.7608095977
 30
0.0
  0
LINE
  5
4B0
100
AcDbEntity
  8
0
100
AcDbLine
 62
9
  6
CONTINUOUS
 10
15.9926992318
 20
8.9198717932
 11
15.9798784765
 21
8.9298394653
  0
LINE
  5
4B1
100
AcDbEntity
  8
0
100
AcDbLine
 62
9
  6
CONTINUOUS
 10
15.9798674962
 20
10.7608095977
 11
15.3460876557
 21
10.1241018804
  0
LINE
  5
4B2
100
AcDbEntity
  8
0
100
AcDbLine
 62
9
  6
CONTINUOUS
 10
14.0544617268
 20
10.8213370302
 11
13.8995032158
 21
10.9768137642
  0
LINE
  5
4B3
100
AcDbEntity
  8
0
100
AcDbLine
 62
9
  6
CONTINUOUS
 10
13.8995032158
 20
10.9768137642
 11
13.8979454792
 21
10.9783770561
  0
LINE
  5
4B4
100
AcDbEntity
  8
0
100
AcDbLine
 62
9
  6
CONTINUOUS
 10
14.054462283
 20
8.8693227066
 11
13.8995031949
 21
8.7138465279
  0
LINE
  5
4B5
100
AcDbEntity
  8
0
100
AcDbLine
 62
9
  6
CONTINUOUS
 10
13.8995031949
 20
8.7138465279
 11
13.8979452514
 21
8.7122836933
  0
LINE
  5
4B6
100
AcDbEntity
  8
0
100
AcDbLine
 62
9
  6
CONTINUOUS
 10
15.9727759613
 20
10.7907097819
 11
15.9628128371
 21
10.7778951435
  0
LINE
  5
4B7
100
AcDbEntity
  8
0
100
AcDbLine
 62
9
  6
CONTINUOUS
 10
14.0713111865
 20
8.852473134
 11
13.9158345919
 21
8.6975149277
  0
LINE
  5
4B8
100
AcDbEntity
  8
0
100
AcDbLine
 62
9
  6
CONTINUOUS
 10
13.9158345919
 20
8.6975149277
 11
13.9142713049
 21
8.695957192
  0
LINE
  5
4B9
100
AcDbEntity
  8
0
100
AcDbLine
 62
9
  6
CONTINUOUS
 10
14.12185916
 20
8.8999491333
 11
14.1318242882
 21
8.9127662909
  0
LINE
  5
4BA
100
AcDbEntity
  8
0
100
AcDbLine
 62
9
  6
CONTINUOUS
 10
14.0936692805
 20
8.8859918165
 11
14.0713111904
 21
8.8524726076
  0
SPLINE
  5
4BB
100
AcDbEntity
  8
0
100
AcDbSpline
 62
9
  6
CONTINUOUS
 70
0
 71
3
 72
15
 73
11
 74
0
 42
0.0000001
 43
0.0000001
 44
0.0000000001
 40
0.0
 40
0.0
 40
0.0
 40
0.0
 40
0.1154436474
 40
0.2392543548
 40
0.3684038361
 40
0.5000022468
 40
0.6316003129
 40
0.7607488413
 40
0.8845581183
 40
1.0
 40
1.0
 40
1.0
 40
1.0
 10
14.0713111904
 20
8.8524726076
 30
0.0
 10
14.0703949547
 20
8.8527357493
 30
0.0
 10
14.068536532
 20
8.8534271887
 30
0.0
 10
14.0658330971
 20
8.8548364802
 30
0.0
 10
14.0632025183
 20
8.8566283921
 30
0.0
 10
14.0607576334
 20
8.8587678457
 30
0.0
 10
14.0586182925
 20
8.8612128188
 30
0.0
 10
14.056826512
 20
8.86384346
 30
0.0
 10
14.0554173634
 20
8.866546931
 30
0.0
 10
14.0547260257
 20
8.8684053636
 30
0.0
 10
14.0544629357
 20
8.869321599
 30
0.0
  0
LINE
  5
4BC
100
AcDbEntity
  8
0
100
AcDbLine
 62
9
  6
CONTINUOUS
 10
15.9926728179
 20
8.9197018602
 11
16.006656192
 21
8.8916805022
  0
LINE
  5
4BD
100
AcDbEntity
  8
0
100
AcDbLine
 62
9
  6
CONTINUOUS
 10
15.9729871329
 20
8.8999568149
 11
16.0009883013
 21
8.8859827009
  0
LINE
  5
4BE
100
AcDbEntity
  8
0
100
AcDbLine
 62
9
  6
CONTINUOUS
 10
16.000976347
 20
8.8859802629
 11
16.0233279868
 21
8.8524709171
  0
LINE
  5
4BF
100
AcDbEntity
  8
0
100
AcDbLine
 62
9
  6
CONTINUOUS
 10
16.0066561436
 20
8.8916805081
 11
16.0401739872
 21
8.8693233821
  0
LINE
  5
4C0
100
AcDbEntity
  8
0
100
AcDbLine
 62
9
  6
CONTINUOUS
 10
15.9926738448
 20
10.7709606873
 11
16.0066573179
 21
10.7989839771
  0
SPLINE
  5
4C1
100
AcDbEntity
  8
0
100
AcDbSpline
 62
9
  6
CONTINUOUS
 70
0
 71
3
 72
15
 73
11
 74
0
 42
0.0000001
 43
0.0000001
 44
0.0000000001
 40
0.0
 40
0.0
 40
0.0
 40
0.0
 40
0.1154431857
 40
0.2392532448
 40
0.3684020947
 40
0.5000000883
 40
0.6315980805
 40
0.7607469044
 40
0.8845568994
 40
1.0
 40
1.0
 40
1.0
 40
1.0
 10
16.0401739872
 20
8.8693233821
 30
0.0
 10
16.0399108565
 20
8.8684071746
 30
0.0
 10
16.0392194501
 20
8.8665488083
 30
0.0
 10
16.0378102284
 20
8.8638454483
 30
0.0
 10
16.036018405
 20
8.8612149329
 30
0.0
 10
16.0338790536
 20
8.8587700907
 30
0.0
 10
16.0314341914
 20
8.8566307625
 30
0.0
 10
16.0288036587
 20
8.8548389656
 30
0.0
 10
16.0261002843
 20
8.8534297743
 30
0.0
 10
16.0242419099
 20
8.8527383925
 30
0.0
 10
16.0233256991
 20
8.8524752755
 30
0.0
  0
LINE
  5
4C2
100
AcDbEntity
  8
0
100
AcDbLine
 62
9
  6
CONTINUOUS
 10
14.1216481313
 20
10.7907041232
 11
14.0936465147
 21
10.8046780504
  0
LINE
  5
4C3
100
AcDbEntity
  8
0
100
AcDbLine
 62
9
  6
CONTINUOUS
 10
16.0066561132
 20
8.8916805454
 11
16.0083845462
 21
9.556571537
  0
LINE
  5
4C4
100
AcDbEntity
  8
0
100
AcDbLine
 62
9
  6
CONTINUOUS
 10
16.0402107957
 20
8.8693231955
 11
16.041871957
 21
9.5557586586
  0
LINE
  5
4C5
100
AcDbEntity
  8
0
100
AcDbLine
 62
9
  6
CONTINUOUS
 10
14.1019385824
 20
10.7707889409
 11
14.1147533656
 21
10.7608258632
  0
LINE
  5
4C6
100
AcDbEntity
  8
0
100
AcDbLine
 62
9
  6
CONTINUOUS
 10
16.0401744389
 20
8.8693233881
 11
16.1951335371
 21
8.7138463036
  0
LINE
  5
4C7
100
AcDbEntity
  8
0
100
AcDbLine
 62
9
  6
CONTINUOUS
 10
16.1951335371
 20
8.7138463036
 11
16.1966913343
 21
8.7122830025
  0
LINE
  5
4C8
100
AcDbEntity
  8
0
100
AcDbLine
 62
9
  6
CONTINUOUS
 10
16.0233256647
 20
8.8524745063
 11
16.1788027024
 21
8.697515072
  0
LINE
  5
4C9
100
AcDbEntity
  8
0
100
AcDbLine
 62
9
  6
CONTINUOUS
 10
16.1788027024
 20
8.697515072
 11
16.1803655493
 21
8.6959571156
  0
LINE
  5
4CA
100
AcDbEntity
  8
0
100
AcDbLine
 62
9
  6
CONTINUOUS
 10
14.1019439157
 20
8.9196590808
 11
14.0879701339
 21
8.8916576591
  0
LINE
  5
4CB
100
AcDbEntity
  8
0
100
AcDbLine
 62
9
  6
CONTINUOUS
 10
15.9798325049
 20
10.7607746233
 11
15.9816826391
 21
10.1334345012
  0
LINE
  5
4CC
100
AcDbEntity
  8
0
100
AcDbLine
 62
9
  6
CONTINUOUS
 10
15.9816928894
 20
9.563827207
 11
15.9816825598
 21
9.5572194249
  0
LINE
  5
4CD
100
AcDbEntity
  8
0
100
AcDbLine
 62
9
  6
CONTINUOUS
 10
15.9816825598
 20
9.5572194249
 11
15.9798324307
 21
8.9298844214
  0
LINE
  5
4CE
100
AcDbEntity
  8
0
100
AcDbLine
 62
9
  6
CONTINUOUS
 10
15.3467179834
 20
9.5659253581
 11
15.9798669491
 21
8.929849403
  0
SPLINE
  5
4CF
100
AcDbEntity
  8
0
100
AcDbSpline
 62
9
  6
CONTINUOUS
 70
0
 71
3
 72
14
 73
10
 74
0
 42
0.0000001
 43
0.0000001
 44
0.0000000001
 40
0.0
 40
0.0
 40
0.0
 40
0.0
 40
0.1198866405
 40
0.2470742637
 40
0.3792677747
 40
0.5126879529
 40
0.7695722708
 40
0.8893281414
 40
1.0
 40
1.0
 40
1.0
 40
1.0
 10
15.9798669491
 20
8.929849403
 30
0.0
 10
15.9796067731
 20
8.9288780614
 30
0.0
 10
15.9789202867
 20
8.9269142696
 30
0.0
 10
15.9774730529
 20
8.9240711835
 30
0.0
 10
15.9755923826
 20
8.9213537795
 30
0.0
 10
15.9726586461
 20
8.9180851635
 30
0.0
 10
15.969191769
 20
8.9154851926
 30
0.0
 10
15.9655263672
 20
8.9136622774
 30
0.0
 10
15.9636951656
 20
8.9130213222
 30
0.0
 10
15.9627984798
 20
8.9127811583
 30
0.0
  0
LINE
  5
4D0
100
AcDbEntity
  8
0
100
AcDbLine
 62
9
  6
CONTINUOUS
 10
15.9798790418
 20
10.7608172014
 11
15.9927019076
 21
10.7707776047
  0
LINE
  5
4D1
100
AcDbEntity
  8
0
100
AcDbLine
 62
9
  6
CONTINUOUS
 10
14.131827029
 20
10.7778988531
 11
14.1218707267
 21
10.7907152654
  0
SPLINE
  5
4D2
100
AcDbEntity
  8
0
100
AcDbSpline
 62
9
  6
CONTINUOUS
 70
0
 71
3
 72
18
 73
14
 74
0
 42
0.0000001
 43
0.0000001
 44
0.0000000001
 40
0.0
 40
0.0
 40
0.0
 40
0.0
 40
0.1997703843
 40
0.3830351652
 40
0.5473060704
 40
0.6898426427
 40
0.8081775254
 40
0.85762227
 40
0.9002574979
 40
0.9358720012
 40
0.9643928379
 40
0.985781625
 40
1.0
 40
1.0
 40
1.0
 40
1.0
 10
15.9627656268
 20
10.777844798
 30
0.0
 10
15.9191364026
 20
10.7343782207
 30
0.0
 10
15.8354738407
 20
10.6510453177
 30
0.0
 10
15.7159047037
 20
10.5320003599
 30
0.0
 10
15.6088139166
 20
10.4254299254
 30
0.0
 10
15.5158943973
 20
10.3329963849
 30
0.0
 10
15.4480649973
 20
10.2655345319
 30
0.0
 10
15.4020775835
 20
10.2197855227
 30
0.0
 10
15.3741743028
 20
10.1920166876
 30
0.0
 10
15.3508514849
 20
10.1687897401
 30
0.0
 10
15.3321789432
 20
10.1501754844
 30
0.0
 10
15.3181898039
 20
10.1362060935
 30
0.0
 10
15.3104322772
 20
10.128439574
 30
0.0
 10
15.3073422199
 20
10.1253307283
 30
0.0
  0
SPLINE
  5
4D3
100
AcDbEntity
  8
0
100
AcDbSpline
 62
9
  6
CONTINUOUS
 70
0
 71
3
 72
18
 73
14
 74
0
 42
0.0000001
 43
0.0000001
 44
0.0000000001
 40
0.0
 40
0.0
 40
0.0
 40
0.0
 40
0.0142179987
 40
0.0356065339
 40
0.0641222757
 40
0.0997218747
 40
0.1423319274
 40
0.1917587933
 40
0.3101071709
 40
0.4526357527
 40
0.6169167446
 40
0.8002100132
 40
1.0
 40
1.0
 40
1.0
 40
1.0
 10
14.7872960339
 20
10.1253302476
 30
0.0
 10
14.7842060986
 20
10.1284390535
 30
0.0
 10
14.7764488798
 20
10.1362056126
 30
0.0
 10
14.7624612082
 20
10.1501739874
 30
0.0
 10
14.7437931655
 20
10.1687839278
 30
0.0
 10
14.7204799532
 20
10.1920008032
 30
0.0
 10
14.692588585
 20
10.2197563002
 30
0.0
 10
14.6466069666
 20
10.2654982501
 30
0.0
 10
14.5787817934
 20
10.3329589958
 30
0.0
 10
14.4858588248
 20
10.4253959564
 30
0.0
 10
14.3787608486
 20
10.5319726168
 30
0.0
 10
14.2591791265
 20
10.6510304471
 30
0.0
 10
14.1755062111
 20
10.7343740287
 30
0.0
 10
14.1318727236
 20
10.7778449231
 30
0.0
  0
LINE
  5
4D4
100
AcDbEntity
  8
0
100
AcDbLine
 62
9
  6
CONTINUOUS
 10
14.7479080583
 20
10.1247453372
 11
14.1147703873
 21
10.7608110245
  0
SPLINE
  5
4D5
100
AcDbEntity
  8
0
100
AcDbSpline
 62
9
  6
CONTINUOUS
 70
0
 71
3
 72
14
 73
10
 74
0
 42
0.0000001
 43
0.0000001
 44
0.0000000001
 40
0.0
 40
0.0
 40
0.0
 40
0.0
 40
0.1198868148
 40
0.2470744532
 40
0.3792678442
 40
0.5126878569
 40
0.7695720164
 40
0.8893279401
 40
1.0
 40
1.0
 40
1.0
 40
1.0
 10
14.1147703873
 20
10.7608110245
 30
0.0
 10
14.115030569
 20
10.7617823466
 30
0.0
 10
14.1157170612
 20
10.7637460963
 30
0.0
 10
14.1171642889
 20
10.7665891188
 30
0.0
 10
14.1190449372
 20
10.7693064595
 30
0.0
 10
14.1219786288
 20
10.7725749996
 30
0.0
 10
14.1254454415
 20
10.7751749147
 30
0.0
 10
14.1291107741
 20
10.7769977981
 30
0.0
 10
14.130941942
 20
10.7776387453
 30
0.0
 10
14.1318386119
 20
10.7778789077
 30
0.0
  0
LINE
  5
4D6
100
AcDbEntity
  8
0
100
AcDbLine
 62
9
  6
CONTINUOUS
 10
14.7482184277
 20
9.5662229876
 11
14.1148035524
 21
8.9298833922
  0
SPLINE
  5
4D7
100
AcDbEntity
  8
0
100
AcDbSpline
 62
9
  6
CONTINUOUS
 70
0
 71
3
 72
25
 73
21
 74
0
 42
0.0000001
 43
0.0000001
 44
0.0000000001
 40
0.0
 40
0.0
 40
0.0
 40
0.0
 40
0.0142211223
 40
0.0355861838
 40
0.0489499312
 40
0.0641059819
 40
0.0810432196
 40
0.0997443461
 40
0.142364982
 40
0.191805392
 40
0.2478321916
 40
0.3101732342
 40
0.3785579918
 40
0.4527096455
 40
0.5323198481
 40
0.6170071608
 40
0.7064216992
 40
0.8002579982
 40
0.8982173737
 40
1.0
 40
1.0
 40
1.0
 40
1.0
 10
14.7872961026
 20
9.5653297027
 30
0.0
 10
14.7841995424
 20
9.5622258091
 30
0.0
 10
14.7764410076
 20
9.5544686408
 30
0.0
 10
14.7657788295
 20
9.5437884876
 30
0.0
 10
14.7548987181
 20
9.5329186244
 30
0.0
 10
14.7449697061
 20
9.5230282454
 30
0.0
 10
14.7338667641
 20
9.5119847283
 30
0.0
 10
14.716760379
 20
9.4949700436
 30
0.0
 10
14.6925624726
 20
9.4708753712
 30
0.0
 10
14.6601938395
 20
9.4386774198
 30
0.0
 10
14.6235098261
 20
9.4021967424
 30
0.0
 10
14.5826921444
 20
9.3615899225
 30
0.0
 10
14.5379146288
 20
9.3170404567
 30
0.0
 10
14.4893592409
 20
9.2687394929
 30
0.0
 10
14.4372336523
 20
9.2169008212
 30
0.0
 10
14.3817908359
 20
9.1617246302
 30
0.0
 10
14.3232591298
 20
9.1034346332
 30
0.0
 10
14.2618288981
 20
9.0422565068
 30
0.0
 10
14.1976993235
 20
8.9783851956
 30
0.0
 10
14.1540694837
 20
8.9349270066
 30
0.0
 10
14.131837271
 20
8.9127817303
 30
0.0
  0
SPLINE
  5
4D8
100
AcDbEntity
  8
0
100
AcDbSpline
 62
9
  6
CONTINUOUS
 70
0
 71
3
 72
14
 73
10
 74
0
 42
0.0000001
 43
0.0000001
 44
0.0000000001
 40
0.0
 40
0.0
 40
0.0
 40
0.0
 40
0.1198864487
 40
0.2470734381
 40
0.3792660526
 40
0.5126854605
 40
0.7695698134
 40
0.8893265589
 40
1.0
 40
1.0
 40
1.0
 40
1.0
 10
14.131837271
 20
8.9127817303
 30
0.0
 10
14.1308659792
 20
8.9130419061
 30
0.0
 10
14.1289022919
 20
8.913728376
 30
0.0
 10
14.1260593558
 20
8.9151755452
 30
0.0
 10
14.1233420891
 20
8.9170561094
 30
0.0
 10
14.120073613
 20
8.9199896757
 30
0.0
 10
14.117473709
 20
8.9234563474
 30
0.0
 10
14.1156507798
 20
8.9271215534
 30
0.0
 10
14.1150097929
 20
8.9289526698
 30
0.0
 10
14.1147696059
 20
8.9298493187
 30
0.0
  0
SPLINE
  5
4D9
100
AcDbEntity
  8
0
100
AcDbSpline
 62
9
  6
CONTINUOUS
 70
0
 71
3
 72
18
 73
14
 74
0
 42
0.0000001
 43
0.0000001
 44
0.0000000001
 40
0.0
 40
0.0
 40
0.0
 40
0.0
 40
0.014218093
 40
0.0356057814
 40
0.0641205785
 40
0.0997199777
 40
0.1423310755
 40
0.1917593522
 40
0.3101078914
 40
0.4526335512
 40
0.6169166654
 40
0.8002101831
 40
1.0
 40
1.0
 40
1.0
 40
1.0
 10
15.3073406123
 20
9.5653297574
 30
0.0
 10
15.3104305851
 20
9.5622209728
 30
0.0
 10
15.3181876157
 20
9.5544546166
 30
0.0
 10
15.33217485
 20
9.5404866574
 30
0.0
 10
15.3508423682
 20
9.5218772116
 30
0.0
 10
15.3741554839
 20
9.4986604716
 30
0.0
 10
15.4020473108
 20
9.4709046752
 30
0.0
 10
15.4480293999
 20
9.4251624267
 30
0.0
 10
15.5158539129
 20
9.3577021563
 30
0.0
 10
15.6087764831
 20
9.2652658265
 30
0.0
 10
15.7158737349
 20
9.1586895461
 30
0.0
 10
15.8354555828
 20
9.0396318486
 30
0.0
 10
15.9191282498
 20
8.9562886606
 30
0.0
 10
15.9627615224
 20
8.912817978
 30
0.0
  0
LINE
  5
4DA
100
AcDbEntity
  8
0
100
AcDbLine
 62
9
  6
CONTINUOUS
 10
15.9628086397
 20
8.9127647207
 11
15.9727670629
 21
8.8999456494
  0
LINE
  5
4DB
100
AcDbEntity
  8
0
100
AcDbLine
 62
9
  6
CONTINUOUS
 10
14.0936509801
 20
8.8859827002
 11
14.1216833933
 21
8.8999727385
  0
SPLINE
  5
4DC
100
AcDbEntity
  8
0
100
AcDbSpline
 62
7
  6
CONTINUOUS
 70
0
 71
3
 72
10
 73
6
 74
0
 42
0.0000001
 43
0.0000001
 44
0.0000000001
 40
0.0
 40
0.0
 40
0.0
 40
0.0
 40
0.3420490547
 40
0.6807880308
 40
1.0
 40
1.0
 40
1.0
 40
1.0
 10
9.794859716
 20
9.845901174
 30
0.0
 10
9.7950257116
 20
9.7056520455
 30
0.0
 10
9.7953588981
 20
9.4265110095
 30
0.0
 10
9.7959838964
 20
9.0164848278
 30
0.0
 10
9.7965639954
 20
8.7467079983
 30
0.0
 10
9.7969040476
 20
8.6158230265
 30
0.0
  0
SPLINE
  5
4DD
100
AcDbEntity
  8
0
100
AcDbSpline
 62
7
  6
CONTINUOUS
 70
0
 71
3
 72
10
 73
6
 74
0
 42
0.0000001
 43
0.0000001
 44
0.0000000001
 40
0.0
 40
0.0
 40
0.0
 40
0.0
 40
0.3193151735
 40
0.6580756972
 40
1.0
 40
1.0
 40
1.0
 40
1.0
 10
9.792913805
 20
11.0772315601
 30
0.0
 10
9.7932279189
 20
10.94617094
 30
0.0
 10
9.7937690244
 20
10.676068236
 30
0.0
 10
9.7943656126
 20
10.2656246632
 30
0.0
 10
9.794693612
 20
9.9862418534
 30
0.0
 10
9.794859716
 20
9.845901174
 30
0.0
  0
SPLINE
  5
4DE
100
AcDbEntity
  8
0
100
AcDbSpline
 62
7
  6
CONTINUOUS
 70
0
 71
3
 72
9
 73
5
 74
0
 42
0.0000001
 43
0.0000001
 44
0.0000000001
 40
0.0
 40
0.0
 40
0.0
 40
0.0
 40
0.2512076215
 40
1.0
 40
1.0
 40
1.0
 40
1.0
 10
10.0201261423
 20
8.8651929773
 30
0.0
 10
10.0204534999
 20
8.8649545148
 30
0.0
 10
10.0217861879
 20
8.8640462478
 30
0.0
 10
10.0232267263
 20
8.8632982661
 30
0.0
 10
10.02434041
 20
8.8628323359
 30
0.0
  0
SPLINE
  5
4DF
100
AcDbEntity
  8
0
100
AcDbSpline
 62
7
  6
CONTINUOUS
 70
0
 71
3
 72
9
 73
5
 74
0
 42
0.0000001
 43
0.0000001
 44
0.0000000001
 40
0.0
 40
0.0
 40
0.0
 40
0.0
 40
0.5148949881
 40
1.0
 40
1.0
 40
1.0
 40
1.0
 10
10.02434041
 20
8.8628323359
 30
0.0
 10
10.0255982654
 20
8.8623060887
 30
0.0
 10
10.0281414844
 20
8.8615097275
 30
0.0
 10
10.0307932817
 20
8.8612054625
 30
0.0
 10
10.0320778959
 20
8.861205459
 30
0.0
  0
SPLINE
  5
4E0
100
AcDbEntity
  8
0
100
AcDbSpline
 62
7
  6
CONTINUOUS
 70
0
 71
3
 72
9
 73
5
 74
0
 42
0.0000001
 43
0.0000001
 44
0.0000000001
 40
0.0
 40
0.0
 40
0.0
 40
0.0
 40
0.251181815
 40
1.0
 40
1.0
 40
1.0
 40
1.0
 10
12.0743724771
 20
8.8653891576
 30
0.0
 10
12.0740301951
 20
8.8651308507
 30
0.0
 10
12.0726332823
 20
8.8641483225
 30
0.0
 10
12.071112252
 20
8.863344862
 30
0.0
 10
12.0699341144
 20
8.862848669
 30
0.0
  0
SPLINE
  5
4E1
100
AcDbEntity
  8
0
100
AcDbSpline
 62
7
  6
CONTINUOUS
 70
0
 71
3
 72
9
 73
5
 74
0
 42
0.0000001
 43
0.0000001
 44
0.0000000001
 40
0.0
 40
0.0
 40
0.0
 40
0.0
 40
0.5150125253
 40
1.0
 40
1.0
 40
1.0
 40
1.0
 10
12.0699341144
 20
8.862848669
 30
0.0
 10
12.0686697272
 20
8.8623161505
 30
0.0
 10
12.066112753
 20
8.8615100075
 30
0.0
 10
12.0634451262
 20
8.8612013834
 30
0.0
 10
12.062153159
 20
8.8612013861
 30
0.0
  0
SPLINE
  5
4E2
100
AcDbEntity
  8
0
100
AcDbSpline
 62
7
  6
CONTINUOUS
 70
0
 71
3
 72
9
 73
5
 74
0
 42
0.0000001
 43
0.0000001
 44
0.0000000001
 40
0.0
 40
0.0
 40
0.0
 40
0.0
 40
0.5089458046
 40
1.0
 40
1.0
 40
1.0
 40
1.0
 10
10.4591768134
 20
5.032552941
 30
0.0
 10
10.4619419062
 20
5.0330449856
 30
0.0
 10
10.4673466907
 20
5.034170827
 30
0.0
 10
10.472703968
 20
5.0354990288
 30
0.0
 10
10.4753211855
 20
5.0362012993
 30
0.0
  0
SPLINE
  5
4E3
100
AcDbEntity
  8
0
100
AcDbSpline
 62
7
  6
CONTINUOUS
 70
0
 71
3
 72
22
 73
18
 74
0
 42
0.0000001
 43
0.0000001
 44
0.0000000001
 40
0.0
 40
0.0
 40
0.0
 40
0.0
 40
0.0569628246
 40
0.112704788
 40
0.1404801794
 40
0.1683309888
 40
0.2242933899
 40
0.2806574539
 40
0.3375818673
 40
0.3953236737
 40
0.4542331478
 40
0.5146789846
 40
0.5769760359
 40
0.7080697876
 40
0.8489367263
 40
0.9232095803
 40
1.0
 40
1.0
 40
1.0
 40
1.0
 10
10.4877728772
 20
5.0399728622
 30
0.0
 10
10.4933113168
 20
5.041846734
 30
0.0
 10
10.5041159892
 20
5.0460260598
 30
0.0
 10
10.5170999483
 20
5.0523333974
 30
0.0
 10
10.5270803689
 20
5.0579114191
 30
0.0
 10
10.536873554
 20
5.0638554454
 30
0.0
 10
10.548754618
 20
5.0719969074
 30
0.0
 10
10.5623070992
 20
5.0828930149
 30
0.0
 10
10.5750957474
 20
5.0949468642
 30
0.0
 10
10.5870460708
 20
5.108186662
 30
0.0
 10
10.5981502895
 20
5.122600011
 30
0.0
 10
10.6084566945
 20
5.1381553007
 30
0.0
 10
10.6214162596
 20
5.1607768079
 30
0.0
 10
10.635766473
 20
5.1920147188
 30
0.0
 10
10.6478621616
 20
5.2254567221
 30
0.0
 10
10.6569397777
 20
5.2540150359
 30
0.0
 10
10.6612750688
 20
5.2689044287
 30
0.0
 10
10.6633861748
 20
5.276498476
 30
0.0
  0
SPLINE
  5
4E4
100
AcDbEntity
  8
0
100
AcDbSpline
 62
7
  6
CONTINUOUS
 70
0
 71
3
 72
20
 73
16
 74
0
 42
0.0000001
 43
0.0000001
 44
0.0000000001
 40
0.0
 40
0.0
 40
0.0
 40
0.0
 40
0.1440784262
 40
0.2796518624
 40
0.4077778538
 40
0.5301868674
 40
0.5899779351
 40
0.6490952866
 40
0.7076371476
 40
0.7657391562
 40
0.823626735
 40
0.881625905
 40
0.9403179587
 40
0.9700300341
 40
1.0
 40
1.0
 40
1.0
 40
1.0
 10
11.4491575019
 20
5.2193030141
 30
0.0
 10
11.453162886
 20
5.2079503261
 30
0.0
 10
11.4615032164
 20
5.1861046702
 30
0.0
 10
11.47601455
 20
5.1552301922
 30
0.0
 10
11.4925775951
 20
5.1274746338
 30
0.0
 10
11.5084459223
 20
5.106867828
 30
0.0
 10
11.5223453444
 20
5.0922409375
 30
0.0
 10
11.533268018
 20
5.0821980738
 30
0.0
 10
11.5447004336
 20
5.072964663
 30
0.0
 10
11.5566097954
 20
5.0645310349
 30
0.0
 10
11.5690045762
 20
5.0569143755
 30
0.0
 10
11.5819194686
 20
5.0501085068
 30
0.0
 10
11.5931224274
 20
5.0451720818
 30
0.0
 10
11.6023414183
 20
5.0415869001
 30
0.0
 10
11.6070420243
 20
5.0399183744
 30
0.0
 10
11.6094171994
 20
5.0391250648
 30
0.0
  0
SPLINE
  5
4E5
100
AcDbEntity
  8
0
100
AcDbSpline
 62
7
  6
CONTINUOUS
 70
0
 71
3
 72
9
 73
5
 74
0
 42
0.0000001
 43
0.0000001
 44
0.0000000001
 40
0.0
 40
0.0
 40
0.0
 40
0.0
 40
0.4844016122
 40
1.0
 40
1.0
 40
1.0
 40
1.0
 10
11.6190538639
 20
5.0361881671
 30
0.0
 10
11.6215609378
 20
5.0355008991
 30
0.0
 10
11.6267707705
 20
5.0342038266
 30
0.0
 10
11.6320380136
 20
5.0331641524
 30
0.0
 10
11.634763753
 20
5.0326881623
 30
0.0
  0
SPLINE
  5
4E6
100
AcDbEntity
  8
0
100
AcDbSpline
 62
9
  6
CONTINUOUS
 70
0
 71
3
 72
14
 73
10
 74
0
 42
0.0000001
 43
0.0000001
 44
0.0000000001
 40
0.0
 40
0.0
 40
0.0
 40
0.0
 40
0.2844338581
 40
0.4297232709
 40
0.5707126353
 40
0.7018129808
 40
0.8179758409
 40
0.9171302426
 40
1.0
 40
1.0
 40
1.0
 40
1.0
 10
11.6040862559
 20
10.776549865
 30
0.0
 10
11.6060493306
 20
10.7766146255
 30
0.0
 10
11.6090265266
 20
10.7765330012
 30
0.0
 10
11.6129363186
 20
10.7760129392
 30
0.0
 10
11.6157546328
 20
10.7753908996
 30
0.0
 10
11.6183115785
 20
10.7745688458
 30
0.0
 10
11.6204869821
 20
10.7735514597
 30
0.0
 10
11.6221871594
 20
10.7723718799
 30
0.0
 10
11.623054469
 20
10.7714385906
 30
0.0
 10
11.6233703627
 20
10.7709614278
 30
0.0
  0
SPLINE
  5
4E7
100
AcDbEntity
  8
0
100
AcDbSpline
 62
9
  6
CONTINUOUS
 70
0
 71
3
 72
9
 73
5
 74
0
 42
0.0000001
 43
0.0000001
 44
0.0000000001
 40
0.0
 40
0.0
 40
0.0
 40
0.0
 40
0.5247727429
 40
1.0
 40
1.0
 40
1.0
 40
1.0
 10
11.6233703627
 20
10.7709614278
 30
0.0
 10
11.6235775803
 20
10.7706484221
 30
0.0
 10
11.6239071238
 20
10.7700028621
 30
0.0
 10
11.6240416282
 20
10.7692889624
 30
0.0
 10
11.6240555651
 20
10.768949307
 30
0.0
  0
SPLINE
  5
4E8
100
AcDbEntity
  8
0
100
AcDbSpline
 62
9
  6
CONTINUOUS
 70
0
 71
3
 72
17
 73
13
 74
0
 42
0.0000001
 43
0.0000001
 44
0.0000000001
 40
0.0
 40
0.0
 40
0.0
 40
0.0
 40
0.1695463876
 40
0.3268064412
 40
0.4714745983
 40
0.538992855
 40
0.6032576335
 40
0.7219750575
 40
0.7764184139
 40
0.8275871152
 40
0.9201677912
 40
1.0
 40
1.0
 40
1.0
 40
1.0
 10
12.0989821281
 20
10.7941041665
 30
0.0
 10
12.0742203323
 20
10.7623658739
 30
0.0
 10
12.0256253159
 20
10.701859498
 30
0.0
 10
11.9532680911
 20
10.6164331015
 30
0.0
 10
11.8949297447
 20
10.55091546
 30
0.0
 10
11.850384608
 20
10.5027059548
 30
0.0
 10
11.8095057326
 20
10.4595041804
 30
0.0
 10
11.7700219553
 20
10.4192596854
 30
0.0
 10
11.7319387079
 20
10.3820216893
 30
0.0
 10
11.6978444982
 20
10.349586969
 30
0.0
 10
11.6586205085
 20
10.3138060306
 30
0.0
 10
11.6274251371
 20
10.287279325
 30
0.0
 10
11.6126883756
 20
10.2753589098
 30
0.0
  0
SPLINE
  5
4E9
100
AcDbEntity
  8
0
100
AcDbSpline
 62
9
  6
CONTINUOUS
 70
0
 71
3
 72
9
 73
5
 74
0
 42
0.0000001
 43
0.0000001
 44
0.0000000001
 40
0.0
 40
0.0
 40
0.0
 40
0.0
 40
0.4990279233
 40
1.0
 40
1.0
 40
1.0
 40
1.0
 10
11.6456972864
 20
5.0261197666
 30
0.0
 10
11.6453693994
 20
5.0267133651
 30
0.0
 10
11.6445819101
 20
5.0278357236
 30
0.0
 10
11.643581851
 20
5.028768511
 30
0.0
 10
11.6430485802
 20
5.0291916912
 30
0.0
  0
SPLINE
  5
4EA
100
AcDbEntity
  8
0
100
AcDbSpline
 62
9
  6
CONTINUOUS
 70
0
 71
3
 72
9
 73
5
 74
0
 42
0.0000001
 43
0.0000001
 44
0.0000000001
 40
0.0
 40
0.0
 40
0.0
 40
0.0
 40
0.2395678466
 40
1.0
 40
1.0
 40
1.0
 40
1.0
 10
11.6430485802
 20
5.0291916912
 30
0.0
 10
11.6428122414
 20
5.0293792392
 30
0.0
 10
11.6417982963
 20
5.0301274038
 30
0.0
 10
11.6406842539
 20
5.0307356428
 30
0.0
 10
11.6398096972
 20
5.0311259254
 30
0.0
  0
SPLINE
  5
4EB
100
AcDbEntity
  8
0
100
AcDbSpline
 62
9
  6
CONTINUOUS
 70
0
 71
3
 72
9
 73
5
 74
0
 42
0.0000001
 43
0.0000001
 44
0.0000000001
 40
0.0
 40
0.0
 40
0.0
 40
0.0
 40
0.2351974806
 40
1.0
 40
1.0
 40
1.0
 40
1.0
 10
11.6398096972
 20
5.0311259254
 30
0.0
 10
11.6394311163
 20
5.0312948722
 30
0.0
 10
11.637796407
 20
5.0319571165
 30
0.0
 10
11.6360840569
 20
5.0324143339
 30
0.0
 10
11.6347638264
 20
5.0326868821
 30
0.0
  0
SPLINE
  5
4EC
100
AcDbEntity
  8
0
100
AcDbSpline
 62
9
  6
CONTINUOUS
 70
0
 71
3
 72
12
 73
8
 74
0
 42
0.0000001
 43
0.0000001
 44
0.0000000001
 40
0.0
 40
0.0
 40
0.0
 40
0.0
 40
0.2764096665
 40
0.5354609975
 40
0.7737953555
 40
0.8878510185
 40
1.0
 40
1.0
 40
1.0
 40
1.0
 10
11.6347638264
 20
5.0326868821
 30
0.0
 10
11.6346635242
 20
5.0346823656
 30
0.0
 10
11.6339773966
 20
5.0385447406
 30
0.0
 10
11.631513307
 20
5.0436533842
 30
0.0
 10
11.6283169979
 20
5.0468620953
 30
0.0
 10
11.6253386021
 20
5.048454426
 30
0.0
 10
11.623759056
 20
5.0489258256
 30
0.0
 10
11.6229628864
 20
5.0490784099
 30
0.0
  0
SPLINE
  5
4ED
100
AcDbEntity
  8
0
100
AcDbSpline
 62
9
  6
CONTINUOUS
 70
0
 71
3
 72
9
 73
5
 74
0
 42
0.0000001
 43
0.0000001
 44
0.0000000001
 40
0.0
 40
0.0
 40
0.0
 40
0.0
 40
0.242855843
 40
1.0
 40
1.0
 40
1.0
 40
1.0
 10
12.1029471148
 20
10.7991056157
 30
0.0
 10
12.102607487
 20
10.7986760801
 30
0.0
 10
12.1011761433
 20
10.7969335016
 30
0.0
 10
12.0996194664
 20
10.7952949672
 30
0.0
 10
12.0983874063
 20
10.7941132279
 30
0.0
  0
SPLINE
  5
4EE
100
AcDbEntity
  8
0
100
AcDbSpline
 62
9
  6
CONTINUOUS
 70
0
 71
3
 72
13
 73
9
 74
0
 42
0.0000001
 43
0.0000001
 44
0.0000000001
 40
0.0
 40
0.0
 40
0.0
 40
0.0
 40
0.1129544312
 40
0.2350198203
 40
0.4942650807
 40
0.7567740527
 40
0.8825151501
 40
1.0
 40
1.0
 40
1.0
 40
1.0
 10
12.0989821369
 20
10.7941041287
 30
0.0
 10
12.0987241926
 20
10.7950158003
 30
0.0
 10
12.098024348
 20
10.7968685563
 30
0.0
 10
12.0960458356
 20
10.8005207275
 30
0.0
 10
12.0925911482
 20
10.8047581638
 30
0.0
 10
12.0881268203
 20
10.8079577969
 30
0.0
 10
12.0843003968
 20
10.8098032457
 30
0.0
 10
12.0823624511
 20
10.8104641244
 30
0.0
 10
12.0814089535
 20
10.8107130734
 30
0.0
  0
SPLINE
  5
4EF
100
AcDbEntity
  8
0
100
AcDbSpline
 62
9
  6
CONTINUOUS
 70
0
 71
3
 72
14
 73
10
 74
0
 42
0.0000001
 43
0.0000001
 44
0.0000000001
 40
0.0
 40
0.0
 40
0.0
 40
0.0
 40
0.1050956337
 40
0.2205253939
 40
0.4727424769
 40
0.6065392661
 40
0.7416799975
 40
0.8742006568
 40
1.0
 40
1.0
 40
1.0
 40
1.0
 10
12.1033505351
 20
10.7990997979
 30
0.0
 10
12.1031418865
 20
10.7999906052
 30
0.0
 10
12.1025284932
 20
10.8018210665
 30
0.0
 10
12.1006525319
 20
10.8054942963
 30
0.0
 10
12.0978376411
 20
10.8089291314
 30
0.0
 10
12.0942481969
 20
10.8117230075
 30
0.0
 10
12.0912243764
 20
10.8134954956
 30
0.0
 10
12.0880696646
 20
10.8148504545
 30
0.0
 10
12.0858963748
 20
10.8154633182
 30
0.0
 10
12.0848218493
 20
10.815674876
 30
0.0
  0
SPLINE
  5
4F0
100
AcDbEntity
  8
0
100
AcDbSpline
 62
9
  6
CONTINUOUS
 70
0
 71
3
 72
10
 73
6
 74
0
 42
0.0000001
 43
0.0000001
 44
0.0000000001
 40
0.0
 40
0.0
 40
0.0
 40
0.0
 40
0.2778765943
 40
0.5353218586
 40
1.0
 40
1.0
 40
1.0
 40
1.0
 10
10.4591763357
 20
5.0325526947
 30
0.0
 10
10.4583818655
 20
5.0323636925
 30
0.0
 10
10.4568604694
 20
5.031953489
 30
0.0
 10
10.4541020932
 20
5.0309370842
 30
0.0
 10
10.4522452363
 20
5.0298300047
 30
0.0
 10
10.4512108644
 20
5.02893837
 30
0.0
  0
SPLINE
  5
4F1
100
AcDbEntity
  8
0
100
AcDbSpline
 62
9
  6
CONTINUOUS
 70
0
 71
3
 72
9
 73
5
 74
0
 42
0.0000001
 43
0.0000001
 44
0.0000000001
 40
0.0
 40
0.0
 40
0.0
 40
0.0
 40
0.5024120042
 40
1.0
 40
1.0
 40
1.0
 40
1.0
 10
10.4512108644
 20
5.02893837
 30
0.0
 10
10.4507443799
 20
5.0285362576
 30
0.0
 10
10.4498769998
 20
5.0276608578
 30
0.0
 10
10.4491777978
 20
5.0266447616
 30
0.0
 10
10.4488784818
 20
5.0261132889
 30
0.0
  0
LINE
  5
4F2
100
AcDbEntity
  8
0
100
AcDbLine
 62
9
  6
CONTINUOUS
 10
12.1272127048
 20
10.8448996436
 11
12.1095671339
 21
10.8130156378
  0
LINE
  5
4F3
100
AcDbEntity
  8
0
100
AcDbLine
 62
9
  6
CONTINUOUS
 10
12.1095671339
 20
10.8130156378
 11
12.1090588305
 21
10.8120709482
  0
SPLINE
  5
4F4
100
AcDbEntity
  8
0
100
AcDbSpline
 62
9
  6
CONTINUOUS
 70
0
 71
3
 72
13
 73
9
 74
0
 42
0.0000001
 43
0.0000001
 44
0.0000000001
 40
0.0
 40
0.0
 40
0.0
 40
0.0
 40
0.1137904464
 40
0.236304525
 40
0.430115536
 40
0.6280273022
 40
0.8213288955
 40
1.0
 40
1.0
 40
1.0
 40
1.0
 10
12.1596982463
 20
10.8750833872
 30
0.0
 10
12.1593946663
 20
10.8759256726
 30
0.0
 10
12.1586372367
 20
10.8776304518
 30
0.0
 10
12.1569110326
 20
10.8805475898
 30
0.0
 10
12.1543931464
 20
10.8837401717
 30
0.0
 10
12.1509549945
 20
10.8868338764
 30
0.0
 10
12.1471737371
 20
10.8892732662
 30
0.0
 10
12.1444881859
 20
10.8904773025
 30
0.0
 10
12.1431553635
 20
10.8909244121
 30
0.0
  0
SPLINE
  5
4F5
100
AcDbEntity
  8
0
100
AcDbSpline
 62
9
  6
CONTINUOUS
 70
0
 71
3
 72
9
 73
5
 74
0
 42
0.0000001
 43
0.0000001
 44
0.0000000001
 40
0.0
 40
0.0
 40
0.0
 40
0.0
 40
0.5557280074
 40
1.0
 40
1.0
 40
1.0
 40
1.0
 10
10.4425276871
 20
3.8938813737
 30
0.0
 10
10.4421570974
 20
3.8931285168
 30
0.0
 10
10.4415671211
 20
3.891733968
 30
0.0
 10
10.4412558666
 20
3.8902346578
 30
0.0
 10
10.4412393021
 20
3.8895640313
 30
0.0
  0
SPLINE
  5
4F6
100
AcDbEntity
  8
0
100
AcDbSpline
 62
9
  6
CONTINUOUS
 70
0
 71
3
 72
11
 73
7
 74
0
 42
0.0000001
 43
0.0000001
 44
0.0000000001
 40
0.0
 40
0.0
 40
0.0
 40
0.0
 40
0.2385631236
 40
0.493571459
 40
0.7504667995
 40
1.0
 40
1.0
 40
1.0
 40
1.0
 10
10.4621051318
 20
3.8755266193
 30
0.0
 10
10.460553939
 20
3.87568582
 30
0.0
 10
10.4573797099
 20
3.8764029579
 30
0.0
 10
10.4528599919
 20
3.8783742175
 30
0.0
 10
10.448744955
 20
3.8812501681
 30
0.0
 10
10.4465691363
 20
3.8837993893
 30
0.0
 10
10.4456656692
 20
3.8851573499
 30
0.0
  0
SPLINE
  5
4F7
100
AcDbEntity
  8
0
100
AcDbSpline
 62
9
  6
CONTINUOUS
 70
0
 71
3
 72
9
 73
5
 74
0
 42
0.0000001
 43
0.0000001
 44
0.0000000001
 40
0.0
 40
0.0
 40
0.0
 40
0.0
 40
0.2587319126
 40
1.0
 40
1.0
 40
1.0
 40
1.0
 10
10.4456656692
 20
3.8851573499
 30
0.0
 10
10.4453891554
 20
3.8855729654
 30
0.0
 10
10.4443794822
 20
3.8872175282
 30
0.0
 10
10.4436005795
 20
3.8890061311
 30
0.0
 10
10.4431876196
 20
3.8903754115
 30
0.0
  0
SPLINE
  5
4F8
100
AcDbEntity
  8
0
100
AcDbSpline
 62
9
  6
CONTINUOUS
 70
0
 71
3
 72
9
 73
5
 74
0
 42
0.0000001
 43
0.0000001
 44
0.0000000001
 40
0.0
 40
0.0
 40
0.0
 40
0.0
 40
0.2603848439
 40
1.0
 40
1.0
 40
1.0
 40
1.0
 10
10.4431876196
 20
3.8903754115
 30
0.0
 10
10.4430977527
 20
3.8906733896
 30
0.0
 10
10.4427827116
 20
3.8918263508
 30
0.0
 10
10.4425897239
 20
3.8930147616
 30
0.0
 10
10.442536602
 20
3.8938972167
 30
0.0
  0
SPLINE
  5
4F9
100
AcDbEntity
  8
0
100
AcDbSpline
 62
9
  6
CONTINUOUS
 70
0
 71
3
 72
12
 73
8
 74
0
 42
0.0000001
 43
0.0000001
 44
0.0000000001
 40
0.0
 40
0.0
 40
0.0
 40
0.0
 40
0.0978024031
 40
0.1922688283
 40
0.3974173354
 40
0.6599928785
 40
1.0
 40
1.0
 40
1.0
 40
1.0
 10
10.4628330246
 20
3.8674187302
 30
0.0
 10
10.4626875442
 20
3.8674463408
 30
0.0
 10
10.4624061575
 20
3.8675351499
 30
0.0
 10
10.4618990525
 20
3.8678746992
 30
0.0
 10
10.4614419356
 20
3.868634686
 30
0.0
 10
10.4612303477
 20
3.8698513348
 30
0.0
 10
10.4612513388
 20
3.8707675072
 30
0.0
 10
10.4612922817
 20
3.8712806629
 30
0.0
  0
LINE
  5
4FA
100
AcDbEntity
  8
0
100
AcDbLine
 62
9
  6
CONTINUOUS
 10
10.4612922817
 20
3.8712806629
 11
10.4621048172
 21
3.8755267204
  0
SPLINE
  5
4FB
100
AcDbEntity
  8
0
100
AcDbSpline
 62
9
  6
CONTINUOUS
 70
0
 71
3
 72
11
 73
7
 74
0
 42
0.0000001
 43
0.0000001
 44
0.0000000001
 40
0.0
 40
0.0
 40
0.0
 40
0.0
 40
0.3318231107
 40
0.60749488
 40
0.8286590264
 40
1.0
 40
1.0
 40
1.0
 40
1.0
 10
11.6325275147
 20
3.8755321646
 30
0.0
 10
11.6327301879
 20
3.8747834275
 30
0.0
 10
11.6330635499
 20
3.8734018651
 30
0.0
 10
11.6333596948
 20
3.871483576
 30
0.0
 10
11.633409191
 20
3.869919106
 30
0.0
 10
11.6332565094
 20
3.8690001275
 30
0.0
 10
11.6331168454
 20
3.8686247331
 30
0.0
  0
SPLINE
  5
4FC
100
AcDbEntity
  8
0
100
AcDbSpline
 62
9
  6
CONTINUOUS
 70
0
 71
3
 72
10
 73
6
 74
0
 42
0.0000001
 43
0.0000001
 44
0.0000000001
 40
0.0
 40
0.0
 40
0.0
 40
0.0
 40
0.5185346793
 40
0.7552536718
 40
1.0
 40
1.0
 40
1.0
 40
1.0
 10
11.6331168454
 20
3.8686247331
 30
0.0
 10
11.6330045991
 20
3.8683230331
 30
0.0
 10
11.6327585021
 20
3.867895037
 30
0.0
 10
11.6322399811
 20
3.8675386066
 30
0.0
 10
11.6319509038
 20
3.8674465055
 30
0.0
 10
11.6318016029
 20
3.8674183237
 30
0.0
  0
LINE
  5
4FD
100
AcDbEntity
  8
0
100
AcDbLine
 62
9
  6
CONTINUOUS
 10
10.0057921995
 20
10.8323389364
 11
9.9989100918
 21
10.8361625497
  0
LINE
  5
4FE
100
AcDbEntity
  8
0
100
AcDbLine
 62
9
  6
CONTINUOUS
 10
9.9902312247
 20
10.8409332023
 11
9.9733517711
 21
10.8503939356
  0
SPLINE
  5
4FF
100
AcDbEntity
  8
0
100
AcDbSpline
 62
9
  6
CONTINUOUS
 70
0
 71
3
 72
9
 73
5
 74
0
 42
0.0000001
 43
0.0000001
 44
0.0000000001
 40
0.0
 40
0.0
 40
0.0
 40
0.0
 40
0.26075063
 40
1.0
 40
1.0
 40
1.0
 40
1.0
 10
9.9733517148
 20
10.8503938459
 30
0.0
 10
9.9730035839
 20
10.8505955349
 30
0.0
 10
9.9717021003
 20
10.8514221192
 30
0.0
 10
9.9705361608
 20
10.8524884283
 30
0.0
 10
9.9698603615
 20
10.8534073322
 30
0.0
  0
SPLINE
  5
500
100
AcDbEntity
  8
0
100
AcDbSpline
 62
9
  6
CONTINUOUS
 70
0
 71
3
 72
9
 73
5
 74
0
 42
0.0000001
 43
0.0000001
 44
0.0000000001
 40
0.0
 40
0.0
 40
0.0
 40
0.0
 40
0.2404302223
 40
1.0
 40
1.0
 40
1.0
 40
1.0
 10
12.1247672656
 20
10.8534064521
 30
0.0
 10
12.124554277
 20
10.8531156659
 30
0.0
 10
12.1235901537
 20
10.8519634917
 30
0.0
 10
12.1223685079
 20
10.8510444169
 30
0.0
 10
12.1213852488
 20
10.850470056
 30
0.0
  0
SPLINE
  5
501
100
AcDbEntity
  8
0
100
AcDbSpline
 62
9
  6
CONTINUOUS
 70
0
 71
3
 72
15
 73
11
 74
0
 42
0.0000001
 43
0.0000001
 44
0.0000000001
 40
0.0
 40
0.0
 40
0.0
 40
0.0
 40
0.0862087717
 40
0.1814279339
 40
0.2894866511
 40
0.4102437039
 40
0.543746263
 40
0.6898288908
 40
0.8446852457
 40
1.0
 40
1.0
 40
1.0
 40
1.0
 10
11.5307252204
 20
8.6573259766
 30
0.0
 10
11.5307747742
 20
8.6580667818
 30
0.0
 10
11.530571892
 20
8.6596558224
 30
0.0
 10
11.5294528495
 20
8.6619207577
 30
0.0
 10
11.5276082653
 20
8.6640485924
 30
0.0
 10
11.5250823136
 20
8.6659193452
 30
0.0
 10
11.5219659856
 20
8.6674217315
 30
0.0
 10
11.5184644123
 20
8.6687417484
 30
0.0
 10
11.5147445955
 20
8.6700100555
 30
0.0
 10
11.5121879551
 20
8.6707866644
 30
0.0
 10
11.5109007812
 20
8.671150569
 30
0.0
  0
LINE
  5
502
100
AcDbEntity
  8
0
100
AcDbLine
 62
9
  6
CONTINUOUS
 10
12.1213854128
 20
10.8504697964
 11
12.0906005522
 21
10.8332140207
  0
SPLINE
  5
503
100
AcDbEntity
  8
0
100
AcDbSpline
 62
9
  6
CONTINUOUS
 70
0
 71
3
 72
9
 73
5
 74
0
 42
0.0000001
 43
0.0000001
 44
0.0000000001
 40
0.0
 40
0.0
 40
0.0
 40
0.0
 40
0.557887285
 40
1.0
 40
1.0
 40
1.0
 40
1.0
 10
11.6520942762
 20
3.8939052627
 30
0.0
 10
11.6524793139
 20
3.8931273169
 30
0.0
 10
11.6530875058
 20
3.8916902805
 30
0.0
 10
11.6533949426
 20
3.8901398973
 30
0.0
 10
11.6533972706
 20
3.8894520179
 30
0.0
  0
SPLINE
  5
504
100
AcDbEntity
  8
0
100
AcDbSpline
 62
9
  6
CONTINUOUS
 70
0
 71
3
 72
9
 73
5
 74
0
 42
0.0000001
 43
0.0000001
 44
0.0000000001
 40
0.0
 40
0.0
 40
0.0
 40
0.0
 40
0.4749744895
 40
1.0
 40
1.0
 40
1.0
 40
1.0
 10
11.6520942776
 20
3.8939052625
 30
0.0
 10
11.6520093681
 20
3.8924943019
 30
0.0
 10
11.6513575403
 20
3.8895487255
 30
0.0
 10
11.65004029
 20
3.8868491563
 30
0.0
 10
11.6492026239
 20
3.8855302139
 30
0.0
  0
SPLINE
  5
505
100
AcDbEntity
  8
0
100
AcDbSpline
 62
9
  6
CONTINUOUS
 70
0
 71
3
 72
9
 73
5
 74
0
 42
0.0000001
 43
0.0000001
 44
0.0000000001
 40
0.0
 40
0.0
 40
0.0
 40
0.0
 40
0.4922792201
 40
1.0
 40
1.0
 40
1.0
 40
1.0
 10
11.6492026239
 20
3.8855302139
 30
0.0
 10
11.6483457748
 20
3.8841810668
 30
0.0
 10
11.6462782925
 20
3.881629635
 30
0.0
 10
11.6436415394
 20
3.8796785404
 30
0.0
 10
11.642224749
 20
3.8788360109
 30
0.0
  0
SPLINE
  5
506
100
AcDbEntity
  8
0
100
AcDbSpline
 62
9
  6
CONTINUOUS
 70
0
 71
3
 72
9
 73
5
 74
0
 42
0.0000001
 43
0.0000001
 44
0.0000000001
 40
0.0
 40
0.0
 40
0.0
 40
0.0
 40
0.516638249
 40
1.0
 40
1.0
 40
1.0
 40
1.0
 10
11.642224749
 20
3.8788360109
 30
0.0
 10
11.6406998472
 20
3.8779291903
 30
0.0
 10
11.6375528078
 20
3.8764901854
 30
0.0
 10
11.634178286
 20
3.8757018395
 30
0.0
 10
11.6325271068
 20
3.8755320258
 30
0.0
  0
SPLINE
  5
507
100
AcDbEntity
  8
0
100
AcDbSpline
 62
9
  6
CONTINUOUS
 70
0
 71
3
 72
9
 73
5
 74
0
 42
0.0000001
 43
0.0000001
 44
0.0000000001
 40
0.0
 40
0.0
 40
0.0
 40
0.0
 40
0.4714707489
 40
1.0
 40
1.0
 40
1.0
 40
1.0
 10
11.651806014
 20
3.8946523972
 30
0.0
 10
11.6517115269
 20
3.8932816111
 30
0.0
 10
11.6510510234
 20
3.8904024828
 30
0.0
 10
11.6497348703
 20
3.887770242
 30
0.0
 10
11.6488935288
 20
3.8864799881
 30
0.0
  0
SPLINE
  5
508
100
AcDbEntity
  8
0
100
AcDbSpline
 62
9
  6
CONTINUOUS
 70
0
 71
3
 72
9
 73
5
 74
0
 42
0.0000001
 43
0.0000001
 44
0.0000000001
 40
0.0
 40
0.0
 40
0.0
 40
0.0
 40
0.4875222554
 40
1.0
 40
1.0
 40
1.0
 40
1.0
 10
11.6488935288
 20
3.8864799881
 30
0.0
 10
11.6480372927
 20
3.8851668923
 30
0.0
 10
11.6459528886
 20
3.8826703633
 30
0.0
 10
11.6433225212
 20
3.8807670588
 30
0.0
 10
11.6419012954
 20
3.8799330962
 30
0.0
  0
SPLINE
  5
509
100
AcDbEntity
  8
0
100
AcDbSpline
 62
9
  6
CONTINUOUS
 70
0
 71
3
 72
9
 73
5
 74
0
 42
0.0000001
 43
0.0000001
 44
0.0000000001
 40
0.0
 40
0.0
 40
0.0
 40
0.0
 40
0.5135784799
 40
1.0
 40
1.0
 40
1.0
 40
1.0
 10
11.6419012954
 20
3.8799330962
 30
0.0
 10
11.6403858493
 20
3.879043846
 30
0.0
 10
11.6372510125
 20
3.8776143856
 30
0.0
 10
11.6338924826
 20
3.8768170113
 30
0.0
 10
11.6322379174
 20
3.8766384474
 30
0.0
  0
SPLINE
  5
50A
100
AcDbEntity
  8
0
100
AcDbSpline
 62
9
  6
CONTINUOUS
 70
0
 71
3
 72
20
 73
16
 74
0
 42
0.0000001
 43
0.0000001
 44
0.0000000001
 40
0.0
 40
0.0
 40
0.0
 40
0.0
 40
0.0483588188
 40
0.0989596193
 40
0.1517063745
 40
0.2065134208
 40
0.2632985874
 40
0.3219851716
 40
0.3825023574
 40
0.4447918639
 40
0.5744316387
 40
0.6416739429
 40
0.7104612696
 40
0.8524526736
 40
1.0
 40
1.0
 40
1.0
 40
1.0
 10
11.6322379174
 20
3.8766384474
 30
0.0
 10
11.625508458
 20
3.8947336211
 30
0.0
 10
11.6120196894
 20
3.931868684
 30
0.0
 10
11.59229814
 20
3.98913549
 30
0.0
 10
11.5727318441
 20
4.0491693261
 30
0.0
 10
11.553445515
 20
4.1118819995
 30
0.0
 10
11.5346452372
 20
4.1772140145
 30
0.0
 10
11.5164834355
 20
4.2450892476
 30
0.0
 10
11.4991038686
 20
4.3154355031
 30
0.0
 10
11.4768567894
 20
4.413736814
 30
0.0
 10
11.4571295337
 20
4.5153438285
 30
0.0
 10
11.440311937
 20
4.6200704465
 30
0.0
 10
11.4251015608
 20
4.7300240295
 30
0.0
 10
11.4099587862
 20
4.8723122391
 30
0.0
 10
11.4019161435
 20
4.9876464292
 30
0.0
 10
11.3986877567
 20
5.0464622683
 30
0.0
  0
SPLINE
  5
50B
100
AcDbEntity
  8
0
100
AcDbSpline
 62
9
  6
CONTINUOUS
 70
0
 71
3
 72
10
 73
6
 74
0
 42
0.0000001
 43
0.0000001
 44
0.0000000001
 40
0.0
 40
0.0
 40
0.0
 40
0.0
 40
0.2428398584
 40
0.4907478218
 40
1.0
 40
1.0
 40
1.0
 40
1.0
 10
11.3986877567
 20
5.0464622683
 30
0.0
 10
11.3964407541
 20
5.0873989182
 30
0.0
 10
11.3927537876
 20
5.1701752696
 30
0.0
 10
11.388239694
 20
5.3389493906
 30
0.0
 10
11.3877779904
 20
5.4667987708
 30
0.0
 10
11.3883814564
 20
5.552772899
 30
0.0
  0
SPLINE
  5
50C
100
AcDbEntity
  8
0
100
AcDbSpline
 62
9
  6
CONTINUOUS
 70
0
 71
3
 72
28
 73
24
 74
0
 42
0.0000001
 43
0.0000001
 44
0.0000000001
 40
0.0
 40
0.0
 40
0.0
 40
0.0
 40
0.0323847102
 40
0.0650785061
 40
0.1312354641
 40
0.1646178145
 40
0.1981457034
 40
0.2317746935
 40
0.2654590121
 40
0.2991472759
 40
0.3327866004
 40
0.3997101936
 40
0.4658302013
 40
0.5307930899
 40
0.5944060799
 40
0.6564982278
 40
0.716890726
 40
0.7464356758
 40
0.7755614099
 40
0.8327762592
 40
0.8889923126
 40
0.9446090458
 40
1.0
 40
1.0
 40
1.0
 40
1.0
 10
11.3883814564
 20
5.552772899
 30
0.0
 10
11.3886170056
 20
5.5863309331
 30
0.0
 10
11.3893715819
 20
5.6537655465
 30
0.0
 10
11.3918720264
 20
5.7897370201
 30
0.0
 10
11.3955237666
 20
5.9267173999
 30
0.0
 10
11.3996072512
 20
6.0645484799
 30
0.0
 10
11.4027819511
 20
6.1686845513
 30
0.0
 10
11.4059531765
 20
6.2731337484
 30
0.0
 10
11.4090096361
 20
6.377752655
 30
0.0
 10
11.4119727005
 20
6.4823849428
 30
0.0
 10
11.4158238221
 20
6.6214502738
 30
0.0
 10
11.4205016915
 20
6.7941131428
 30
0.0
 10
11.4262351126
 20
6.9992186084
 30
0.0
 10
11.4324166856
 20
7.2008790751
 30
0.0
 10
11.4391857963
 20
7.3983445878
 30
0.0
 10
11.4466887313
 20
7.5910442793
 30
0.0
 10
11.4537541372
 20
7.7484286466
 30
0.0
 10
11.4599428474
 20
7.8716535723
 30
0.0
 10
11.466418812
 20
7.9915661993
 30
0.0
 10
11.4751294678
 20
8.1390353562
 30
0.0
 10
11.486351226
 20
8.3138527304
 30
0.0
 10
11.4980622779
 20
8.486743417
 30
0.0
 10
11.5060487504
 20
8.6014982685
 30
0.0
 10
11.5100381082
 20
8.6587586933
 30
0.0
  0
LINE
  5
50D
100
AcDbEntity
  8
0
100
AcDbLine
 62
9
  6
CONTINUOUS
 10
11.5100381082
 20
8.6587586933
 11
11.5109007373
 21
8.6711395909
  0
SPLINE
  5
50E
100
AcDbEntity
  8
0
100
AcDbSpline
 62
9
  6
CONTINUOUS
 70
0
 71
3
 72
9
 73
5
 74
0
 42
0.0000001
 43
0.0000001
 44
0.0000000001
 40
0.0
 40
0.0
 40
0.0
 40
0.0
 40
0.4989230599
 40
1.0
 40
1.0
 40
1.0
 40
1.0
 10
9.9674556091
 20
10.8447102111
 30
0.0
 10
9.9664265848
 20
10.8454231931
 30
0.0
 10
9.9644847275
 20
10.8470384486
 30
0.0
 10
9.9629184699
 20
10.8490308479
 30
0.0
 10
9.9622655898
 20
10.8501053445
 30
0.0
  0
SPLINE
  5
50F
100
AcDbEntity
  8
0
100
AcDbSpline
 62
9
  6
CONTINUOUS
 70
0
 71
3
 72
9
 73
5
 74
0
 42
0.0000001
 43
0.0000001
 44
0.0000000001
 40
0.0
 40
0.0
 40
0.0
 40
0.0
 40
0.2500013983
 40
1.0
 40
1.0
 40
1.0
 40
1.0
 10
9.9674862245
 20
10.8446859958
 30
0.0
 10
9.9692031284
 20
10.761107358
 30
0.0
 10
9.9750925771
 20
10.4267740319
 30
0.0
 10
9.9780562138
 20
10.0923994279
 30
0.0
 10
9.9802988268
 20
9.8416225137
 30
0.0
  0
LINE
  5
510
100
AcDbEntity
  8
0
100
AcDbLine
 62
9
  6
CONTINUOUS
 10
9.9802988268
 20
9.8416225137
 11
9.9452491016
 21
9.8418462367
  0
SPLINE
  5
511
100
AcDbEntity
  8
0
100
AcDbSpline
 62
9
  6
CONTINUOUS
 70
0
 71
3
 72
12
 73
8
 74
0
 42
0.0000001
 43
0.0000001
 44
0.0000000001
 40
0.0
 40
0.0
 40
0.0
 40
0.0
 40
0.2205014479
 40
0.4695814372
 40
0.7348069119
 40
0.8691299604
 40
1.0
 40
1.0
 40
1.0
 40
1.0
 10
9.9348746969
 20
10.8749651098
 30
0.0
 10
9.9370382227
 20
10.87330056
 30
0.0
 10
9.9416514219
 20
10.8697625905
 30
0.0
 10
9.9487540202
 20
10.8640794848
 30
0.0
 10
9.9548245664
 20
10.8588099529
 30
0.0
 10
9.9594221153
 20
10.8541154749
 30
0.0
 10
9.9614257044
 20
10.8514906637
 30
0.0
 10
9.9622656555
 20
10.8501052622
 30
0.0
  0
SPLINE
  5
512
100
AcDbEntity
  8
0
100
AcDbSpline
 62
7
  6
CONTINUOUS
 70
0
 71
3
 72
9
 73
5
 74
0
 42
0.0000001
 43
0.0000001
 44
0.0000000001
 40
0.0
 40
0.0
 40
0.0
 40
0.0
 40
0.5010232111
 40
1.0
 40
1.0
 40
1.0
 40
1.0
 10
12.1322561339
 20
10.850167035
 30
0.0
 10
12.1316204003
 20
10.8491204879
 30
0.0
 10
12.1300978611
 20
10.8471781052
 30
0.0
 10
12.1282121441
 20
10.8455984387
 30
0.0
 10
12.1272127053
 20
10.8448996423
 30
0.0
  0
SPLINE
  5
513
100
AcDbEntity
  8
0
100
AcDbSpline
 62
7
  6
CONTINUOUS
 70
0
 71
3
 72
13
 73
9
 74
0
 42
0.0000001
 43
0.0000001
 44
0.0000000001
 40
0.0
 40
0.0
 40
0.0
 40
0.0
 40
0.2205292383
 40
0.4690921308
 40
0.6002221813
 40
0.7342025427
 40
0.8690271792
 40
1.0
 40
1.0
 40
1.0
 40
1.0
 10
12.1343584373
 20
8.8175262095
 30
0.0
 10
12.1320220563
 20
8.8192486492
 30
0.0
 10
12.1270492097
 20
8.8229083035
 30
0.0
 10
12.1207556049
 20
8.8276849077
 30
0.0
 10
12.1154551305
 20
8.8318828042
 30
0.0
 10
12.1114128105
 20
8.8352562023
 30
0.0
 10
12.1074956363
 20
8.8387712307
 30
0.0
 10
12.1051563081
 20
8.8413982185
 30
0.0
 10
12.1041534854
 20
8.8428004237
 30
0.0
  0
SPLINE
  5
514
100
AcDbEntity
  8
0
100
AcDbSpline
 62
7
  6
CONTINUOUS
 70
0
 71
3
 72
12
 73
8
 74
0
 42
0.0000001
 43
0.0000001
 44
0.0000000001
 40
0.0
 40
0.0
 40
0.0
 40
0.0
 40
0.130842013
 40
0.2651930582
 40
0.5304322922
 40
0.7795022079
 40
1.0
 40
1.0
 40
1.0
 40
1.0
 10
12.1322596482
 20
10.8501729119
 30
0.0
 10
12.1331010136
 20
10.8515601264
 30
0.0
 10
12.1351101965
 20
10.8541876172
 30
0.0
 10
12.13971942
 20
10.8588856288
 30
0.0
 10
12.1457988264
 20
10.8641651295
 30
0.0
 10
12.1529089337
 20
10.869862514
 30
0.0
 10
12.157526409
 20
10.8734101286
 30
0.0
 10
12.1596922902
 20
10.8750788113
 30
0.0
  0
SPLINE
  5
515
100
AcDbEntity
  8
0
100
AcDbSpline
 62
9
  6
CONTINUOUS
 70
0
 71
3
 72
13
 73
9
 74
0
 42
0.0000001
 43
0.0000001
 44
0.0000000001
 40
0.0
 40
0.0
 40
0.0
 40
0.0
 40
0.1110951187
 40
0.2315555513
 40
0.4893165441
 40
0.7531946398
 40
0.8804504637
 40
1.0
 40
1.0
 40
1.0
 40
1.0
 10
12.1618986583
 20
10.876911321
 30
0.0
 10
12.1616115678
 20
10.8777618792
 30
0.0
 10
12.1608705622
 20
10.879488252
 30
0.0
 10
12.158860573
 20
10.8829009573
 30
0.0
 10
12.1554481246
 20
10.8868822846
 30
0.0
 10
12.1511379556
 20
10.8899545213
 30
0.0
 10
12.1474370171
 20
10.8917913281
 30
0.0
 10
12.145557093
 20
10.892475205
 30
0.0
 10
12.1446290977
 20
10.892743564
 30
0.0
  0
LINE
  5
516
100
AcDbEntity
  8
0
100
AcDbLine
 62
9
  6
CONTINUOUS
 10
12.0823414856
 20
8.8804921304
 11
12.0914581258
 21
8.8636379477
  0
LINE
  5
517
100
AcDbEntity
  8
0
100
AcDbLine
 62
9
  6
CONTINUOUS
 10
12.0914581258
 20
8.8636379477
 11
12.1007282529
 21
8.8461886392
  0
LINE
  5
518
100
AcDbEntity
  8
0
100
AcDbLine
 62
9
  6
CONTINUOUS
 10
12.0623190479
 20
8.8613266335
 11
12.0621531611
 21
8.8612013862
  0
LINE
  5
519
100
AcDbEntity
  8
0
100
AcDbLine
 62
9
  6
CONTINUOUS
 10
12.3004615324
 20
11.0780300021
 11
12.3015612349
 21
11.0797531461
  0
SPLINE
  5
51A
100
AcDbEntity
  8
0
100
AcDbSpline
 62
9
  6
CONTINUOUS
 70
0
 71
3
 72
9
 73
5
 74
0
 42
0.0000001
 43
0.0000001
 44
0.0000000001
 40
0.0
 40
0.0
 40
0.0
 40
0.0
 40
0.5149787336
 40
1.0
 40
1.0
 40
1.0
 40
1.0
 10
12.0700716957
 20
8.8629371027
 30
0.0
 10
12.0688113792
 20
8.8624107048
 30
0.0
 10
12.0662627396
 20
8.8616168239
 30
0.0
 10
12.0636054228
 20
8.8613207698
 30
0.0
 10
12.0623190592
 20
8.8613266362
 30
0.0
  0
SPLINE
  5
51B
100
AcDbEntity
  8
0
100
AcDbSpline
 62
9
  6
CONTINUOUS
 70
0
 71
3
 72
11
 73
7
 74
0
 42
0.0000001
 43
0.0000001
 44
0.0000000001
 40
0.0
 40
0.0
 40
0.0
 40
0.0
 40
0.1483216977
 40
0.3553929637
 40
0.6370008574
 40
1.0
 40
1.0
 40
1.0
 40
1.0
 10
10.0319305572
 20
8.8613155263
 30
0.0
 10
10.0318575866
 20
8.8613848233
 30
0.0
 10
10.0317477454
 20
8.8616136938
 30
0.0
 10
10.0317118799
 20
8.8620468351
 30
0.0
 10
10.0317677546
 20
8.8626243496
 30
0.0
 10
10.0318629066
 20
8.8630519658
 30
0.0
 10
10.0319250168
 20
8.8632902898
 30
0.0
  0
SPLINE
  5
51C
100
AcDbEntity
  8
0
100
AcDbSpline
 62
9
  6
CONTINUOUS
 70
0
 71
3
 72
10
 73
6
 74
0
 42
0.0000001
 43
0.0000001
 44
0.0000000001
 40
0.0
 40
0.0
 40
0.0
 40
0.0
 40
0.1843414392
 40
0.4134833772
 40
1.0
 40
1.0
 40
1.0
 40
1.0
 10
10.0319250168
 20
8.8632902898
 30
0.0
 10
10.0320277131
 20
8.8636843467
 30
0.0
 10
10.0323128807
 20
8.8645537295
 30
0.0
 10
10.0331406863
 20
8.8666024003
 30
0.0
 10
10.0339167017
 20
8.8682301332
 30
0.0
 10
10.0344858038
 20
8.8693940982
 30
0.0
  0
LINE
  5
51D
100
AcDbEntity
  8
0
100
AcDbLine
 62
9
  6
CONTINUOUS
 10
10.0344858038
 20
8.8693940982
 11
10.0391677821
 21
8.8784948326
  0
SPLINE
  5
51E
100
AcDbEntity
  8
0
100
AcDbSpline
 62
9
  6
CONTINUOUS
 70
0
 71
3
 72
12
 73
8
 74
0
 42
0.0000001
 43
0.0000001
 44
0.0000000001
 40
0.0
 40
0.0
 40
0.0
 40
0.0
 40
0.3275885406
 40
0.6070626564
 40
0.8327944312
 40
0.9239659941
 40
1.0
 40
1.0
 40
1.0
 40
1.0
 10
12.055262522
 20
8.8784942705
 30
0.0
 10
12.0561010637
 20
8.876925867
 30
0.0
 10
12.0576323709
 20
8.8740070656
 30
0.0
 10
12.0596477415
 20
8.8699597903
 30
0.0
 10
12.0610170082
 20
8.8670243554
 30
0.0
 10
12.0618259669
 20
8.8650500418
 30
0.0
 10
12.062129646
 20
8.8641937565
 30
0.0
 10
12.0622506183
 20
8.863799088
 30
0.0
  0
SPLINE
  5
51F
100
AcDbEntity
  8
0
100
AcDbSpline
 62
9
  6
CONTINUOUS
 70
0
 71
3
 72
10
 73
6
 74
0
 42
0.0000001
 43
0.0000001
 44
0.0000000001
 40
0.0
 40
0.0
 40
0.0
 40
0.0
 40
0.3694980653
 40
0.6534461922
 40
1.0
 40
1.0
 40
1.0
 40
1.0
 10
12.0622506183
 20
8.863799088
 30
0.0
 10
12.0623425479
 20
8.8634991706
 30
0.0
 10
12.0624873239
 20
8.8629543172
 30
0.0
 10
12.0626153023
 20
8.8621450716
 30
0.0
 10
12.0625482731
 20
8.8615110681
 30
0.0
 10
12.0623190479
 20
8.8613266335
 30
0.0
  0
LINE
  5
520
100
AcDbEntity
  8
0
100
AcDbLine
 62
9
  6
CONTINUOUS
 10
12.2956375258
 20
8.6142798408
 11
12.2973419448
 21
8.6120742216
  0
SPLINE
  5
521
100
AcDbEntity
  8
0
100
AcDbSpline
 62
9
  6
CONTINUOUS
 70
0
 71
3
 72
14
 73
10
 74
0
 42
0.0000001
 43
0.0000001
 44
0.0000000001
 40
0.0
 40
0.0
 40
0.0
 40
0.0
 40
0.1069998954
 40
0.223700314
 40
0.4768508953
 40
0.6100277049
 40
0.7439761356
 40
0.8751601343
 40
1.0
 40
1.0
 40
1.0
 40
1.0
 10
10.0213960425
 20
8.8941692897
 30
0.0
 10
10.0216649646
 20
8.8933319912
 30
0.0
 10
10.0223677623
 20
8.8916246957
 30
0.0
 10
10.0243213763
 20
8.8882194654
 30
0.0
 10
10.027051325
 20
8.8850406049
 30
0.0
 10
10.0304267999
 20
8.8824010558
 30
0.0
 10
10.0332345404
 20
8.8807022234
 30
0.0
 10
10.0361557183
 20
8.8793672618
 30
0.0
 10
10.0381691734
 20
8.8787305166
 30
0.0
 10
10.039167793
 20
8.8784948522
 30
0.0
  0
SPLINE
  5
522
100
AcDbEntity
  8
0
100
AcDbSpline
 62
9
  6
CONTINUOUS
 70
0
 71
3
 72
15
 73
11
 74
0
 42
0.0000001
 43
0.0000001
 44
0.0000000001
 40
0.0
 40
0.0
 40
0.0
 40
0.0
 40
0.3772356476
 40
0.5367791462
 40
0.6752840593
 40
0.7915847689
 40
0.8846618551
 40
0.9538711381
 40
0.9796598956
 40
1.0
 40
1.0
 40
1.0
 40
1.0
 10
10.0213960478
 20
8.8941692503
 30
0.0
 10
10.0200539216
 20
8.8926408668
 30
0.0
 10
10.0181521065
 20
8.8904588823
 30
0.0
 10
10.0158161499
 20
8.8876655899
 30
0.0
 10
10.0144188846
 20
8.8859222412
 30
0.0
 10
10.0132922682
 20
8.884421269
 30
0.0
 10
10.0124558997
 20
8.8831737963
 30
0.0
 10
10.0119645426
 20
8.8822811031
 30
0.0
 10
10.0117561122
 20
8.8816940405
 30
0.0
 10
10.0117130853
 20
8.8814462852
 30
0.0
 10
10.011711824
 20
8.8813366202
 30
0.0
  0
SPLINE
  5
523
100
AcDbEntity
  8
0
100
AcDbSpline
 62
9
  6
CONTINUOUS
 70
0
 71
3
 72
14
 73
10
 74
0
 42
0.0000001
 43
0.0000001
 44
0.0000000001
 40
0.0
 40
0.0
 40
0.0
 40
0.0
 40
0.0546061529
 40
0.1303202139
 40
0.2271768506
 40
0.3445371283
 40
0.4815165829
 40
0.6371228958
 40
1.0
 40
1.0
 40
1.0
 40
1.0
 10
12.082530943
 20
8.8818663361
 30
0.0
 10
12.0824726773
 20
8.8821462236
 30
0.0
 10
12.0822112862
 20
8.882784809
 30
0.0
 10
12.0816202567
 20
8.8838162203
 30
0.0
 10
12.080766716
 20
8.8850735477
 30
0.0
 10
12.0796656838
 20
8.8865461704
 30
0.0
 10
12.0783298138
 20
8.8882264161
 30
0.0
 10
12.0761409588
 20
8.8908694704
 30
0.0
 10
12.0743667611
 20
8.8929242459
 30
0.0
 10
12.0731186835
 20
8.8943566008
 30
0.0
  0
SPLINE
  5
524
100
AcDbEntity
  8
0
100
AcDbSpline
 62
9
  6
CONTINUOUS
 70
0
 71
3
 72
9
 73
5
 74
0
 42
0.0000001
 43
0.0000001
 44
0.0000000001
 40
0.0
 40
0.0
 40
0.0
 40
0.0
 40
0.2500980307
 40
1.0
 40
1.0
 40
1.0
 40
1.0
 10
10.0099817791
 20
9.841446577
 30
0.0
 10
10.0091808055
 20
9.9208482021
 30
0.0
 10
10.0059898384
 20
10.2383284198
 30
0.0
 10
10.0016527375
 20
10.5558121931
 30
0.0
 10
9.9957373707
 20
10.7938311952
 30
0.0
  0
LINE
  5
525
100
AcDbEntity
  8
0
100
AcDbLine
 62
9
  6
CONTINUOUS
 10
9.8115337471
 20
8.5966097498
 11
9.8132539419
 21
8.5988078741
  0
SPLINE
  5
526
100
AcDbEntity
  8
0
100
AcDbSpline
 62
9
  6
CONTINUOUS
 70
0
 71
3
 72
14
 73
10
 74
0
 42
0.0000001
 43
0.0000001
 44
0.0000000001
 40
0.0
 40
0.0
 40
0.0
 40
0.0
 40
0.1169936965
 40
0.2424642126
 40
0.3731507797
 40
0.5056809487
 40
0.764856682
 40
0.8869993115
 40
1.0
 40
1.0
 40
1.0
 40
1.0
 10
9.9957373125
 20
10.7938312245
 30
0.0
 10
9.9959969638
 20
10.7947855636
 30
0.0
 10
9.9967158618
 20
10.796716022
 30
0.0
 10
9.9982249394
 20
10.7994954138
 30
0.0
 10
10.0001518355
 20
10.802168357
 30
0.0
 10
10.0031742046
 20
10.8054030593
 30
0.0
 10
10.0067624637
 20
10.8079489258
 30
0.0
 10
10.0105417635
 20
10.8097437699
 30
0.0
 10
10.0124313766
 20
10.8103823434
 30
0.0
 10
10.0133555863
 20
10.8106239771
 30
0.0
  0
SPLINE
  5
527
100
AcDbEntity
  8
0
100
AcDbSpline
 62
9
  6
CONTINUOUS
 70
0
 71
3
 72
17
 73
13
 74
0
 42
0.0000001
 43
0.0000001
 44
0.0000000001
 40
0.0
 40
0.0
 40
0.0
 40
0.0
 40
0.1524214826
 40
0.3101849604
 40
0.4661736699
 40
0.6122215605
 40
0.740021781
 40
0.8455523886
 40
0.8903379921
 40
0.9302720796
 40
0.9663229039
 40
1.0
 40
1.0
 40
1.0
 40
1.0
 10
10.4909634366
 20
10.7871614844
 30
0.0
 10
10.489806296
 20
10.7871987537
 30
0.0
 10
10.4874479969
 20
10.7871894267
 30
0.0
 10
10.4839138835
 20
10.7869146989
 30
0.0
 10
10.4804654491
 20
10.7863290365
 30
0.0
 10
10.4773124917
 20
10.7854530171
 30
0.0
 10
10.4746549509
 20
10.7843105728
 30
0.0
 10
10.4728954762
 20
10.7831012806
 30
0.0
 10
10.471900243
 20
10.7820463647
 30
0.0
 10
10.471389466
 20
10.7812775274
 30
0.0
 10
10.4710805502
 20
10.7804970256
 30
0.0
 10
10.4710001636
 20
10.7799682007
 30
0.0
 10
10.4709906808
 20
10.779712577
 30
0.0
  0
SPLINE
  5
528
100
AcDbEntity
  8
0
100
AcDbSpline
 62
9
  6
CONTINUOUS
 70
0
 71
3
 72
14
 73
10
 74
0
 42
0.0000001
 43
0.0000001
 44
0.0000000001
 40
0.0
 40
0.0
 40
0.0
 40
0.0
 40
0.2843915174
 40
0.4296586936
 40
0.5706325413
 40
0.7017307412
 40
0.8179098484
 40
0.9170956922
 40
1.0
 40
1.0
 40
1.0
 40
1.0
 10
10.4905335836
 20
10.7765792882
 30
0.0
 10
10.4885714174
 20
10.776643536
 30
0.0
 10
10.485595658
 20
10.7765613082
 30
0.0
 10
10.481687754
 20
10.7760409275
 30
0.0
 10
10.4788706656
 20
10.7754189601
 30
0.0
 10
10.4763145424
 20
10.7745972385
 30
0.0
 10
10.4741393903
 20
10.7735804613
 30
0.0
 10
10.4724387679
 20
10.7724017592
 30
0.0
 10
10.471570641
 20
10.771469246
 30
0.0
 10
10.4712541532
 20
10.7709924121
 30
0.0
  0
SPLINE
  5
529
100
AcDbEntity
  8
0
100
AcDbSpline
 62
9
  6
CONTINUOUS
 70
0
 71
3
 72
9
 73
5
 74
0
 42
0.0000001
 43
0.0000001
 44
0.0000000001
 40
0.0
 40
0.0
 40
0.0
 40
0.0
 40
0.5248847192
 40
1.0
 40
1.0
 40
1.0
 40
1.0
 10
10.4712541532
 20
10.7709924121
 30
0.0
 10
10.4710458731
 20
10.7706786084
 30
0.0
 10
10.4707146212
 20
10.7700313348
 30
0.0
 10
10.4705794649
 20
10.769315189
 30
0.0
 10
10.4705655304
 20
10.768974552
 30
0.0
  0
LINE
  5
52A
100
AcDbEntity
  8
0
100
AcDbLine
 62
9
  6
CONTINUOUS
 10
12.2813499486
 20
8.5988033297
 11
12.2830712122
 21
8.5966062578
  0
LINE
  5
52B
100
AcDbEntity
  8
0
100
AcDbLine
 62
9
  6
CONTINUOUS
 10
9.7972713511
 20
8.6120598881
 11
9.7989724791
 21
8.614262293
  0
SPLINE
  5
52C
100
AcDbEntity
  8
0
100
AcDbSpline
 62
9
  6
CONTINUOUS
 70
0
 71
3
 72
13
 73
9
 74
0
 42
0.0000001
 43
0.0000001
 44
0.0000000001
 40
0.0
 40
0.0
 40
0.0
 40
0.0
 40
0.1132135891
 40
0.2349930592
 40
0.4278251124
 40
0.6254568262
 40
0.8194628982
 40
1.0
 40
1.0
 40
1.0
 40
1.0
 10
9.9584732282
 20
8.8161042674
 30
0.0
 10
9.958792332
 20
8.8152899496
 30
0.0
 10
9.9595744761
 20
8.8136452679
 30
0.0
 10
9.9613283932
 20
8.8108378702
 30
0.0
 10
9.9638612784
 20
8.8077727565
 30
0.0
 10
9.9672947559
 20
8.8048083368
 30
0.0
 10
9.9710642144
 20
8.8024707583
 30
0.0
 10
9.9737369386
 20
8.8013223071
 30
0.0
 10
9.9750649208
 20
8.8008960908
 30
0.0
  0
SPLINE
  5
52D
100
AcDbEntity
  8
0
100
AcDbSpline
 62
9
  6
CONTINUOUS
 70
0
 71
3
 72
15
 73
11
 74
0
 42
0.0000001
 43
0.0000001
 44
0.0000000001
 40
0.0
 40
0.0
 40
0.0
 40
0.0
 40
0.155103919
 40
0.3141928007
 40
0.4701540476
 40
0.6150570569
 40
0.7413564011
 40
0.8460133293
 40
0.9300694421
 40
1.0
 40
1.0
 40
1.0
 40
1.0
 10
10.5149684891
 20
9.8414149886
 30
0.0
 10
10.5138204171
 20
9.8413470052
 30
0.0
 10
10.5114990641
 20
9.8411240341
 30
0.0
 10
10.5080597999
 20
9.8405302389
 30
0.0
 10
10.5047618008
 20
9.8396403829
 30
0.0
 10
10.5017992688
 20
9.8384992488
 30
0.0
 10
10.4993547172
 20
9.8371334942
 30
0.0
 10
10.4975592818
 20
9.8356114498
 30
0.0
 10
10.4964559249
 20
9.8339985475
 30
0.0
 10
10.4962335287
 20
9.8328368466
 30
0.0
 10
10.496253718
 20
9.8323187104
 30
0.0
  0
SPLINE
  5
52E
100
AcDbEntity
  8
0
100
AcDbSpline
 62
9
  6
CONTINUOUS
 70
0
 71
3
 72
9
 73
5
 74
0
 42
0.0000001
 43
0.0000001
 44
0.0000000001
 40
0.0
 40
0.0
 40
0.0
 40
0.0
 40
0.4925795978
 40
1.0
 40
1.0
 40
1.0
 40
1.0
 10
10.4905336292
 20
10.7765793637
 30
0.0
 10
10.4893649423
 20
10.7751131786
 30
0.0
 10
10.487061429
 20
10.7720801633
 30
0.0
 10
10.4849465056
 20
10.7689122908
 30
0.0
 10
10.4839166579
 20
10.7672782866
 30
0.0
  0
LINE
  5
52F
100
AcDbEntity
  8
0
100
AcDbLine
 62
9
  6
CONTINUOUS
 10
10.4839166579
 20
10.7672782866
 11
10.4808443986
 21
10.7620652642
  0
SPLINE
  5
530
100
AcDbEntity
  8
0
100
AcDbSpline
 62
9
  6
CONTINUOUS
 70
0
 71
3
 72
13
 73
9
 74
0
 42
0.0000001
 43
0.0000001
 44
0.0000000001
 40
0.0
 40
0.0
 40
0.0
 40
0.0
 40
0.3353550731
 40
0.6244163629
 40
0.7461242158
 40
0.8498594453
 40
0.9341243794
 40
1.0
 40
1.0
 40
1.0
 40
1.0
 10
10.4808443986
 20
10.7620652642
 30
0.0
 10
10.4797016644
 20
10.7619310996
 30
0.0
 10
10.4775803108
 20
10.7616240048
 30
0.0
 10
10.4750716926
 20
10.7610992899
 30
0.0
 10
10.4733739599
 20
10.7606132016
 30
0.0
 10
10.4723716824
 20
10.7602567732
 30
0.0
 10
10.4715807089
 20
10.7598887735
 30
0.0
 10
10.4711457963
 20
10.759606436
 30
0.0
 10
10.4709723679
 20
10.7594615032
 30
0.0
  0
SPLINE
  5
531
100
AcDbEntity
  8
0
100
AcDbSpline
 62
9
  6
CONTINUOUS
 70
0
 71
3
 72
9
 73
5
 74
0
 42
0.0000001
 43
0.0000001
 44
0.0000000001
 40
0.0
 40
0.0
 40
0.0
 40
0.0
 40
0.56751114
 40
1.0
 40
1.0
 40
1.0
 40
1.0
 10
10.4709723679
 20
10.7594615032
 30
0.0
 10
10.4708172488
 20
10.7593318714
 30
0.0
 10
10.4705610078
 20
10.7590735723
 30
0.0
 10
10.470442875
 20
10.7587167243
 30
0.0
 10
10.4704435646
 20
10.7585626681
 30
0.0
  0
SPLINE
  5
532
100
AcDbEntity
  8
0
100
AcDbSpline
 62
9
  6
CONTINUOUS
 70
0
 71
3
 72
9
 73
5
 74
0
 42
0.0000001
 43
0.0000001
 44
0.0000000001
 40
0.0
 40
0.0
 40
0.0
 40
0.0
 40
0.253200827
 40
1.0
 40
1.0
 40
1.0
 40
1.0
 10
9.794859716
 20
9.845901174
 30
0.0
 10
9.8075449832
 20
9.8453355569
 30
0.0
 10
9.8576558668
 20
9.8433544239
 30
0.0
 10
9.9078001124
 20
9.8422784361
 30
0.0
 10
9.9452491532
 20
9.841846236
 30
0.0
  0
SPLINE
  5
533
100
AcDbEntity
  8
0
100
AcDbSpline
 62
9
  6
CONTINUOUS
 70
0
 71
3
 72
9
 73
5
 74
0
 42
0.0000001
 43
0.0000001
 44
0.0000000001
 40
0.0
 40
0.0
 40
0.0
 40
0.0
 40
0.2499427815
 40
1.0
 40
1.0
 40
1.0
 40
1.0
 10
9.9452545575
 20
9.8418462861
 30
0.0
 10
9.9459775824
 20
9.7563830904
 30
0.0
 10
9.9488726148
 20
9.4144536973
 30
0.0
 10
9.9529118876
 20
9.0725211102
 30
0.0
 10
9.9584957945
 20
8.8161048786
 30
0.0
  0
SPLINE
  5
534
100
AcDbEntity
  8
0
100
AcDbSpline
 62
9
  6
CONTINUOUS
 70
0
 71
3
 72
13
 73
9
 74
0
 42
0.0000001
 43
0.0000001
 44
0.0000000001
 40
0.0
 40
0.0
 40
0.0
 40
0.0
 40
0.1310775489
 40
0.2659899544
 40
0.4000160598
 40
0.5311505258
 40
0.7796359667
 40
1.0
 40
1.0
 40
1.0
 40
1.0
 10
9.9904531096
 20
8.8427632312
 30
0.0
 10
9.9894406853
 20
8.8413589593
 30
0.0
 10
9.9870832527
 20
8.8387289429
 30
0.0
 10
9.9831433225
 20
8.8352078417
 30
0.0
 10
9.9790840864
 20
8.8318238631
 30
0.0
 10
9.9737678447
 20
8.8276092566
 30
0.0
 10
9.9674606558
 20
8.8228111296
 30
0.0
 10
9.9624790951
 20
8.81913311
 30
0.0
 10
9.9601390828
 20
8.8174025488
 30
0.0
  0
SPLINE
  5
535
100
AcDbEntity
  8
0
100
AcDbSpline
 62
9
  6
CONTINUOUS
 70
0
 71
3
 72
9
 73
5
 74
0
 42
0.0000001
 43
0.0000001
 44
0.0000000001
 40
0.0
 40
0.0
 40
0.0
 40
0.0
 40
0.2500131106
 40
1.0
 40
1.0
 40
1.0
 40
1.0
 10
9.9802905708
 20
9.8416225441
 30
0.0
 10
9.9810285717
 20
9.7586448019
 30
0.0
 10
9.9839868108
 20
9.426752962
 30
0.0
 10
9.988095089
 20
9.094858198
 30
0.0
 10
9.9937207737
 20
8.8459961099
 30
0.0
  0
SPLINE
  5
536
100
AcDbEntity
  8
0
100
AcDbSpline
 62
9
  6
CONTINUOUS
 70
0
 71
3
 72
20
 73
16
 74
0
 42
0.0000001
 43
0.0000001
 44
0.0000000001
 40
0.0
 40
0.0
 40
0.0
 40
0.0
 40
0.0495755874
 40
0.1016291643
 40
0.2124226967
 40
0.2707302764
 40
0.3306974455
 40
0.4550792535
 40
0.5192720059
 40
0.5847050471
 40
0.6513200258
 40
0.7190594863
 40
0.7878557952
 40
0.8576443422
 40
1.0
 40
1.0
 40
1.0
 40
1.0
 10
11.3087394077
 20
10.2242986244
 30
0.0
 10
11.313285803
 20
10.2334524405
 30
0.0
 10
11.322856669
 20
10.25209363
 30
0.0
 10
11.3437069084
 20
10.290608676
 30
0.0
 10
11.36655715
 20
10.3300724705
 30
0.0
 10
11.3907760764
 20
10.3706143048
 30
0.0
 10
11.4166671416
 20
10.4134205906
 30
0.0
 10
11.443362633
 20
10.4571573566
 30
0.0
 10
11.4704900285
 20
10.5019504848
 30
0.0
 10
11.4912914613
 20
10.5366511857
 30
0.0
 10
11.5122299148
 20
10.5721214112
 30
0.0
 10
11.5332083744
 20
10.6083716066
 30
0.0
 10
11.5540609296
 20
10.6454483418
 30
0.0
 10
11.5816327085
 20
10.6963853882
 30
0.0
 10
11.6012950304
 20
10.7354765384
 30
0.0
 10
11.6137764186
 20
10.7620387366
 30
0.0
  0
LINE
  5
537
100
AcDbEntity
  8
0
100
AcDbLine
 62
9
  6
CONTINUOUS
 10
11.613776577
 20
10.7620387152
 11
11.6136888243
 21
10.7588599655
  0
SPLINE
  5
538
100
AcDbEntity
  8
0
100
AcDbSpline
 62
9
  6
CONTINUOUS
 70
0
 71
3
 72
11
 73
7
 74
0
 42
0.0000001
 43
0.0000001
 44
0.0000000001
 40
0.0
 40
0.0
 40
0.0
 40
0.0
 40
0.2567858011
 40
0.5095027171
 40
0.7574503887
 40
1.0
 40
1.0
 40
1.0
 40
1.0
 10
11.6136888243
 20
10.7588599655
 30
0.0
 10
11.6115080552
 20
10.6800871692
 30
0.0
 10
11.6062722714
 20
10.5238150621
 30
0.0
 10
11.5971684544
 20
10.2915455902
 30
0.0
 10
11.588372835
 20
10.0636360407
 30
0.0
 10
11.5824755624
 20
9.9132267091
 30
0.0
 10
11.5794864878
 20
9.8388526054
 30
0.0
  0
SPLINE
  5
539
100
AcDbEntity
  8
0
100
AcDbSpline
 62
9
  6
CONTINUOUS
 70
0
 71
3
 72
10
 73
6
 74
0
 42
0.0000001
 43
0.0000001
 44
0.0000000001
 40
0.0
 40
0.0
 40
0.0
 40
0.0
 40
0.257905151
 40
0.5101659052
 40
1.0
 40
1.0
 40
1.0
 40
1.0
 10
11.5794864577
 20
9.8388526071
 30
0.0
 10
11.5768434762
 20
9.7730893128
 30
0.0
 10
11.5715033553
 20
9.6430062068
 30
0.0
 10
11.5600576996
 20
9.388066891
 30
0.0
 10
11.5498560211
 20
9.1989534357
 30
0.0
 10
11.5420635248
 20
9.0741928176
 30
0.0
  0
SPLINE
  5
53A
100
AcDbEntity
  8
0
100
AcDbSpline
 62
9
  6
CONTINUOUS
 70
0
 71
3
 72
21
 73
17
 74
0
 42
0.0000001
 43
0.0000001
 44
0.0000000001
 40
0.0
 40
0.0
 40
0.0
 40
0.0
 40
0.0473633276
 40
0.0974444641
 40
0.1501102453
 40
0.2051913177
 40
0.262501324
 40
0.3218668467
 40
0.383116147
 40
0.4460959756
 40
0.5106763819
 40
0.576735279
 40
0.6441902348
 40
0.7129759472
 40
0.8542715553
 40
1.0
 40
1.0
 40
1.0
 40
1.0
 10
10.8284513011
 20
10.2233789054
 30
0.0
 10
10.824051901
 20
10.2326267252
 30
0.0
 10
10.8146815662
 20
10.2515027946
 30
0.0
 10
10.7993194434
 20
10.2800999539
 30
0.0
 10
10.7822732621
 20
10.309668054
 30
0.0
 10
10.7637515776
 20
10.3401769357
 30
0.0
 10
10.7439298973
 20
10.3715837194
 30
0.0
 10
10.723001543
 20
10.4038648537
 30
0.0
 10
10.7011542973
 20
10.4370094609
 30
0.0
 10
10.6785603537
 20
10.4710118172
 30
0.0
 10
10.6553763647
 20
10.5058706719
 30
0.0
 10
10.631751518
 20
10.5415983283
 30
0.0
 10
10.6078475041
 20
10.5782310235
 30
0.0
 10
10.5755302088
 20
10.6287955646
 30
0.0
 10
10.5353115624
 20
10.6943926496
 30
0.0
 10
10.5050798745
 20
10.7486282812
 30
0.0
 10
10.4905336125
 20
10.7765792598
 30
0.0
  0
LINE
  5
53B
100
AcDbEntity
  8
0
100
AcDbLine
 62
9
  6
CONTINUOUS
 10
10.4905335824
 20
10.7765792608
 11
10.4909634376
 21
10.7871614636
  0
LINE
  5
53C
100
AcDbEntity
  8
0
100
AcDbLine
 62
9
  6
CONTINUOUS
 10
11.6036528685
 20
10.7871610294
 11
11.6040862337
 21
10.7765499113
  0
SPLINE
  5
53D
100
AcDbEntity
  8
0
100
AcDbSpline
 62
9
  6
CONTINUOUS
 70
0
 71
3
 72
20
 73
16
 74
0
 42
0.0000001
 43
0.0000001
 44
0.0000000001
 40
0.0
 40
0.0
 40
0.0
 40
0.0
 40
0.1456870232
 40
0.2169092595
 40
0.2869767286
 40
0.3558164801
 40
0.4233454077
 40
0.489473599
 40
0.5541007975
 40
0.6783773411
 40
0.7377812658
 40
0.7951303442
 40
0.902791958
 40
0.9527570885
 40
1.0
 40
1.0
 40
1.0
 40
1.0
 10
11.6040862153
 20
10.7765499252
 30
0.0
 10
11.5895661729
 20
10.7486959937
 30
0.0
 10
11.5667822407
 20
10.7078256224
 30
0.0
 10
11.534993599
 20
10.6547403252
 30
0.0
 10
11.5110906214
 20
10.6162508967
 30
0.0
 10
11.4871367929
 20
10.5787360411
 30
0.0
 10
11.4632998992
 20
10.5421568252
 30
0.0
 10
11.4397545448
 20
10.5064729561
 30
0.0
 10
11.4093742047
 20
10.4606406233
 30
0.0
 10
11.3798284094
 20
10.4159940206
 30
0.0
 10
11.3515902045
 20
10.3723657967
 30
0.0
 10
11.3257696126
 20
10.331446687
 30
0.0
 10
11.3020218608
 20
10.2916147901
 30
0.0
 10
11.281214317
 20
10.2526431473
 30
0.0
 10
11.271914951
 20
10.2338557843
 30
0.0
 10
11.2675479773
 20
10.224653418
 30
0.0
  0
SPLINE
  5
53E
100
AcDbEntity
  8
0
100
AcDbSpline
 62
9
  6
CONTINUOUS
 70
0
 71
3
 72
20
 73
16
 74
0
 42
0.0000001
 43
0.0000001
 44
0.0000000001
 40
0.0
 40
0.0
 40
0.0
 40
0.0
 40
0.0315158414
 40
0.0669936898
 40
0.1066272397
 40
0.150506775
 40
0.1986479725
 40
0.2510425675
 40
0.3076721744
 40
0.3685109779
 40
0.4335253552
 40
0.5026764217
 40
0.6531367443
 40
0.8192146531
 40
1.0
 40
1.0
 40
1.0
 40
1.0
 10
10.5151829555
 20
9.4279674867
 30
0.0
 10
10.5086974012
 20
9.4239900306
 30
0.0
 10
10.4952597934
 20
9.4149618202
 30
0.0
 10
10.4748278014
 20
9.3992858178
 30
0.0
 10
10.4529688121
 20
9.3806335376
 30
0.0
 10
10.4296205088
 20
9.3590624678
 30
0.0
 10
10.4047078046
 20
9.3346698079
 30
0.0
 10
10.3781861197
 20
9.3075357655
 30
0.0
 10
10.3500506135
 20
9.2777028571
 30
0.0
 10
10.3202909168
 20
9.2452212175
 30
0.0
 10
10.2888922816
 20
9.2101463523
 30
0.0
 10
10.2435317819
 20
9.1585365676
 30
0.0
 10
10.1828523738
 20
9.0879145406
 30
0.0
 10
10.1056155079
 20
8.9959997414
 30
0.0
 10
10.0523462229
 20
8.9313929573
 30
0.0
 10
10.0247205152
 20
8.8976072223
 30
0.0
  0
SPLINE
  5
53F
100
AcDbEntity
  8
0
100
AcDbSpline
 62
9
  6
CONTINUOUS
 70
0
 71
3
 72
17
 73
13
 74
0
 42
0.0000001
 43
0.0000001
 44
0.0000000001
 40
0.0
 40
0.0
 40
0.0
 40
0.0
 40
0.152396335
 40
0.3101400817
 40
0.466117507
 40
0.6121665333
 40
0.7399785873
 40
0.8455214255
 40
0.890314764
 40
0.9302582436
 40
0.9663166716
 40
1.0
 40
1.0
 40
1.0
 40
1.0
 10
11.6036528673
 20
10.787161029
 30
0.0
 10
11.604809742
 20
10.7871985498
 30
0.0
 10
11.6071675654
 20
10.7871897749
 30
0.0
 10
11.6107011154
 20
10.7869159779
 30
0.0
 10
11.6141492854
 20
10.7863313091
 30
0.0
 10
11.6173022954
 20
10.7854561635
 30
0.0
 10
11.6199602417
 20
10.7843146044
 30
0.0
 10
11.6217201781
 20
10.7831057557
 30
0.0
 10
11.6227158106
 20
10.7820510301
 30
0.0
 10
11.6232269569
 20
10.7812822793
 30
0.0
 10
11.6235362106
 20
10.7805017668
 30
0.0
 10
11.6236167451
 20
10.7799728834
 30
0.0
 10
11.6236262859
 20
10.7797172293
 30
0.0
  0
SPLINE
  5
540
100
AcDbEntity
  8
0
100
AcDbSpline
 62
9
  6
CONTINUOUS
 70
0
 71
3
 72
16
 73
12
 74
0
 42
0.0000001
 43
0.0000001
 44
0.0000000001
 40
0.0
 40
0.0
 40
0.0
 40
0.0
 40
0.1031175592
 40
0.2143960345
 40
0.3329718959
 40
0.4578782887
 40
0.5879697647
 40
0.6546377865
 40
0.7222521002
 40
0.8599091205
 40
1.0
 40
1.0
 40
1.0
 40
1.0
 10
9.9761671209
 20
8.8021734535
 30
0.0
 10
9.9769705692
 20
8.8034060331
 30
0.0
 10
9.9785741422
 20
8.8060122063
 30
0.0
 10
9.9809644567
 20
8.8101179979
 30
0.0
 10
9.9834949155
 20
8.8145020552
 30
0.0
 10
9.9862039653
 20
8.8190925304
 30
0.0
 10
9.9884601499
 20
8.8230903427
 30
0.0
 10
9.9902082949
 20
8.8264334538
 30
0.0
 10
9.9919156634
 20
8.8299181701
 30
0.0
 10
9.9939400797
 20
8.8344121959
 30
0.0
 10
9.9954638312
 20
8.8380708672
 30
0.0
 10
9.99621806
 20
8.839921979
 30
0.0
  0
SPLINE
  5
541
100
AcDbEntity
  8
0
100
AcDbSpline
 62
9
  6
CONTINUOUS
 70
0
 71
3
 72
21
 73
17
 74
0
 42
0.0000001
 43
0.0000001
 44
0.0000000001
 40
0.0
 40
0.0
 40
0.0
 40
0.0
 40
0.0342707241
 40
0.0723014573
 40
0.1141515767
 40
0.1598522105
 40
0.2094161773
 40
0.2628434042
 40
0.3201140751
 40
0.3811890836
 40
0.4460250062
 40
0.514575898
 40
0.5867938585
 40
0.6626156054
 40
0.8246866254
 40
1.0
 40
1.0
 40
1.0
 40
1.0
 10
11.5775385293
 20
9.3971939925
 30
0.0
 10
11.5840892864
 20
9.3925690962
 30
0.0
 10
11.5975943891
 20
9.382362876
 30
0.0
 10
11.6181056289
 20
9.3652433637
 30
0.0
 10
11.6399510927
 20
9.3455828696
 30
0.0
 10
11.6631627506
 20
9.3234299273
 30
0.0
 10
11.6877745052
 20
9.2988353335
 30
0.0
 10
11.7138187515
 20
9.2718540665
 30
0.0
 10
11.7413146419
 20
9.2425369134
 30
0.0
 10
11.7702632351
 20
9.2109269599
 30
0.0
 10
11.8006659987
 20
9.1770729851
 30
0.0
 10
11.8325230359
 20
9.1410229704
 30
0.0
 10
11.865834067
 20
9.1028290515
 30
0.0
 10
11.913231849
 20
9.0478867262
 30
0.0
 10
11.9758282878
 20
8.9741993351
 30
0.0
 10
12.0264274246
 20
8.9136032547
 30
0.0
 10
12.0526058668
 20
8.8820216697
 30
0.0
  0
SPLINE
  5
542
100
AcDbEntity
  8
0
100
AcDbSpline
 62
9
  6
CONTINUOUS
 70
0
 71
3
 72
14
 73
10
 74
0
 42
0.0000001
 43
0.0000001
 44
0.0000000001
 40
0.0
 40
0.0
 40
0.0
 40
0.0
 40
0.2143799036
 40
0.3329806454
 40
0.4579199696
 40
0.5880507968
 40
0.722295312
 40
0.8598803844
 40
1.0
 40
1.0
 40
1.0
 40
1.0
 10
12.1183021075
 20
8.8021663224
 30
0.0
 10
12.1166350303
 20
8.8047316214
 30
0.0
 10
12.1142431368
 20
8.8088413281
 30
0.0
 10
12.1109647157
 20
8.8144935159
 30
0.0
 10
12.1082869137
 20
8.8191052939
 30
0.0
 10
12.1055369194
 20
8.8239327879
 30
0.0
 10
12.1028364925
 20
8.8289962805
 30
0.0
 10
12.1003946299
 20
8.8343482963
 30
0.0
 10
12.0989495125
 20
8.8380402865
 30
0.0
 10
12.0982579088
 20
8.8399165119
 30
0.0
  0
SPLINE
  5
543
100
AcDbEntity
  8
0
100
AcDbSpline
 62
9
  6
CONTINUOUS
 70
0
 71
3
 72
11
 73
7
 74
0
 42
0.0000001
 43
0.0000001
 44
0.0000000001
 40
0.0
 40
0.0
 40
0.0
 40
0.0
 40
0.2373267806
 40
0.4968876971
 40
0.7581896323
 40
1.0
 40
1.0
 40
1.0
 40
1.0
 10
12.1343665035
 20
8.8175202926
 30
0.0
 10
12.1337013075
 20
8.8158433211
 30
0.0
 10
12.1318460614
 20
8.8125130665
 30
0.0
 10
12.1281008349
 20
8.8080822466
 30
0.0
 10
12.1234761631
 20
8.8045233123
 30
0.0
 10
12.1200329664
 20
8.8027851794
 30
0.0
 10
12.118302107
 20
8.8021663232
 30
0.0
  0
SPLINE
  5
544
100
AcDbEntity
  8
0
100
AcDbSpline
 62
9
  6
CONTINUOUS
 70
0
 71
3
 72
9
 73
5
 74
0
 42
0.0000001
 43
0.0000001
 44
0.0000000001
 40
0.0
 40
0.0
 40
0.0
 40
0.0
 40
0.7492168211
 40
1.0
 40
1.0
 40
1.0
 40
1.0
 10
12.1007282566
 20
8.8461886429
 30
0.0
 10
12.1017054756
 20
8.8454847463
 30
0.0
 10
12.1029190567
 20
8.844399343
 30
0.0
 10
12.1039142042
 20
8.8431350065
 30
0.0
 10
12.104148756
 20
8.8428071429
 30
0.0
  0
SPLINE
  5
545
100
AcDbEntity
  8
0
100
AcDbSpline
 62
9
  6
CONTINUOUS
 70
0
 71
3
 72
21
 73
17
 74
0
 42
0.0000001
 43
0.0000001
 44
0.0000000001
 40
0.0
 40
0.0
 40
0.0
 40
0.0
 40
0.0316712652
 40
0.0673015393
 40
0.1070744431
 40
0.1510692937
 40
0.199310985
 40
0.2517910166
 40
0.3084816496
 40
0.3693510825
 40
0.4343689326
 40
0.5034930501
 40
0.5766618999
 40
0.6538016559
 40
0.8196063353
 40
1.0
 40
1.0
 40
1.0
 40
1.0
 10
11.5792238629
 20
9.4285489796
 30
0.0
 10
11.5857273512
 20
9.4245258473
 30
0.0
 10
11.5992010355
 20
9.4154123816
 30
0.0
 10
11.6196829731
 20
9.3996149924
 30
0.0
 10
11.6415866759
 20
9.3808545673
 30
0.0
 10
11.6649887047
 20
9.3592053012
 30
0.0
 10
11.6899520587
 20
9.334749207
 30
0.0
 10
11.7165048154
 20
9.3075502541
 30
0.0
 10
11.7446599979
 20
9.277664644
 30
0.0
 10
11.7744332214
 20
9.245150993
 30
0.0
 10
11.8058391277
 20
9.2100662778
 30
0.0
 10
11.8388865481
 20
9.1724682123
 30
0.0
 10
11.8735689214
 20
9.1324125001
 30
0.0
 10
11.9231737528
 20
9.0744003915
 30
0.0
 10
11.9889289357
 20
8.9961362628
 30
0.0
 10
12.0421033174
 20
8.9316354449
 30
0.0
 10
12.0696845438
 20
8.8979229389
 30
0.0
  0
SPLINE
  5
546
100
AcDbEntity
  8
0
100
AcDbSpline
 62
9
  6
CONTINUOUS
 70
0
 71
3
 72
9
 73
5
 74
0
 42
0.0000001
 43
0.0000001
 44
0.0000000001
 40
0.0
 40
0.0
 40
0.0
 40
0.0
 40
0.2586678091
 40
1.0
 40
1.0
 40
1.0
 40
1.0
 10
12.0959911244
 20
8.8417874534
 30
0.0
 10
12.0962089412
 20
8.8416567762
 30
0.0
 10
12.0970334301
 20
8.841124012
 30
0.0
 10
12.0977855814
 20
8.8404704639
 30
0.0
 10
12.0982579315
 20
8.8399165308
 30
0.0
  0
SPLINE
  5
547
100
AcDbEntity
  8
0
100
AcDbSpline
 62
9
  6
CONTINUOUS
 70
0
 71
3
 72
13
 73
9
 74
0
 42
0.0000001
 43
0.0000001
 44
0.0000000001
 40
0.0
 40
0.0
 40
0.0
 40
0.0
 40
0.1187249729
 40
0.2451306114
 40
0.5080034906
 40
0.7659390693
 40
0.8873454442
 40
1.0
 40
1.0
 40
1.0
 40
1.0
 10
12.0696845438
 20
8.8979229389
 30
0.0
 10
12.0693796283
 20
8.8970166934
 30
0.0
 10
12.0685975502
 20
8.8951948913
 30
0.0
 10
12.0665102976
 20
8.891668217
 30
0.0
 10
12.0630842431
 20
8.8876668225
 30
0.0
 10
12.0588263377
 20
8.884641949
 30
0.0
 10
12.0552596051
 20
8.8829039488
 30
0.0
 10
12.0534787024
 20
8.882269389
 30
0.0
 10
12.052605914
 20
8.8820216127
 30
0.0
  0
SPLINE
  5
548
100
AcDbEntity
  8
0
100
AcDbSpline
 62
9
  6
CONTINUOUS
 70
0
 71
3
 72
9
 73
5
 74
0
 42
0.0000001
 43
0.0000001
 44
0.0000000001
 40
0.0
 40
0.0
 40
0.0
 40
0.0
 40
0.2420789682
 40
1.0
 40
1.0
 40
1.0
 40
1.0
 10
9.9962177432
 20
8.83992162
 30
0.0
 10
9.9963652409
 20
8.8400935651
 30
0.0
 10
9.9970088426
 20
8.8407743721
 30
0.0
 10
9.997769281
 20
8.8413389149
 30
0.0
 10
9.9983761962
 20
8.8417059593
 30
0.0
  0
SPLINE
  5
549
100
AcDbEntity
  8
0
100
AcDbSpline
 62
9
  6
CONTINUOUS
 70
0
 71
3
 72
10
 73
6
 74
0
 42
0.0000001
 43
0.0000001
 44
0.0000000001
 40
0.0
 40
0.0
 40
0.0
 40
0.0
 40
0.2941440386
 40
0.5746815583
 40
1.0
 40
1.0
 40
1.0
 40
1.0
 10
9.9983760119
 20
8.8417062494
 30
0.0
 10
10.0015134791
 20
8.8436036632
 30
0.0
 10
10.0076884599
 20
8.847236057
 30
0.0
 10
10.0185152226
 20
8.8534137537
 30
0.0
 10
10.0261526276
 20
8.8577827025
 30
0.0
 10
10.0307463347
 20
8.8604295969
 30
0.0
  0
LINE
  5
54A
100
AcDbEntity
  8
0
100
AcDbLine
 62
9
  6
CONTINUOUS
 10
10.0307463347
 20
8.8604295969
 11
10.0320775419
 21
8.861205459
  0
LINE
  5
54B
100
AcDbEntity
  8
0
100
AcDbLine
 62
9
  6
CONTINUOUS
 10
12.0621531764
 20
8.8612013861
 11
12.0715162473
 21
8.8558562712
  0
LINE
  5
54C
100
AcDbEntity
  8
0
100
AcDbLine
 62
9
  6
CONTINUOUS
 10
12.0790725749
 20
8.8515769891
 11
12.0959911313
 21
8.8417874644
  0
SPLINE
  5
54D
100
AcDbEntity
  8
0
100
AcDbSpline
 62
9
  6
CONTINUOUS
 70
0
 71
3
 72
9
 73
5
 74
0
 42
0.0000001
 43
0.0000001
 44
0.0000000001
 40
0.0
 40
0.0
 40
0.0
 40
0.0
 40
0.2507216229
 40
1.0
 40
1.0
 40
1.0
 40
1.0
 10
9.9904534608
 20
8.8427637993
 30
0.0
 10
9.9906788026
 20
8.8430760232
 30
0.0
 10
9.9916330027
 20
8.8442811329
 30
0.0
 10
9.9927898358
 20
8.8453195751
 30
0.0
 10
9.993720705
 20
8.8459960548
 30
0.0
  0
SPLINE
  5
54E
100
AcDbEntity
  8
0
100
AcDbSpline
 62
9
  6
CONTINUOUS
 70
0
 71
3
 72
28
 73
24
 74
0
 42
0.0000001
 43
0.0000001
 44
0.0000000001
 40
0.0
 40
0.0
 40
0.0
 40
0.0
 40
0.0624008032
 40
0.127229124
 40
0.192796409
 40
0.2255076256
 40
0.2580920198
 40
0.3228735762
 40
0.3550994495
 40
0.3872395719
 40
0.4512678956
 40
0.5149229707
 40
0.5465784925
 40
0.5781053413
 40
0.6094978695
 40
0.6407489476
 40
0.702776425
 40
0.7640853631
 40
0.8245997499
 40
0.884204319
 40
0.913608879
 40
0.942721632
 40
1.0
 40
1.0
 40
1.0
 40
1.0
 10
11.2467413197
 20
9.4658935215
 30
0.0
 10
11.2497236151
 20
9.4499720917
 30
0.0
 10
11.2564863715
 20
9.4176341104
 30
0.0
 10
11.268627557
 20
9.3690716348
 30
0.0
 10
11.2802155577
 20
9.3283416602
 30
0.0
 10
11.2901382822
 20
9.2958524118
 30
0.0
 10
11.3004018953
 20
9.2636832867
 30
0.0
 10
11.3112818793
 20
9.2318450184
 30
0.0
 10
11.3228741896
 20
9.2003867734
 30
0.0
 10
11.3349255235
 20
9.169311044
 30
0.0
 10
11.350849172
 20
9.1309934113
 30
0.0
 10
11.3677309418
 20
9.0932298913
 30
0.0
 10
11.3815379641
 20
9.0633394582
 30
0.0
 10
11.3919733663
 20
9.0411172875
 30
0.0
 10
11.4024626621
 20
9.0190367947
 30
0.0
 10
11.4164261926
 20
8.9898414457
 30
0.0
 10
11.4337382142
 20
8.9536389629
 30
0.0
 10
11.453805063
 20
8.9103355336
 30
0.0
 10
11.4728034526
 20
8.8672378288
 30
0.0
 10
11.4875256303
 20
8.8313162466
 30
0.0
 10
11.4983543889
 20
8.8026269729
 30
0.0
 10
11.5083776244
 20
8.774287046
 30
0.0
 10
11.5151718849
 20
8.7529045669
 30
0.0
 10
11.5193336636
 20
8.7386302685
 30
0.0
  0
SPLINE
  5
54F
100
AcDbEntity
  8
0
100
AcDbSpline
 62
9
  6
CONTINUOUS
 70
0
 71
3
 72
21
 73
17
 74
0
 42
0.0000001
 43
0.0000001
 44
0.0000000001
 40
0.0
 40
0.0
 40
0.0
 40
0.0
 40
0.1756578507
 40
0.3379868871
 40
0.4138978283
 40
0.486175395
 40
0.5547582062
 40
0.6196012741
 40
0.6806615439
 40
0.7378984658
 40
0.791275483
 40
0.8407695043
 40
0.8863724056
 40
0.9280896499
 40
0.9659464575
 40
1.0
 40
1.0
 40
1.0
 40
1.0
 10
10.0417362706
 20
8.8818964912
 30
0.0
 10
10.0679898704
 20
8.9135841113
 30
0.0
 10
10.1187141946
 20
8.974382033
 30
0.0
 10
10.181439911
 20
9.0483233558
 30
0.0
 10
10.2289144126
 20
9.1034395757
 30
0.0
 10
10.262263842
 20
9.1417363298
 30
0.0
 10
10.2941473004
 20
9.1778703648
 30
0.0
 10
10.3245651592
 20
9.2117913337
 30
0.0
 10
10.3535184968
 20
9.2434530834
 30
0.0
 10
10.3810098542
 20
9.272808459
 30
0.0
 10
10.4070396958
 20
9.2998156411
 30
0.0
 10
10.4316285947
 20
9.3244196203
 30
0.0
 10
10.4548094555
 20
9.3465584211
 30
0.0
 10
10.4766159413
 20
9.3661732667
 30
0.0
 10
10.4970790778
 20
9.3832092206
 30
0.0
 10
10.5105583929
 20
9.3933320386
 30
0.0
 10
10.5170939491
 20
9.3979067126
 30
0.0
  0
LINE
  5
550
100
AcDbEntity
  8
0
100
AcDbLine
 62
9
  6
CONTINUOUS
 10
9.9937207062
 20
8.8459960538
 11
10.011362958
 21
8.8793668493
  0
LINE
  5
551
100
AcDbEntity
  8
0
100
AcDbLine
 62
9
  6
CONTINUOUS
 10
10.011362958
 20
8.8793668493
 11
10.0120534625
 21
8.8806418682
  0
LINE
  5
552
100
AcDbEntity
  8
0
100
AcDbLine
 62
9
  6
CONTINUOUS
 10
10.0120534625
 20
8.8806418682
 11
10.0120833973
 21
8.8807427513
  0
LINE
  5
553
100
AcDbEntity
  8
0
100
AcDbLine
 62
7
  6
CONTINUOUS
 10
10.4909691809
 20
10.7989100502
 11
10.4909634372
 21
10.7871478253
  0
LINE
  5
554
100
AcDbEntity
  8
0
100
AcDbLine
 62
9
  6
CONTINUOUS
 10
10.0213960394
 20
8.8941692994
 11
10.0247205345
 21
8.897607267
  0
SPLINE
  5
555
100
AcDbEntity
  8
0
100
AcDbSpline
 62
9
  6
CONTINUOUS
 70
0
 71
3
 72
15
 73
11
 74
0
 42
0.0000001
 43
0.0000001
 44
0.0000000001
 40
0.0
 40
0.0
 40
0.0
 40
0.0
 40
0.0840243087
 40
0.1797131018
 40
0.2872516344
 40
0.4066455286
 40
0.5377879878
 40
0.68055873
 40
0.8347175118
 40
1.0
 40
1.0
 40
1.0
 40
1.0
 10
10.4807481236
 20
10.3133243595
 30
0.0
 10
10.4660642758
 20
10.3256052767
 30
0.0
 10
10.4351645789
 20
10.3524798173
 30
0.0
 10
10.3871003455
 20
10.3969037853
 30
0.0
 10
10.3344381951
 20
10.4481881009
 30
0.0
 10
10.2773655759
 20
10.5064867286
 30
0.0
 10
10.2161501334
 20
10.5719297542
 30
0.0
 10
10.1510814161
 20
10.6445833601
 30
0.0
 10
10.0826532794
 20
10.7246336696
 30
0.0
 10
10.0367394553
 20
10.7811098064
 30
0.0
 10
10.0133556062
 20
10.810623952
 30
0.0
  0
SPLINE
  5
556
100
AcDbEntity
  8
0
100
AcDbSpline
 62
9
  6
CONTINUOUS
 70
0
 71
3
 72
13
 73
9
 74
0
 42
0.0000001
 43
0.0000001
 44
0.0000000001
 40
0.0
 40
0.0
 40
0.0
 40
0.0
 40
0.1143334844
 40
0.2370732387
 40
0.4962769905
 40
0.7575628639
 40
0.8826806702
 40
1.0
 40
1.0
 40
1.0
 40
1.0
 10
10.0247205345
 20
8.897607267
 30
0.0
 10
10.0250205103
 20
8.8967446968
 30
0.0
 10
10.0257791869
 20
8.8950019049
 30
0.0
 10
10.0277985452
 20
8.8915834968
 30
0.0
 10
10.0311640903
 20
8.8876313543
 30
0.0
 10
10.0353951104
 20
8.884596246
 30
0.0
 10
10.0390062662
 20
8.8828097451
 30
0.0
 10
10.0408343483
 20
8.8821524641
 30
0.0
 10
10.0417358451
 20
8.8818966397
 30
0.0
  0
SPLINE
  5
557
100
AcDbEntity
  8
0
100
AcDbSpline
 62
9
  6
CONTINUOUS
 70
0
 71
3
 72
17
 73
13
 74
0
 42
0.0000001
 43
0.0000001
 44
0.0000000001
 40
0.0
 40
0.0
 40
0.0
 40
0.0
 40
0.0384546471
 40
0.0800533887
 40
0.1728151113
 40
0.2785325971
 40
0.397279531
 40
0.5290257882
 40
0.673593642
 40
0.7505924002
 40
0.8306840335
 40
1.0
 40
1.0
 40
1.0
 40
1.0
 10
10.4827852668
 20
10.2746382085
 30
0.0
 10
10.4756761176
 20
10.2803846265
 30
0.0
 10
10.4610156134
 20
10.2925199564
 30
0.0
 10
10.4298871395
 20
10.3193302286
 30
0.0
 10
10.3876746869
 20
10.357753875
 30
0.0
 10
10.3334296572
 20
10.4101499705
 30
0.0
 10
10.2741106557
 20
10.4705891767
 30
0.0
 10
10.2099953317
 20
10.5392202834
 30
0.0
 10
10.1541487584
 20
10.6019618697
 30
0.0
 10
10.1074408469
 20
10.6563739239
 30
0.0
 10
10.0576364817
 20
10.7158729569
 30
0.0
 10
10.0205015438
 20
10.7621028496
 30
0.0
 10
9.9957373125
 20
10.7938312245
 30
0.0
  0
LINE
  5
558
100
AcDbEntity
  8
0
100
AcDbLine
 62
9
  6
CONTINUOUS
 10
9.8089161982
 20
11.0945860407
 11
9.8076333964
 21
11.0965698526
  0
SPLINE
  5
559
100
AcDbEntity
  8
0
100
AcDbSpline
 62
9
  6
CONTINUOUS
 70
0
 71
3
 72
9
 73
5
 74
0
 42
0.0000001
 43
0.0000001
 44
0.0000000001
 40
0.0
 40
0.0
 40
0.0
 40
0.0
 40
0.2500919586
 40
1.0
 40
1.0
 40
1.0
 40
1.0
 10
10.0246873286
 20
8.8976064758
 30
0.0
 10
10.022613558
 20
8.9762716319
 30
0.0
 10
10.0155855821
 20
9.2908508612
 30
0.0
 10
10.0123631881
 20
9.6054968868
 30
0.0
 10
10.0099711636
 20
9.8414464787
 30
0.0
  0
SPLINE
  5
55A
100
AcDbEntity
  8
0
100
AcDbSpline
 62
9
  6
CONTINUOUS
 70
0
 71
3
 72
17
 73
13
 74
0
 42
0.0000001
 43
0.0000001
 44
0.0000000001
 40
0.0
 40
0.0
 40
0.0
 40
0.0
 40
0.1625929061
 40
0.3159157652
 40
0.4588976725
 40
0.5906057166
 40
0.7106725881
 40
0.8188789226
 40
0.8684991585
 40
0.9151843211
 40
0.9589986405
 40
1.0
 40
1.0
 40
1.0
 40
1.0
 10
10.0099818143
 20
9.8414465773
 30
0.0
 10
10.036584976
 20
9.8414140372
 30
0.0
 10
10.0882751496
 20
9.8416406521
 30
0.0
 10
10.1633535587
 20
9.8426013751
 30
0.0
 10
10.2333733103
 20
9.8438463585
 30
0.0
 10
10.2979515662
 20
9.8450519157
 30
0.0
 10
10.3568452693
 20
9.845895345
 30
0.0
 10
10.4023158388
 20
9.8460421756
 30
0.0
 10
10.4357757199
 20
9.8456089663
 30
0.0
 10
10.4586944507
 20
9.8449859049
 30
0.0
 10
10.4801892485
 20
9.8439996562
 30
0.0
 10
10.4940358061
 20
9.8430529557
 30
0.0
 10
10.5007227052
 20
9.8425141133
 30
0.0
  0
SPLINE
  5
55B
100
AcDbEntity
  8
0
100
AcDbSpline
 62
9
  6
CONTINUOUS
 70
0
 71
3
 72
26
 73
22
 74
0
 42
0.0000001
 43
0.0000001
 44
0.0000000001
 40
0.0
 40
0.0
 40
0.0
 40
0.0
 40
0.0623115362
 40
0.094473154
 40
0.1270375981
 40
0.1925892534
 40
0.2578973668
 40
0.3227089555
 40
0.3870932527
 40
0.4191576417
 40
0.4511412681
 40
0.5148242996
 40
0.5780551977
 40
0.6407414102
 40
0.7027770344
 40
0.7640753565
 40
0.8245937804
 40
0.8842093619
 40
0.9136161613
 40
0.9427280088
 40
1.0
 40
1.0
 40
1.0
 40
1.0
 10
10.8489695353
 20
9.4660213461
 30
0.0
 10
10.8460231239
 20
9.4501088721
 30
0.0
 10
10.8410677431
 20
9.4260698094
 30
0.0
 10
10.8334176227
 20
9.3939743163
 30
0.0
 10
10.8249113047
 20
9.3612243078
 30
0.0
 10
10.8131515132
 20
9.3204357839
 30
0.0
 10
10.7978327133
 20
9.2719762582
 30
0.0
 10
10.7812419284
 20
9.2242555783
 30
0.0
 10
10.7662476435
 20
9.1851424742
 30
0.0
 10
10.7535698394
 20
9.1542893281
 30
0.0
 10
10.7405141687
 20
9.1237922579
 30
0.0
 10
10.7235802791
 20
9.0861557831
 30
0.0
 10
10.7026551315
 20
9.0415808103
 30
0.0
 10
10.6815427045
 20
8.9975694303
 30
0.0
 10
10.6607588643
 20
8.9539567596
 30
0.0
 10
10.6407763271
 20
8.9105886084
 30
0.0
 10
10.6218155568
 20
8.8674487329
 30
0.0
 10
10.6071008142
 20
8.831499064
 30
0.0
 10
10.5962848767
 20
8.802785684
 30
0.0
 10
10.5862787113
 20
8.7744257309
 30
0.0
 10
10.5794975884
 20
8.7530297908
 30
0.0
 10
10.5753427867
 20
8.7387477195
 30
0.0
  0
SPLINE
  5
55C
100
AcDbEntity
  8
0
100
AcDbSpline
 62
9
  6
CONTINUOUS
 70
0
 71
3
 72
9
 73
5
 74
0
 42
0.0000001
 43
0.0000001
 44
0.0000000001
 40
0.0
 40
0.0
 40
0.0
 40
0.0
 40
0.249948219
 40
1.0
 40
1.0
 40
1.0
 40
1.0
 10
9.9326578375
 20
10.8768051478
 30
0.0
 10
9.9343474542
 20
10.7905862677
 30
0.0
 10
9.9401432019
 20
10.4456198884
 30
0.0
 10
9.9430530125
 20
10.1006146795
 30
0.0
 10
9.9452491016
 20
9.8418462355
 30
0.0
  0
LINE
  5
55D
100
AcDbEntity
  8
0
100
AcDbLine
 62
9
  6
CONTINUOUS
 10
12.2869954721
 20
11.0965721225
 11
12.2857053033
 21
11.0945836814
  0
SPLINE
  5
55E
100
AcDbEntity
  8
0
100
AcDbSpline
 62
9
  6
CONTINUOUS
 70
0
 71
3
 72
13
 73
9
 74
0
 42
0.0000001
 43
0.0000001
 44
0.0000000001
 40
0.0
 40
0.0
 40
0.0
 40
0.0
 40
0.2597966376
 40
0.3872718972
 40
0.5131265708
 40
0.6373371655
 40
0.7598814335
 40
1.0
 40
1.0
 40
1.0
 40
1.0
 10
12.2857053033
 20
11.0945836814
 30
0.0
 10
12.2740903955
 20
11.0766942502
 30
0.0
 10
12.2565605578
 20
11.050165726
 30
0.0
 10
12.2328457925
 20
11.0153463763
 30
0.0
 10
12.2151595794
 20
10.9898909472
 30
0.0
 10
12.197491323
 20
10.9649174436
 30
0.0
 10
12.1741529774
 20
10.9324656423
 30
0.0
 10
12.1564775888
 20
10.9085027265
 30
0.0
 10
12.1446290976
 20
10.8927469847
 30
0.0
  0
LINE
  5
55F
100
AcDbEntity
  8
0
100
AcDbLine
 62
9
  6
CONTINUOUS
 10
9.9979754177
 20
9.8417055519
 11
10.0099818245
 21
9.8414455632
  0
SPLINE
  5
560
100
AcDbEntity
  8
0
100
AcDbSpline
 62
9
  6
CONTINUOUS
 70
0
 71
3
 72
12
 73
8
 74
0
 42
0.0000001
 43
0.0000001
 44
0.0000000001
 40
0.0
 40
0.0
 40
0.0
 40
0.0
 40
0.3258723253
 40
0.604417338
 40
0.8302078441
 40
0.9221934083
 40
1.0
 40
1.0
 40
1.0
 40
1.0
 10
10.00988216
 20
10.8156755591
 30
0.0
 10
10.009219858
 20
10.817140757
 30
0.0
 10
10.0080067213
 20
10.8198656377
 30
0.0
 10
10.0064404403
 20
10.8236508531
 30
0.0
 10
10.0054443519
 20
10.8264233561
 30
0.0
 10
10.0049350748
 20
10.8283086506
 30
0.0
 10
10.0047802927
 20
10.8291337987
 30
0.0
 10
10.0047345609
 20
10.8295149818
 30
0.0
  0
SPLINE
  5
561
100
AcDbEntity
  8
0
100
AcDbSpline
 62
9
  6
CONTINUOUS
 70
0
 71
3
 72
11
 73
7
 74
0
 42
0.0000001
 43
0.0000001
 44
0.0000000001
 40
0.0
 40
0.0
 40
0.0
 40
0.0
 40
0.3318929927
 40
0.6003996403
 40
0.8166614693
 40
1.0
 40
1.0
 40
1.0
 40
1.0
 10
10.0047345609
 20
10.8295149818
 30
0.0
 10
10.0046977255
 20
10.8298220115
 30
0.0
 10
10.0046605893
 20
10.8303823013
 30
0.0
 10
10.0047379857
 20
10.8311440475
 30
0.0
 10
10.0049519998
 20
10.8317383237
 30
0.0
 10
10.0052070724
 20
10.8320270991
 30
0.0
 10
10.0053472148
 20
10.8321247703
 30
0.0
  0
LINE
  5
562
100
AcDbEntity
  8
0
100
AcDbLine
 62
9
  6
CONTINUOUS
 10
10.0053472148
 20
10.8321247703
 11
10.0056976323
 21
10.8323233038
  0
SPLINE
  5
563
100
AcDbEntity
  8
0
100
AcDbSpline
 62
9
  6
CONTINUOUS
 70
0
 71
3
 72
9
 73
5
 74
0
 42
0.0000001
 43
0.0000001
 44
0.0000000001
 40
0.0
 40
0.0
 40
0.0
 40
0.0
 40
0.3228787815
 40
1.0
 40
1.0
 40
1.0
 40
1.0
 10
10.0056976323
 20
10.8323233038
 30
0.0
 10
10.0057054513
 20
10.8323265756
 30
0.0
 10
10.0057297959
 20
10.8323359878
 30
0.0
 10
10.0057555433
 20
10.8323444368
 30
0.0
 10
10.0057733184
 20
10.8323443688
 30
0.0
  0
LINE
  5
564
100
AcDbEntity
  8
0
100
AcDbLine
 62
9
  6
CONTINUOUS
 10
10.0320778605
 20
8.8612054579
 11
10.0319305572
 21
8.8613155263
  0
SPLINE
  5
565
100
AcDbEntity
  8
0
100
AcDbSpline
 62
9
  6
CONTINUOUS
 70
0
 71
3
 72
9
 73
5
 74
0
 42
0.0000001
 43
0.0000001
 44
0.0000000001
 40
0.0
 40
0.0
 40
0.0
 40
0.0
 40
0.5148213514
 40
1.0
 40
1.0
 40
1.0
 40
1.0
 10
10.0242188283
 20
8.8629100322
 30
0.0
 10
10.0254728653
 20
8.8623892355
 30
0.0
 10
10.0280084538
 20
8.8616035884
 30
0.0
 10
10.0306509408
 20
8.8613103141
 30
0.0
 10
10.0319306255
 20
8.8613154784
 30
0.0
  0
LINE
  5
566
100
AcDbEntity
  8
0
100
AcDbLine
 62
9
  6
CONTINUOUS
 10
9.7941580166
 20
11.0780089215
 11
9.7930639474
 21
11.0797260118
  0
SPLINE
  5
567
100
AcDbEntity
  8
0
100
AcDbSpline
 62
9
  6
CONTINUOUS
 70
0
 71
3
 72
14
 73
10
 74
0
 42
0.0000001
 43
0.0000001
 44
0.0000000001
 40
0.0
 40
0.0
 40
0.0
 40
0.0
 40
0.0599450969
 40
0.1302875863
 40
0.2182010949
 40
0.3275189567
 40
0.4601835457
 40
0.6167072492
 40
1.0
 40
1.0
 40
1.0
 40
1.0
 10
12.0894806513
 20
10.8321415973
 30
0.0
 10
12.089620276
 20
10.8320491474
 30
0.0
 10
12.0898745849
 20
10.8317692412
 30
0.0
 10
12.0900772025
 20
10.8311836583
 30
0.0
 10
12.0901389492
 20
10.8304340752
 30
0.0
 10
12.0900627352
 20
10.8295128565
 30
0.0
 10
12.0898474614
 20
10.8284191454
 30
0.0
 10
12.0893507528
 20
10.8266063713
 30
0.0
 10
12.0888414922
 20
10.8251849188
 30
0.0
 10
12.0884617243
 20
10.824183796
 30
0.0
  0
LINE
  5
568
100
AcDbEntity
  8
0
100
AcDbLine
 62
9
  6
CONTINUOUS
 10
12.0884617243
 20
10.824183796
 11
12.0848218567
 21
10.815674891
  0
SPLINE
  5
569
100
AcDbEntity
  8
0
100
AcDbSpline
 62
9
  6
CONTINUOUS
 70
0
 71
3
 72
9
 73
5
 74
0
 42
0.0000001
 43
0.0000001
 44
0.0000000001
 40
0.0
 40
0.0
 40
0.0
 40
0.0
 40
0.1805226757
 40
1.0
 40
1.0
 40
1.0
 40
1.0
 10
12.0890818224
 20
10.8323435392
 30
0.0
 10
12.0890864702
 20
10.8323435541
 30
0.0
 10
12.089112185
 20
10.8323406394
 30
0.0
 10
12.0891365247
 20
10.8323311358
 30
0.0
 10
12.0891560093
 20
10.8323230419
 30
0.0
  0
LINE
  5
56A
100
AcDbEntity
  8
0
100
AcDbLine
 62
9
  6
CONTINUOUS
 10
12.0891560093
 20
10.8323230419
 11
12.0894806513
 21
10.8321415973
  0
SPLINE
  5
56B
100
AcDbEntity
  8
0
100
AcDbSpline
 62
9
  6
CONTINUOUS
 70
0
 71
3
 72
9
 73
5
 74
0
 42
0.0000001
 43
0.0000001
 44
0.0000000001
 40
0.0
 40
0.0
 40
0.0
 40
0.0
 40
0.5160135007
 40
1.0
 40
1.0
 40
1.0
 40
1.0
 10
12.0982246789
 20
10.8301701934
 30
0.0
 10
12.0968304088
 20
10.8308521532
 30
0.0
 10
12.0939557236
 20
10.8318454362
 30
0.0
 10
12.0909363931
 20
10.8321549586
 30
0.0
 10
12.0894806742
 20
10.8321415823
 30
0.0
  0
SPLINE
  5
56C
100
AcDbEntity
  8
0
100
AcDbSpline
 62
9
  6
CONTINUOUS
 70
0
 71
3
 72
9
 73
5
 74
0
 42
0.0000001
 43
0.0000001
 44
0.0000000001
 40
0.0
 40
0.0
 40
0.0
 40
0.0
 40
0.2575329272
 40
1.0
 40
1.0
 40
1.0
 40
1.0
 10
9.9957373172
 20
10.7938312417
 30
0.0
 10
9.9953263083
 20
10.7942395953
 30
0.0
 10
9.9937577758
 20
10.7958524232
 30
0.0
 10
9.9923020209
 20
10.7975762016
 30
0.0
 10
9.991303674
 20
10.798915372
 30
0.0
  0
SPLINE
  5
56D
100
AcDbEntity
  8
0
100
AcDbSpline
 62
9
  6
CONTINUOUS
 70
0
 71
3
 72
14
 73
10
 74
0
 42
0.0000001
 43
0.0000001
 44
0.0000000001
 40
0.0
 40
0.0
 40
0.0
 40
0.0
 40
0.1087360057
 40
0.227385015
 40
0.4831706896
 40
0.6163489411
 40
0.7493697857
 40
0.8785763364
 40
1.0
 40
1.0
 40
1.0
 40
1.0
 10
9.991303674
 20
10.798915372
 30
0.0
 10
9.9915098808
 20
10.799846515
 30
0.0
 10
9.9921367134
 20
10.8017529748
 30
0.0
 10
9.994072047
 20
10.8055338923
 30
0.0
 10
9.9969530544
 20
10.8090308494
 30
0.0
 10
10.0005907236
 20
10.8118306693
 30
0.0
 10
10.0036039189
 20
10.8135679916
 30
0.0
 10
10.0067115169
 20
10.8148785803
 30
0.0
 10
10.0088373122
 20
10.8154704526
 30
0.0
 10
10.0098823487
 20
10.8156756076
 30
0.0
  0
SPLINE
  5
56E
100
AcDbEntity
  8
0
100
AcDbSpline
 62
9
  6
CONTINUOUS
 70
0
 71
3
 72
13
 73
9
 74
0
 42
0.0000001
 43
0.0000001
 44
0.0000000001
 40
0.0
 40
0.0
 40
0.0
 40
0.0
 40
0.1108856019
 40
0.2312414659
 40
0.489019146
 40
0.7530938121
 40
0.8804356087
 40
1.0
 40
1.0
 40
1.0
 40
1.0
 10
9.9326578608
 20
10.8768051663
 30
0.0
 10
9.93294003
 20
10.8776604351
 30
0.0
 10
9.9336735669
 20
10.8793978537
 30
0.0
 10
9.9356758642
 20
10.8828359537
 30
0.0
 10
9.9390924935
 20
10.8868513883
 30
0.0
 10
9.943421237
 20
10.8899496174
 30
0.0
 10
9.9471410158
 20
10.8918016992
 30
0.0
 10
9.9490309218
 20
10.8924908113
 30
0.0
 10
9.9499637198
 20
10.8927608626
 30
0.0
  0
SPLINE
  5
56F
100
AcDbEntity
  8
0
100
AcDbSpline
 62
9
  6
CONTINUOUS
 70
0
 71
3
 72
12
 73
8
 74
0
 42
0.0000001
 43
0.0000001
 44
0.0000000001
 40
0.0
 40
0.0
 40
0.0
 40
0.0
 40
0.2732641467
 40
0.531246638
 40
0.7707324535
 40
0.8861495403
 40
1.0
 40
1.0
 40
1.0
 40
1.0
 10
10.4591763088
 20
5.0325528512
 30
0.0
 10
10.4592996617
 20
5.0345538082
 30
0.0
 10
10.4600455825
 20
5.0384340729
 30
0.0
 10
10.4626144521
 20
5.0435598297
 30
0.0
 10
10.465902857
 20
5.0467817619
 30
0.0
 10
10.4689599089
 20
5.0483971675
 30
0.0
 10
10.4705832552
 20
5.0488840502
 30
0.0
 10
10.4714027809
 20
5.049045329
 30
0.0
  0
SPLINE
  5
570
100
AcDbEntity
  8
0
100
AcDbSpline
 62
9
  6
CONTINUOUS
 70
0
 71
3
 72
10
 73
6
 74
0
 42
0.0000001
 43
0.0000001
 44
0.0000000001
 40
0.0
 40
0.0
 40
0.0
 40
0.0
 40
0.2502213123
 40
0.6252790588
 40
1.0
 40
1.0
 40
1.0
 40
1.0
 10
10.4425366022
 20
3.8938972172
 30
0.0
 10
10.4433105531
 20
3.9878332126
 30
0.0
 10
10.4456192233
 20
4.2225673134
 30
0.0
 10
10.4508157988
 20
4.5979571066
 30
0.0
 10
10.4560033291
 20
4.879395642
 30
0.0
 10
10.4589168495
 20
5.0200448497
 30
0.0
  0
LINE
  5
571
100
AcDbEntity
  8
0
100
AcDbLine
 62
9
  6
CONTINUOUS
 10
10.4589168495
 20
5.0200448497
 11
10.4591767987
 21
5.0325527868
  0
SPLINE
  5
572
100
AcDbEntity
  8
0
100
AcDbSpline
 62
9
  6
CONTINUOUS
 70
0
 71
3
 72
13
 73
9
 74
0
 42
0.0000001
 43
0.0000001
 44
0.0000000001
 40
0.0
 40
0.0
 40
0.0
 40
0.0
 40
0.1129952223
 40
0.2349233103
 40
0.4282971495
 40
0.6264101639
 40
0.8204198324
 40
1.0
 40
1.0
 40
1.0
 40
1.0
 10
9.9348746024
 20
10.8749651619
 30
0.0
 10
9.9351724964
 20
10.8758076054
 30
0.0
 10
9.9359194851
 20
10.877515356
 30
0.0
 10
9.937631353
 20
10.8804441441
 30
0.0
 10
9.9401432728
 20
10.8836595747
 30
0.0
 10
9.943591236
 20
10.8867833151
 30
0.0
 10
9.947397233
 20
10.8892531101
 30
0.0
 10
9.9501063827
 20
10.8904731668
 30
0.0
 10
9.9514525638
 20
10.8909254005
 30
0.0
  0
SPLINE
  5
573
100
AcDbEntity
  8
0
100
AcDbSpline
 62
9
  6
CONTINUOUS
 70
0
 71
3
 72
16
 73
12
 74
0
 42
0.0000001
 43
0.0000001
 44
0.0000000001
 40
0.0
 40
0.0
 40
0.0
 40
0.0
 40
0.1407840806
 40
0.2789161763
 40
0.3466749504
 40
0.4134275151
 40
0.5435431119
 40
0.6682975447
 40
0.7865484537
 40
0.897379605
 40
1.0
 40
1.0
 40
1.0
 40
1.0
 10
9.9698603501
 20
10.853407324
 30
0.0
 10
9.9692231595
 20
10.8552665481
 30
0.0
 10
9.9679175804
 20
10.8589354801
 30
0.0
 10
9.9661274462
 20
10.8634338424
 30
0.0
 10
9.964581877
 20
10.8669126505
 30
0.0
 10
9.9629798522
 20
10.8702420379
 30
0.0
 10
9.9608885688
 20
10.8742164233
 30
0.0
 10
9.958362172
 20
10.8787715137
 30
0.0
 10
9.9559981282
 20
10.8831087982
 30
0.0
 10
9.953745503
 20
10.8871546546
 30
0.0
 10
9.9522205352
 20
10.8897160277
 30
0.0
 10
9.9514525638
 20
10.8909254005
 30
0.0
  0
SPLINE
  5
574
100
AcDbEntity
  8
0
100
AcDbSpline
 62
9
  6
CONTINUOUS
 70
0
 71
3
 72
16
 73
12
 74
0
 42
0.0000001
 43
0.0000001
 44
0.0000000001
 40
0.0
 40
0.0
 40
0.0
 40
0.0
 40
0.1025029943
 40
0.2132961586
 40
0.331560818
 40
0.4563404945
 40
0.5864745521
 40
0.6532415553
 40
0.7210189977
 40
0.8591881791
 40
1.0
 40
1.0
 40
1.0
 40
1.0
 10
12.1431553464
 20
10.8909244414
 30
0.0
 10
12.1423953095
 20
10.889712443
 30
0.0
 10
12.1408813047
 20
10.8871481953
 30
0.0
 10
12.1386334173
 20
10.8831034164
 30
0.0
 10
12.1362576585
 20
10.8787740253
 30
0.0
 10
12.1337255892
 20
10.8742226938
 30
0.0
 10
12.1316424533
 20
10.8702442457
 30
0.0
 10
12.1300515444
 20
10.8669098112
 30
0.0
 10
12.1285150765
 20
10.8634270408
 30
0.0
 10
12.1267262392
 20
10.858928519
 30
0.0
 10
12.1254116862
 20
10.8552630299
 30
0.0
 10
12.1247672717
 20
10.853406433
 30
0.0
  0
SPLINE
  5
575
100
AcDbEntity
  8
0
100
AcDbSpline
 62
9
  6
CONTINUOUS
 70
0
 71
3
 72
11
 73
7
 74
0
 42
0.0000001
 43
0.0000001
 44
0.0000000001
 40
0.0
 40
0.0
 40
0.0
 40
0.0
 40
0.1795279444
 40
0.4049171381
 40
0.6784014753
 40
1.0
 40
1.0
 40
1.0
 40
1.0
 10
9.9847149078
 20
10.8102640196
 30
0.0
 10
9.9847307443
 20
10.8099644783
 30
0.0
 10
9.9848682977
 20
10.809295453
 30
0.0
 10
9.9852663605
 20
10.8082325138
 30
0.0
 10
9.985870088
 20
10.8069998223
 30
0.0
 10
9.9863645362
 20
10.8061367055
 30
0.0
 10
9.9866412394
 20
10.8056760932
 30
0.0
  0
LINE
  5
576
100
AcDbEntity
  8
0
100
AcDbLine
 62
9
  6
CONTINUOUS
 10
9.9866412394
 20
10.8056760932
 11
9.9913043412
 21
10.7989166977
  0
SPLINE
  5
577
100
AcDbEntity
  8
0
100
AcDbSpline
 62
9
  6
CONTINUOUS
 70
0
 71
3
 72
9
 73
5
 74
0
 42
0.0000001
 43
0.0000001
 44
0.0000000001
 40
0.0
 40
0.0
 40
0.0
 40
0.0
 40
0.2546783107
 40
1.0
 40
1.0
 40
1.0
 40
1.0
 10
10.0133555038
 20
10.810623925
 30
0.0
 10
10.0130321638
 20
10.8110320303
 30
0.0
 10
10.011789256
 20
10.8126553788
 30
0.0
 10
10.0106552714
 20
10.8143625561
 30
0.0
 10
10.0098820089
 20
10.8156755291
 30
0.0
  0
SPLINE
  5
578
100
AcDbEntity
  8
0
100
AcDbSpline
 62
9
  6
CONTINUOUS
 70
0
 71
3
 72
11
 73
7
 74
0
 42
0.0000001
 43
0.0000001
 44
0.0000000001
 40
0.0
 40
0.0
 40
0.0
 40
0.0
 40
0.2355691022
 40
0.489429985
 40
0.7471777288
 40
1.0
 40
1.0
 40
1.0
 40
1.0
 10
10.4623948988
 20
3.8766385324
 30
0.0
 10
10.4608751643
 20
3.8768022514
 30
0.0
 10
10.4577520467
 20
3.8775014894
 30
0.0
 10
10.4532680937
 20
3.8794088673
 30
0.0
 10
10.4491394618
 20
3.882234838
 30
0.0
 10
10.4469348679
 20
3.8847622653
 30
0.0
 10
10.4460095312
 20
3.8861168571
 30
0.0
  0
SPLINE
  5
579
100
AcDbEntity
  8
0
100
AcDbSpline
 62
9
  6
CONTINUOUS
 70
0
 71
3
 72
9
 73
5
 74
0
 42
0.0000001
 43
0.0000001
 44
0.0000000001
 40
0.0
 40
0.0
 40
0.0
 40
0.0
 40
0.2569272321
 40
1.0
 40
1.0
 40
1.0
 40
1.0
 10
10.4460095312
 20
3.8861168571
 30
0.0
 10
10.4457664516
 20
3.8864726991
 30
0.0
 10
10.4448639105
 20
3.887886732
 30
0.0
 10
10.4441336494
 20
3.889412415
 30
0.0
 10
10.443713261
 20
3.8905857283
 30
0.0
  0
SPLINE
  5
57A
100
AcDbEntity
  8
0
100
AcDbSpline
 62
9
  6
CONTINUOUS
 70
0
 71
3
 72
9
 73
5
 74
0
 42
0.0000001
 43
0.0000001
 44
0.0000000001
 40
0.0
 40
0.0
 40
0.0
 40
0.0
 40
0.2610444523
 40
1.0
 40
1.0
 40
1.0
 40
1.0
 10
10.443713261
 20
3.8905857283
 30
0.0
 10
10.4435910353
 20
3.8909268632
 30
0.0
 10
10.4431625942
 20
3.892247048
 30
0.0
 10
10.442896387
 20
3.8936239561
 30
0.0
 10
10.4428257589
 20
3.8946473066
 30
0.0
  0
SPLINE
  5
57B
100
AcDbEntity
  8
0
100
AcDbSpline
 62
9
  6
CONTINUOUS
 70
0
 71
3
 72
9
 73
5
 74
0
 42
0.0000001
 43
0.0000001
 44
0.0000000001
 40
0.0
 40
0.0
 40
0.0
 40
0.0
 40
0.5162180673
 40
1.0
 40
1.0
 40
1.0
 40
1.0
 10
9.9965043045
 20
10.8301084874
 30
0.0
 10
9.9979120797
 20
10.8308067728
 30
0.0
 10
10.0008183279
 20
10.8318238753
 30
0.0
 10
10.0038745721
 20
10.8321391953
 30
0.0
 10
10.0053472032
 20
10.832124662
 30
0.0
  0
SPLINE
  5
57C
100
AcDbEntity
  8
0
100
AcDbSpline
 62
9
  6
CONTINUOUS
 70
0
 71
3
 72
19
 73
15
 74
0
 42
0.0000001
 43
0.0000001
 44
0.0000000001
 40
0.0
 40
0.0
 40
0.0
 40
0.0
 40
0.0486459132
 40
0.0737768916
 40
0.0994397803
 40
0.1523258402
 40
0.2072315222
 40
0.2640734121
 40
0.3227713479
 40
0.4455251264
 40
0.5750634977
 40
0.7109330822
 40
0.8527065373
 40
1.0
 40
1.0
 40
1.0
 40
1.0
 10
10.4428257589
 20
3.8946473066
 30
0.0
 10
10.4495635664
 20
3.9126543433
 30
0.0
 10
10.459487553
 20
3.9400748473
 30
0.0
 10
10.4724098006
 20
3.9771914287
 30
0.0
 10
10.485603982
 20
4.0159869097
 30
0.0
 10
10.5020111567
 20
4.0661180027
 30
0.0
 10
10.5211997012
 20
4.1282958292
 30
0.0
 10
10.5399153471
 20
4.1930130448
 30
0.0
 10
10.5644007793
 20
4.2839599278
 30
0.0
 10
10.592908736
 20
4.4035555583
 30
0.0
 10
10.6224228341
 20
4.5541494536
 30
0.0
 10
10.6463839057
 20
4.7133392214
 30
0.0
 10
10.6643887338
 20
4.8803614846
 30
0.0
 10
10.672479796
 20
4.994347109
 30
0.0
 10
10.6757369743
 20
5.052470702
 30
0.0
  0
LINE
  5
57D
100
AcDbEntity
  8
0
100
AcDbLine
 62
9
  6
CONTINUOUS
 10
9.9852744334
 20
10.8129280444
 11
9.9818609503
 21
10.8189381715
  0
LINE
  5
57E
100
AcDbEntity
  8
0
100
AcDbLine
 62
9
  6
CONTINUOUS
 10
9.9818609503
 20
10.8189381715
 11
9.9769536267
 21
10.8276283562
  0
LINE
  5
57F
100
AcDbEntity
  8
0
100
AcDbLine
 62
9
  6
CONTINUOUS
 10
9.9769536267
 20
10.8276283562
 11
9.9674556086
 21
10.8447102106
  0
SPLINE
  5
580
100
AcDbEntity
  8
0
100
AcDbSpline
 62
9
  6
CONTINUOUS
 70
0
 71
3
 72
19
 73
15
 74
0
 42
0.0000001
 43
0.0000001
 44
0.0000000001
 40
0.0
 40
0.0
 40
0.0
 40
0.0
 40
0.0988464574
 40
0.1515243767
 40
0.2062742419
 40
0.2630199559
 40
0.321685311
 40
0.4444866653
 40
0.5741582383
 40
0.7102472745
 40
0.7805731287
 40
0.8523455826
 40
0.9255081828
 40
1.0
 40
1.0
 40
1.0
 40
1.0
 10
10.4623948864
 20
3.8766384993
 30
0.0
 10
10.4763548157
 20
3.9138193509
 30
0.0
 10
10.4966349324
 20
3.9712413364
 30
0.0
 10
10.5222250291
 20
4.050072257
 30
0.0
 10
10.5415273214
 20
4.1131512872
 30
0.0
 10
10.5603969048
 20
4.1788679545
 30
0.0
 10
10.585122792
 20
4.2713342553
 30
0.0
 10
10.6138763766
 20
4.3930304815
 30
0.0
 10
10.6434628962
 20
4.5463690235
 30
0.0
 10
10.6631174554
 20
4.6800125187
 30
0.0
 10
10.6760179951
 20
4.7910428392
 30
0.0
 10
10.6843116706
 20
4.8771390187
 30
0.0
 10
10.6911451041
 20
4.9650408042
 30
0.0
 10
10.6947620285
 20
5.0242588947
 30
0.0
 10
10.696364158
 20
5.054145794
 30
0.0
  0
SPLINE
  5
581
100
AcDbEntity
  8
0
100
AcDbSpline
 62
9
  6
CONTINUOUS
 70
0
 71
3
 72
11
 73
7
 74
0
 42
0.0000001
 43
0.0000001
 44
0.0000000001
 40
0.0
 40
0.0
 40
0.0
 40
0.0
 40
0.2430012808
 40
0.4909568584
 40
0.7434397436
 40
1.0
 40
1.0
 40
1.0
 40
1.0
 10
10.696364158
 20
5.054145794
 30
0.0
 10
10.6985281878
 20
5.0945146545
 30
0.0
 10
10.7020818936
 20
5.1761208385
 30
0.0
 10
10.7053223821
 20
5.2997654471
 30
0.0
 10
10.7067226802
 20
5.4256996497
 30
0.0
 10
10.7065528116
 20
5.5103885651
 30
0.0
 10
10.7062394688
 20
5.5530699709
 30
0.0
  0
SPLINE
  5
582
100
AcDbEntity
  8
0
100
AcDbSpline
 62
9
  6
CONTINUOUS
 70
0
 71
3
 72
26
 73
22
 74
0
 42
0.0000001
 43
0.0000001
 44
0.0000000001
 40
0.0
 40
0.0
 40
0.0
 40
0.0
 40
0.0651665548
 40
0.1314106724
 40
0.1648345226
 40
0.1984038813
 40
0.2320741851
 40
0.2657959779
 40
0.2995192808
 40
0.3331934009
 40
0.4001770421
 40
0.4663249051
 40
0.5313286957
 40
0.5949579825
 40
0.6570545436
 40
0.7174648699
 40
0.7760965946
 40
0.8332462566
 40
0.8893436737
 40
0.9448011847
 40
1.0
 40
1.0
 40
1.0
 40
1.0
 10
10.7062394688
 20
5.5530699709
 30
0.0
 10
10.7057440103
 20
5.6205579384
 30
0.0
 10
10.7036108936
 20
5.756642013
 30
0.0
 10
10.6991261122
 20
5.9272951364
 30
0.0
 10
10.6950236061
 20
6.0652214598
 30
0.0
 10
10.6918439785
 20
6.1694252015
 30
0.0
 10
10.6886983786
 20
6.2739386763
 30
0.0
 10
10.6856062176
 20
6.3786132529
 30
0.0
 10
10.6826024117
 20
6.4832943684
 30
0.0
 10
10.6787657649
 20
6.6224133343
 30
0.0
 10
10.6741503889
 20
6.7951040296
 30
0.0
 10
10.6683766309
 20
7.0002218737
 30
0.0
 10
10.6621818624
 20
7.2018520472
 30
0.0
 10
10.6554185409
 20
7.3992660616
 30
0.0
 10
10.6479155525
 20
7.5918928849
 30
0.0
 10
10.6395145693
 20
7.7793024829
 30
0.0
 10
10.6299854105
 20
7.9615282115
 30
0.0
 10
10.6195022123
 20
8.139226713
 30
0.0
 10
10.6082961109
 20
8.3135865345
 30
0.0
 10
10.596639682
 20
8.4858914892
 30
0.0
 10
10.5887130908
 20
8.6002183433
 30
0.0
 10
10.5847535649
 20
8.6572477446
 30
0.0
  0
LINE
  5
583
100
AcDbEntity
  8
0
100
AcDbLine
 62
9
  6
CONTINUOUS
 10
10.5847535649
 20
8.6572477446
 11
10.583781254
 21
8.671250932
  0
SPLINE
  5
584
100
AcDbEntity
  8
0
100
AcDbSpline
 62
7
  6
CONTINUOUS
 70
0
 71
3
 72
13
 73
9
 74
0
 42
0.0000001
 43
0.0000001
 44
0.0000000001
 40
0.0
 40
0.0
 40
0.0
 40
0.0
 40
0.1343340363
 40
0.2728379608
 40
0.4118152161
 40
0.5472443359
 40
0.7948870978
 40
1.0
 40
1.0
 40
1.0
 40
1.0
 10
10.5836961995
 20
8.6711765588
 30
0.0
 10
10.604055719
 20
8.6661695315
 30
0.0
 10
10.6455638157
 20
8.6566269746
 30
0.0
 10
10.708634199
 20
8.6441904244
 30
0.0
 10
10.7722547851
 20
8.6338362979
 30
0.0
 10
10.8530742142
 20
8.6233968505
 30
0.0
 10
10.9446310461
 20
8.6159078552
 30
0.0
 10
11.0153053619
 20
8.6141044042
 30
0.0
 10
11.0473183382
 20
8.6141042622
 30
0.0
  0
SPLINE
  5
585
100
AcDbEntity
  8
0
100
AcDbSpline
 62
7
  6
CONTINUOUS
 70
0
 71
3
 72
13
 73
9
 74
0
 42
0.0000001
 43
0.0000001
 44
0.0000000001
 40
0.0
 40
0.0
 40
0.0
 40
0.0
 40
0.3059396448
 40
0.5460188285
 40
0.6576172269
 40
0.7683341114
 40
0.8811936633
 40
1.0
 40
1.0
 40
1.0
 40
1.0
 10
11.0473183382
 20
8.6141080202
 30
0.0
 10
11.0950615144
 20
8.6141078291
 30
0.0
 10
11.180308464
 20
8.6173554076
 30
0.0
 10
11.2824173467
 20
8.6281694237
 30
0.0
 10
11.3537953186
 20
8.6388079966
 30
0.0
 10
11.4053088884
 20
8.6479102749
 30
0.0
 10
11.4576761115
 20
8.6585439108
 30
0.0
 10
11.4928990644
 20
8.6667143437
 30
0.0
 10
11.5109005545
 20
8.6711512954
 30
0.0
  0
SPLINE
  5
586
100
AcDbEntity
  8
0
100
AcDbSpline
 62
9
  6
CONTINUOUS
 70
0
 71
3
 72
11
 73
7
 74
0
 42
0.0000001
 43
0.0000001
 44
0.0000000001
 40
0.0
 40
0.0
 40
0.0
 40
0.0
 40
0.2383291006
 40
0.4981489262
 40
0.7589671218
 40
1.0
 40
1.0
 40
1.0
 40
1.0
 10
9.9601389066
 20
8.8174024282
 30
0.0
 10
9.9608133237
 20
8.8157313674
 30
0.0
 10
9.9626803582
 20
8.81242042
 30
0.0
 10
9.9664274572
 20
8.8080247101
 30
0.0
 10
9.9710312387
 20
8.8045028771
 30
0.0
 10
9.974450572
 20
8.802785674
 30
0.0
 10
9.976167133
 20
8.8021734668
 30
0.0
  0
SPLINE
  5
587
100
AcDbEntity
  8
0
100
AcDbSpline
 62
9
  6
CONTINUOUS
 70
0
 71
3
 72
13
 73
9
 74
0
 42
0.0000001
 43
0.0000001
 44
0.0000000001
 40
0.0
 40
0.0
 40
0.0
 40
0.0
 40
0.1129820695
 40
0.2346474149
 40
0.4274737034
 40
0.6252331764
 40
0.8194055164
 40
1.0
 40
1.0
 40
1.0
 40
1.0
 10
12.1360770358
 20
8.8161895868
 30
0.0
 10
12.1357622575
 20
8.8153700266
 30
0.0
 10
12.134986382
 20
8.813713434
 30
0.0
 10
12.1332372811
 20
8.8108833443
 30
0.0
 10
12.130701041
 20
8.807790351
 30
0.0
 10
12.1272529167
 20
8.8047983514
 30
0.0
 10
12.1234624834
 20
8.8024398373
 30
0.0
 10
12.1207732697
 20
8.8012817221
 30
0.0
 10
12.1194371395
 20
8.8008527064
 30
0.0
  0
SPLINE
  5
588
100
AcDbEntity
  8
0
100
AcDbSpline
 62
9
  6
CONTINUOUS
 70
0
 71
3
 72
13
 73
9
 74
0
 42
0.0000001
 43
0.0000001
 44
0.0000000001
 40
0.0
 40
0.0
 40
0.0
 40
0.0
 40
0.3514020935
 40
0.6376894007
 40
0.7548662728
 40
0.8541631088
 40
0.9355907687
 40
1.0
 40
1.0
 40
1.0
 40
1.0
 10
12.1033536138
 20
10.79910427
 30
0.0
 10
12.1042940392
 20
10.8003583412
 30
0.0
 10
12.1059758877
 20
10.802652534
 30
0.0
 10
12.1078522764
 20
10.8054521199
 30
0.0
 10
12.10897114
 20
10.8073967554
 30
0.0
 10
12.1095580887
 20
10.8085909074
 30
0.0
 10
12.1099428052
 20
10.8096160078
 30
0.0
 10
12.1100736739
 20
10.810260008
 30
0.0
 10
12.1100865061
 20
10.8105470339
 30
0.0
  0
SPLINE
  5
589
100
AcDbEntity
  8
0
100
AcDbSpline
 62
9
  6
CONTINUOUS
 70
0
 71
3
 72
13
 73
9
 74
0
 42
0.0000001
 43
0.0000001
 44
0.0000000001
 40
0.0
 40
0.0
 40
0.0
 40
0.0
 40
0.1111142961
 40
0.2314112002
 40
0.4884939641
 40
0.7522425871
 40
0.8798694655
 40
1.0
 40
1.0
 40
1.0
 40
1.0
 10
12.0731149504
 20
8.8943610194
 30
0.0
 10
12.0728439414
 20
8.8934808917
 30
0.0
 10
12.0721209849
 20
8.8916946817
 30
0.0
 10
12.0701001411
 20
8.8881772812
 30
0.0
 10
12.066581519
 20
8.8841061668
 30
0.0
 10
12.0620720465
 20
8.8810731885
 30
0.0
 10
12.0581989539
 20
8.8793351407
 30
0.0
 10
12.0562317489
 20
8.8787217168
 30
0.0
 10
12.0552624515
 20
8.8784942341
 30
0.0
  0
LINE
  5
58A
100
AcDbEntity
  8
0
100
AcDbLine
 62
9
  6
CONTINUOUS
 10
12.0702646865
 20
8.8979141674
 11
12.0735811173
 21
8.8943542469
  0
SPLINE
  5
58B
100
AcDbEntity
  8
0
100
AcDbSpline
 62
9
  6
CONTINUOUS
 70
0
 71
3
 72
15
 73
11
 74
0
 42
0.0000001
 43
0.0000001
 44
0.0000000001
 40
0.0
 40
0.0
 40
0.0
 40
0.0
 40
0.1459089467
 40
0.295238083
 40
0.4413256327
 40
0.5781975229
 40
0.701745607
 40
0.8120437358
 40
0.9107068176
 40
1.0
 40
1.0
 40
1.0
 40
1.0
 10
10.5525308309
 20
9.0742631083
 30
0.0
 10
10.5514773613
 20
9.0741100455
 30
0.0
 10
10.5493608273
 20
9.0736887757
 30
0.0
 10
10.5462718207
 20
9.0727629546
 30
0.0
 10
10.5433547
 20
9.0715476764
 30
0.0
 10
10.540770503
 20
9.0700693039
 30
0.0
 10
10.5386872606
 20
9.0683158786
 30
0.0
 10
10.5371952961
 20
9.0663762527
 30
0.0
 10
10.5363055458
 20
9.0643658847
 30
0.0
 10
10.5361219669
 20
9.0629802751
 30
0.0
 10
10.5361497581
 20
9.0623293977
 30
0.0
  0
SPLINE
  5
58C
100
AcDbEntity
  8
0
100
AcDbSpline
 62
9
  6
CONTINUOUS
 70
0
 71
3
 72
16
 73
12
 74
0
 42
0.0000001
 43
0.0000001
 44
0.0000000001
 40
0.0
 40
0.0
 40
0.0
 40
0.0
 40
0.1479831033
 40
0.2985211403
 40
0.4450497765
 40
0.5149568457
 40
0.5817454883
 40
0.704392132
 40
0.8136281782
 40
0.9114345172
 40
1.0
 40
1.0
 40
1.0
 40
1.0
 10
10.5753427578
 20
8.7387477148
 30
0.0
 10
10.5742576114
 20
8.7385864893
 30
0.0
 10
10.5720853646
 20
8.7381386468
 30
0.0
 10
10.5689324484
 20
8.7371499595
 30
0.0
 10
10.566431742
 20
8.7360602865
 30
0.0
 10
10.5645993263
 20
8.735031529
 30
0.0
 10
10.5629982155
 20
8.7339644084
 30
0.0
 10
10.5613285738
 20
8.7324854258
 30
0.0
 10
10.5598800148
 20
8.7304904531
 30
0.0
 10
10.5590393169
 20
8.7284428666
 30
0.0
 10
10.5588790257
 20
8.727046166
 30
0.0
 10
10.5589124447
 20
8.7263904456
 30
0.0
  0
SPLINE
  5
58D
100
AcDbEntity
  8
0
100
AcDbSpline
 62
9
  6
CONTINUOUS
 70
0
 71
3
 72
18
 73
14
 74
0
 42
0.0000001
 43
0.0000001
 44
0.0000000001
 40
0.0
 40
0.0
 40
0.0
 40
0.0
 40
0.1423772531
 40
0.280897998
 40
0.4151970776
 40
0.5449078032
 40
0.6694132121
 40
0.7294096085
 40
0.7877206286
 40
0.8441437476
 40
0.8984622945
 40
0.9504698102
 40
1.0
 40
1.0
 40
1.0
 40
1.0
 10
10.4808430211
 20
10.7620644094
 30
0.0
 10
10.4933927683
 20
10.7354741931
 30
0.0
 10
10.5195143443
 20
10.6836511888
 30
0.0
 10
10.5610099955
 20
10.6086038671
 30
0.0
 10
10.6029700489
 20
10.5368367631
 30
0.0
 10
10.6444305562
 20
10.4681443219
 30
0.0
 10
10.6781629737
 20
10.4127117924
 30
0.0
 10
10.7040677739
 20
10.3697767916
 30
0.0
 10
10.722551839
 20
10.33878576
 30
0.0
 10
10.7401652025
 20
10.3086418526
 30
0.0
 10
10.7567301997
 20
10.2793957179
 30
0.0
 10
10.772061289
 20
10.2510921623
 30
0.0
 10
10.7816027413
 20
10.2324168241
 30
0.0
 10
10.7861405469
 20
10.2232497729
 30
0.0
  0
SPLINE
  5
58E
100
AcDbEntity
  8
0
100
AcDbSpline
 62
9
  6
CONTINUOUS
 70
0
 71
3
 72
11
 73
7
 74
0
 42
0.0000001
 43
0.0000001
 44
0.0000000001
 40
0.0
 40
0.0
 40
0.0
 40
0.0
 40
0.2426068156
 40
0.4905400197
 40
0.7432221435
 40
1.0
 40
1.0
 40
1.0
 40
1.0
 10
10.5149684897
 20
9.8414149724
 30
0.0
 10
10.5119663459
 20
9.9155997098
 30
0.0
 10
10.5060763756
 20
10.0656051505
 30
0.0
 10
10.4973347182
 20
10.2928869323
 30
0.0
 10
10.4882761572
 20
10.5244962434
 30
0.0
 10
10.4830832421
 20
10.6803234109
 30
0.0
 10
10.4809314522
 20
10.7588761957
 30
0.0
  0
LINE
  5
58F
100
AcDbEntity
  8
0
100
AcDbLine
 62
9
  6
CONTINUOUS
 10
10.4809314522
 20
10.7588761957
 11
10.480844351
 21
10.7620652315
  0
SPLINE
  5
590
100
AcDbEntity
  8
0
100
AcDbSpline
 62
9
  6
CONTINUOUS
 70
0
 71
3
 72
10
 73
6
 74
0
 42
0.0000001
 43
0.0000001
 44
0.0000000001
 40
0.0
 40
0.0
 40
0.0
 40
0.0
 40
0.4895773603
 40
0.741951467
 40
1.0
 40
1.0
 40
1.0
 40
1.0
 10
10.552530822
 20
9.0742632512
 30
0.0
 10
10.5447121589
 20
9.1993645015
 30
0.0
 10
10.5346026851
 20
9.3890642349
 30
0.0
 10
10.5230541634
 20
9.644830954
 30
0.0
 10
10.5176402265
 20
9.7754014596
 30
0.0
 10
10.514968609
 20
9.8414149796
 30
0.0
  0
SPLINE
  5
591
100
AcDbEntity
  8
0
100
AcDbSpline
 62
9
  6
CONTINUOUS
 70
0
 71
3
 72
12
 73
8
 74
0
 42
0.0000001
 43
0.0000001
 44
0.0000000001
 40
0.0
 40
0.0
 40
0.0
 40
0.0
 40
0.2742838823
 40
0.5534148688
 40
0.802330029
 40
0.9079164801
 40
1.0
 40
1.0
 40
1.0
 40
1.0
 10
10.5787142901
 20
8.7348903602
 30
0.0
 10
10.5767430773
 20
8.7347640728
 30
0.0
 10
10.5727758712
 20
8.7342072005
 30
0.0
 10
10.5672469207
 20
8.732446569
 30
0.0
 10
10.5632227931
 20
8.730155312
 30
0.0
 10
10.5609131902
 20
8.727895336
 30
0.0
 10
10.5601024425
 20
8.726707321
 30
0.0
 10
10.5598070044
 20
8.7261136295
 30
0.0
  0
SPLINE
  5
592
100
AcDbEntity
  8
0
100
AcDbSpline
 62
9
  6
CONTINUOUS
 70
0
 71
3
 72
9
 73
5
 74
0
 42
0.0000001
 43
0.0000001
 44
0.0000000001
 40
0.0
 40
0.0
 40
0.0
 40
0.0
 40
0.5246759057
 40
1.0
 40
1.0
 40
1.0
 40
1.0
 10
10.5598070044
 20
8.7261136295
 30
0.0
 10
10.5595553189
 20
8.7256078603
 30
0.0
 10
10.5591870933
 20
8.7245810969
 30
0.0
 10
10.5591120593
 20
8.7234914314
 30
0.0
 10
10.559149407
 20
8.7229810024
 30
0.0
  0
SPLINE
  5
593
100
AcDbEntity
  8
0
100
AcDbSpline
 62
9
  6
CONTINUOUS
 70
0
 71
3
 72
18
 73
14
 74
0
 42
0.0000001
 43
0.0000001
 44
0.0000000001
 40
0.0
 40
0.0
 40
0.0
 40
0.0
 40
0.1514068623
 40
0.2291857603
 40
0.3064657846
 40
0.454860848
 40
0.5237167848
 40
0.5883271722
 40
0.6491751667
 40
0.7071875963
 40
0.8159753881
 40
0.912916329
 40
1.0
 40
1.0
 40
1.0
 40
1.0
 10
10.5837309567
 20
8.6712728986
 30
0.0
 10
10.5826042508
 20
8.6705604211
 30
0.0
 10
10.5808640556
 20
8.6695351641
 30
0.0
 10
10.5784707946
 20
8.66828767
 30
0.0
 10
10.576049062
 20
8.6671570679
 30
0.0
 10
10.5736496345
 20
8.6661723385
 30
0.0
 10
10.5713785754
 20
8.6651709913
 30
0.0
 10
10.5698460982
 20
8.6644083319
 30
0.0
 10
10.5684580439
 20
8.6635764038
 30
0.0
 10
10.5668714275
 20
8.6623434112
 30
0.0
 10
10.5653374661
 20
8.6605631128
 30
0.0
 10
10.5641830744
 20
8.6582227251
 30
0.0
 10
10.5639679581
 20
8.6565751719
 30
0.0
 10
10.5640195127
 20
8.655810171
 30
0.0
  0
SPLINE
  5
594
100
AcDbEntity
  8
0
100
AcDbSpline
 62
9
  6
CONTINUOUS
 70
0
 71
3
 72
25
 73
21
 74
0
 42
0.0000001
 43
0.0000001
 44
0.0000000001
 40
0.0
 40
0.0
 40
0.0
 40
0.0
 40
0.0579269742
 40
0.1170788017
 40
0.1772931316
 40
0.238430219
 40
0.3004192432
 40
0.3631783212
 40
0.4266234545
 40
0.4906777597
 40
0.5552650367
 40
0.6202602179
 40
0.6855150895
 40
0.7508274374
 40
0.7833617276
 40
0.8157106523
 40
0.8477623881
 40
0.8794031146
 40
0.9410610929
 40
1.0
 40
1.0
 40
1.0
 40
1.0
 10
10.5787143008
 20
8.7348903558
 30
0.0
 10
10.5834535884
 20
8.7494369497
 30
0.0
 10
10.5936578326
 20
8.7786366392
 30
0.0
 10
10.6107061004
 20
8.8222567865
 30
0.0
 10
10.6294579668
 20
8.8660945215
 30
0.0
 10
10.6496871601
 20
8.9100934761
 30
0.0
 10
10.6710658264
 20
8.9542909925
 30
0.0
 10
10.6933130115
 20
8.9987389275
 30
0.0
 10
10.7160630864
 20
9.0435432109
 30
0.0
 10
10.738859824
 20
9.0888656141
 30
0.0
 10
10.7612506579
 20
9.1348477289
 30
0.0
 10
10.7828367499
 20
9.1815652667
 30
0.0
 10
10.8033160534
 20
9.2289879412
 30
0.0
 10
10.8193573596
 20
9.2689731797
 30
0.0
 10
10.8314526099
 20
9.301163061
 30
0.0
 10
10.8400780361
 20
9.325269207
 30
0.0
 10
10.8481852005
 20
9.3493061639
 30
0.0
 10
10.858090272
 20
9.3808988234
 30
0.0
 10
10.8687917199
 20
9.4196703199
 30
0.0
 10
10.8760008061
 20
9.4507045694
 30
0.0
 10
10.8792128479
 20
9.4659359924
 30
0.0
  0
SPLINE
  5
595
100
AcDbEntity
  8
0
100
AcDbSpline
 62
9
  6
CONTINUOUS
 70
0
 71
3
 72
27
 73
23
 74
0
 42
0.0000001
 43
0.0000001
 44
0.0000000001
 40
0.0
 40
0.0
 40
0.0
 40
0.0
 40
0.0588654013
 40
0.0894744197
 40
0.1207163543
 40
0.1524641039
 40
0.1845982428
 40
0.2170008034
 40
0.2495587938
 40
0.314868682
 40
0.3801128929
 40
0.4126478324
 40
0.4450986323
 40
0.5096558517
 40
0.573647689
 40
0.6370216413
 40
0.6997258128
 40
0.7616806538
 40
0.8227921043
 40
0.8829797982
 40
0.9421027715
 40
1.0
 40
1.0
 40
1.0
 40
1.0
 10
11.2145555185
 20
9.4658503937
 30
0.0
 10
11.2176437548
 20
9.4506048218
 30
0.0
 10
11.2229425819
 20
9.4275490657
 30
0.0
 10
11.2312288802
 20
9.3967428241
 30
0.0
 10
11.2382025139
 20
9.3730103039
 30
0.0
 10
11.2458279308
 20
9.3490563627
 30
0.0
 10
11.2540286916
 20
9.3249694549
 30
0.0
 10
11.2627127806
 20
9.3008253114
 30
0.0
 10
11.2748380346
 20
9.2686063265
 30
0.0
 10
11.2908381361
 20
9.228578428
 30
0.0
 10
11.3077827437
 20
9.188947859
 30
0.0
 10
11.3219421358
 20
9.1575813915
 30
0.0
 10
11.3364307683
 20
9.1265660542
 30
0.0
 10
11.3550578901
 20
9.0883134289
 30
0.0
 10
11.3778748713
 20
9.043019707
 30
0.0
 10
11.4006780273
 20
8.9982685332
 30
0.0
 10
11.4230274028
 20
8.9538901288
 30
0.0
 10
11.4445470631
 20
8.909766145
 30
0.0
 10
11.4649207892
 20
8.865830752
 30
0.0
 10
11.4837827772
 20
8.8220357745
 30
0.0
 10
11.5009072542
 20
8.7784427906
 30
0.0
 10
11.5111489938
 20
8.749255186
 30
0.0
 10
11.5159052832
 20
8.7347139159
 30
0.0
  0
SPLINE
  5
596
100
AcDbEntity
  8
0
100
AcDbSpline
 62
9
  6
CONTINUOUS
 70
0
 71
3
 72
12
 73
8
 74
0
 42
0.0000001
 43
0.0000001
 44
0.0000000001
 40
0.0
 40
0.0
 40
0.0
 40
0.0
 40
0.2733566422
 40
0.5520967076
 40
0.8014256341
 40
0.9074362756
 40
1.0
 40
1.0
 40
1.0
 40
1.0
 10
11.5159052946
 20
8.734713918
 30
0.0
 10
11.5178653031
 20
8.7345886241
 30
0.0
 10
11.5218139536
 20
8.7340367075
 30
0.0
 10
11.5273262475
 20
8.7322905966
 30
0.0
 10
11.5313498372
 20
8.7300155678
 30
0.0
 10
11.5336720132
 20
8.7277659893
 30
0.0
 10
11.5344924496
 20
8.7265809931
 30
0.0
 10
11.5347933368
 20
8.7259879002
 30
0.0
  0
SPLINE
  5
597
100
AcDbEntity
  8
0
100
AcDbSpline
 62
9
  6
CONTINUOUS
 70
0
 71
3
 72
9
 73
5
 74
0
 42
0.0000001
 43
0.0000001
 44
0.0000000001
 40
0.0
 40
0.0
 40
0.0
 40
0.0
 40
0.5250651408
 40
1.0
 40
1.0
 40
1.0
 40
1.0
 10
11.5347933368
 20
8.7259879002
 30
0.0
 10
11.5350534983
 20
8.7254750836
 30
0.0
 10
11.5354350177
 20
8.7244328656
 30
0.0
 10
11.5355141029
 20
8.7233242176
 30
0.0
 10
11.5354761767
 20
8.7228054686
 30
0.0
  0
SPLINE
  5
598
100
AcDbEntity
  8
0
100
AcDbSpline
 62
9
  6
CONTINUOUS
 70
0
 71
3
 72
16
 73
12
 74
0
 42
0.0000001
 43
0.0000001
 44
0.0000000001
 40
0.0
 40
0.0
 40
0.0
 40
0.0
 40
0.1516437511
 40
0.3045776666
 40
0.4523307557
 40
0.5224157372
 40
0.589083297
 40
0.7105846277
 40
0.8178983979
 40
0.9135716759
 40
1.0
 40
1.0
 40
1.0
 40
1.0
 10
11.5193336521
 20
8.7386302559
 30
0.0
 10
11.5204438507
 20
8.7384637185
 30
0.0
 10
11.5226559003
 20
8.7380000836
 30
0.0
 10
11.5258497079
 20
8.736976275
 30
0.0
 10
11.5283639553
 20
8.7358565525
 30
0.0
 10
11.5301930023
 20
8.7348085371
 30
0.0
 10
11.5317755489
 20
8.7337331708
 30
0.0
 10
11.5334119654
 20
8.7322569375
 30
0.0
 10
11.5348123338
 20
8.7302788289
 30
0.0
 10
11.5356070612
 20
8.7282660455
 30
0.0
 10
11.53575141
 20
8.726903411
 30
0.0
 10
11.5357175152
 20
8.7262644798
 30
0.0
  0
SPLINE
  5
599
100
AcDbEntity
  8
0
100
AcDbSpline
 62
9
  6
CONTINUOUS
 70
0
 71
3
 72
16
 73
12
 74
0
 42
0.0000001
 43
0.0000001
 44
0.0000000001
 40
0.0
 40
0.0
 40
0.0
 40
0.0
 40
0.1493765028
 40
0.3011002281
 40
0.4485049915
 40
0.5186942782
 40
0.5856364354
 40
0.7080950215
 40
0.8164645939
 40
0.9129379094
 40
1.0
 40
1.0
 40
1.0
 40
1.0
 10
11.5420635726
 20
9.0741930694
 30
0.0
 10
11.5431435015
 20
9.0740371571
 30
0.0
 10
11.5453046555
 20
9.0736049667
 30
0.0
 10
11.548443773
 20
9.0726513605
 30
0.0
 10
11.5509358781
 20
9.0716006809
 30
0.0
 10
11.55276415
 20
9.0706085624
 30
0.0
 10
11.554359879
 20
9.0695817041
 30
0.0
 10
11.5560269601
 20
9.0681602756
 30
0.0
 10
11.5574804689
 20
9.0662355567
 30
0.0
 10
11.5583304181
 20
9.0642559332
 30
0.0
 10
11.5584997358
 20
9.0629013087
 30
0.0
 10
11.5584714699
 20
9.0622659893
 30
0.0
  0
SPLINE
  5
59A
100
AcDbEntity
  8
0
100
AcDbSpline
 62
9
  6
CONTINUOUS
 70
0
 71
3
 72
9
 73
5
 74
0
 42
0.0000001
 43
0.0000001
 44
0.0000000001
 40
0.0
 40
0.0
 40
0.0
 40
0.0
 40
0.2456968658
 40
1.0
 40
1.0
 40
1.0
 40
1.0
 10
12.0848300051
 20
10.8156888494
 30
0.0
 10
12.0845785583
 20
10.8152627496
 30
0.0
 10
12.0835247478
 20
10.8135465733
 30
0.0
 10
12.0823510241
 20
10.8119044493
 30
0.0
 10
12.081408667
 20
10.8107131746
 30
0.0
  0
SPLINE
  5
59B
100
AcDbEntity
  8
0
100
AcDbSpline
 62
9
  6
CONTINUOUS
 70
0
 71
3
 72
15
 73
11
 74
0
 42
0.0000001
 43
0.0000001
 44
0.0000000001
 40
0.0
 40
0.0
 40
0.0
 40
0.0
 40
0.1656094741
 40
0.3200182654
 40
0.462959939
 40
0.59418732
 40
0.7135581072
 40
0.8209399119
 40
0.9163444322
 40
1.0
 40
1.0
 40
1.0
 40
1.0
 10
12.0814088059
 20
10.810713138
 30
0.0
 10
12.0579569073
 20
10.7810664515
 30
0.0
 10
12.011910401
 20
10.7243500908
 30
0.0
 10
11.9432805291
 20
10.6439843324
 30
0.0
 10
11.8780374022
 20
10.5710831233
 30
0.0
 10
11.8166878228
 20
10.5054597464
 30
0.0
 10
11.759544718
 20
10.4470438295
 30
0.0
 10
11.7069000407
 20
10.3956937918
 30
0.0
 10
11.6589377253
 20
10.3512491363
 30
0.0
 10
11.6281253096
 20
10.3243826028
 30
0.0
 10
11.6134889786
 20
10.3121194021
 30
0.0
  0
LINE
  5
59C
100
AcDbEntity
  8
0
100
AcDbLine
 62
9
  6
CONTINUOUS
 10
11.6347638344
 20
5.0326868837
 11
11.6350373639
 21
5.0199785051
  0
SPLINE
  5
59D
100
AcDbEntity
  8
0
100
AcDbSpline
 62
9
  6
CONTINUOUS
 70
0
 71
3
 72
11
 73
7
 74
0
 42
0.0000001
 43
0.0000001
 44
0.0000000001
 40
0.0
 40
0.0
 40
0.0
 40
0.0
 40
0.24978371
 40
0.499712826
 40
0.7497827634
 40
1.0
 40
1.0
 40
1.0
 40
1.0
 10
11.6350373639
 20
5.0199785051
 30
0.0
 10
11.6370489815
 20
4.9262305038
 30
0.0
 10
11.6408009608
 20
4.7386739388
 30
0.0
 10
11.6455355052
 20
4.4572425015
 30
0.0
 10
11.6493603717
 20
4.1756344757
 30
0.0
 10
11.651291977
 20
3.9878346226
 30
0.0
 10
11.6520938492
 20
3.8939057169
 30
0.0
  0
SPLINE
  5
59E
100
AcDbEntity
  8
0
100
AcDbSpline
 62
9
  6
CONTINUOUS
 70
0
 71
3
 72
18
 73
14
 74
0
 42
0.0000001
 43
0.0000001
 44
0.0000000001
 40
0.0
 40
0.0
 40
0.0
 40
0.0
 40
0.0487626594
 40
0.0995912322
 40
0.1525578983
 40
0.2075322224
 40
0.3231371777
 40
0.445918321
 40
0.5754087109
 40
0.6425286707
 40
0.7111669747
 40
0.8528203971
 40
1.0
 40
1.0
 40
1.0
 40
1.0
 10
11.6518060073
 20
3.894652415
 30
0.0
 10
11.645089853
 20
3.9126477685
 30
0.0
 10
11.6317285578
 20
3.9495342356
 30
0.0
 10
11.6121833532
 20
4.0063621826
 30
0.0
 10
11.5927265231
 20
4.065801443
 30
0.0
 10
11.5667557207
 20
4.149943901
 30
0.0
 10
11.5356804764
 20
4.2612723329
 30
0.0
 10
11.5020022678
 20
4.4022480214
 30
0.0
 10
11.4777454148
 20
4.5257395497
 30
0.0
 10
11.4609795062
 20
4.6288754688
 30
0.0
 10
11.4457783401
 20
4.737094076
 30
0.0
 10
11.430525363
 20
4.877114249
 30
0.0
 10
11.422407263
 20
4.9906208386
 30
0.0
 10
11.4191274081
 20
5.0485025933
 30
0.0
  0
LINE
  5
59F
100
AcDbEntity
  8
0
100
AcDbLine
 62
7
  6
CONTINUOUS
 10
11.6036528673
 20
10.7871423899
 11
11.6036475414
 21
10.7989097607
  0
SPLINE
  5
5A0
100
AcDbEntity
  8
0
100
AcDbSpline
 62
9
  6
CONTINUOUS
 70
0
 71
3
 72
15
 73
11
 74
0
 42
0.0000001
 43
0.0000001
 44
0.0000000001
 40
0.0
 40
0.0
 40
0.0
 40
0.0
 40
0.1549725729
 40
0.3139637711
 40
0.4698688922
 40
0.6147600385
 40
0.7410889386
 40
0.8458115216
 40
0.9299647993
 40
1.0
 40
1.0
 40
1.0
 40
1.0
 10
11.579486458
 20
9.8388526155
 30
0.0
 10
11.5806350709
 20
9.8387850581
 30
0.0
 10
11.5829578156
 20
9.8385626622
 30
0.0
 10
11.5863995423
 20
9.8379689115
 30
0.0
 10
11.5897005934
 20
9.8370780204
 30
0.0
 10
11.5926664386
 20
9.8359347881
 30
0.0
 10
11.595114182
 20
9.8345659678
 30
0.0
 10
11.5969121473
 20
9.8330399326
 30
0.0
 10
11.5980172352
 20
9.8314227765
 30
0.0
 10
11.5982402336
 20
9.8302581786
 30
0.0
 10
11.5982202315
 20
9.8297385853
 30
0.0
  0
SPLINE
  5
5A1
100
AcDbEntity
  8
0
100
AcDbSpline
 62
9
  6
CONTINUOUS
 70
0
 71
3
 72
13
 73
9
 74
0
 42
0.0000001
 43
0.0000001
 44
0.0000000001
 40
0.0
 40
0.0
 40
0.0
 40
0.0
 40
0.3157184495
 40
0.6035157005
 40
0.7288204954
 40
0.8376487011
 40
0.9279215709
 40
1.0
 40
1.0
 40
1.0
 40
1.0
 10
11.6137765796
 20
10.7620388081
 30
0.0
 10
11.6148504141
 20
10.7619127377
 30
0.0
 10
11.6168974218
 20
10.7616216426
 30
0.0
 10
11.619347058
 20
10.7611290915
 30
0.0
 10
11.6210704459
 20
10.7606523127
 30
0.0
 10
11.6221209685
 20
10.7602865752
 30
0.0
 10
11.622964883
 20
10.7598954355
 30
0.0
 10
11.6234345393
 20
10.7595906216
 30
0.0
 10
11.6236231748
 20
10.7594314156
 30
0.0
  0
SPLINE
  5
5A2
100
AcDbEntity
  8
0
100
AcDbSpline
 62
9
  6
CONTINUOUS
 70
0
 71
3
 72
9
 73
5
 74
0
 42
0.0000001
 43
0.0000001
 44
0.0000000001
 40
0.0
 40
0.0
 40
0.0
 40
0.0
 40
0.5608668288
 40
1.0
 40
1.0
 40
1.0
 40
1.0
 10
11.6236231748
 20
10.7594314156
 30
0.0
 10
11.6237756442
 20
10.7593027332
 30
0.0
 10
11.6240301255
 20
10.7590459125
 30
0.0
 10
11.6241596629
 20
10.7586946082
 30
0.0
 10
11.6241642349
 20
10.7585384642
 30
0.0
  0
LINE
  5
5A3
100
AcDbEntity
  8
0
100
AcDbLine
 62
9
  6
CONTINUOUS
 10
11.6137763466
 20
10.7620388273
 11
11.6107647093
 21
10.7671541407
  0
SPLINE
  5
5A4
100
AcDbEntity
  8
0
100
AcDbSpline
 62
9
  6
CONTINUOUS
 70
0
 71
3
 72
9
 73
5
 74
0
 42
0.0000001
 43
0.0000001
 44
0.0000000001
 40
0.0
 40
0.0
 40
0.0
 40
0.0
 40
0.5074081823
 40
1.0
 40
1.0
 40
1.0
 40
1.0
 10
11.6107647093
 20
10.7671541407
 30
0.0
 10
11.60972676
 20
10.7688055632
 30
0.0
 10
11.6075946137
 20
10.7720074665
 30
0.0
 10
11.6052649846
 20
10.7750679096
 30
0.0
 10
11.6040862559
 20
10.776549865
 30
0.0
  0
ENDSEC
  0
SECTION
  2
OBJECTS
  0
DICTIONARY
  5
C
100
AcDbDictionary
280
0
281
1
  3
ACAD_GROUP
350
D
  3
ACAD_MLINESTYLE
350
17
  3
ACAD_LAYOUT
350
1A
  3
ACAD_PLOTSETTINGS
350
19
  3
ACAD_PLOTSTYLENAME
350
E
  0
DICTIONARY
  5
D
102
{ACAD_REACTORS
330
C
102
}
100
AcDbDictionary
280
0
281
1
  0
ACDBDICTIONARYWDFLT
  5
E
102
{ACAD_REACTORS
330
C
102
}
100
AcDbDictionary
281
1
  3
Normal
350
F
100
AcDbDictionaryWithDefault
340
F
  0
DICTIONARY
  5
17
102
{ACAD_REACTORS
330
C
102
}
100
AcDbDictionary
280
0
281
1
  3
Standard
350
18
  0
DICTIONARY
  5
19
102
{ACAD_REACTORS
330
C
102
}
100
AcDbDictionary
281
1
  0
DICTIONARY
  5
1A
102
{ACAD_REACTORS
330
C
102
}
100
AcDbDictionary
281
1
  3
Model
350
5A5
  3
Layout1
350
5A6
  0
ACDBPLACEHOLDER
  5
F
102
{ACAD_REACTORS
330
E
102
}
  0
MLINESTYLE
  5
18
102
{ACAD_REACTORS
330
17
102
}
100
AcDbMlineStyle
  2
STANDARD
 70
0
  3

 62
256
 51
90.0
 52
90.0
 71
2
 49
0.5
 62
256
  6
BYLAYER
 49
-0.5
 62
256
  6
BYLAYER
  0
LAYOUT
  5
5A5
102
{ACAD_REACTORS
330
1A
102
}
100
AcDbPlotSettings
  1

  2
none_device
  4
ANSI_C_(22.00_x_17.00_Inches)
  6

 40
0.0
 41
0.0
 42
0.0
 43
0.0
 44
558.8
 45
431.8
 46
0.0
 47
0.0
 48
0.0
 49
0.0
140
0.0
141
0.0
142
1.0
143
1.0
 70
1024
 72
0
 73
0
 74
0
  7

 75
0
147
1.0
148
0.0
149
0.0
100
AcDbLayout
  1
Model
 70
0
 71
0
 10
0.0
 20
0.0
 11
22.0
 21
17.0
 12
0.0
 22
0.0
 32
0.0
 14
0.0
 24
0.0
 34
0.0
 15
0.0
 25
0.0
 35
0.0
146
0.0
 13
0.0
 23
0.0
 33
0.0
 16
1.0
 26
0.0
 36
0.0
 17
0.0
 27
1.0
 37
0.0
 76
0
330
202
345
0
346
0
  0
LAYOUT
  5
5A6
102
{ACAD_REACTORS
330
1A
102
}
100
AcDbPlotSettings
  1

  2
none_device
  4
ANSI_C_(22.00_x_17.00_Inches)
  6

 40
0.0
 41
0.0
 42
0.0
 43
0.0
 44
558.8
 45
431.8
 46
0.0
 47
0.0
 48
0.0
 49
0.0
140
0.0
141
0.0
142
1.0
143
1.0
 70
0
 72
0
 73
0
 74
0
  7

 75
0
147
1.0
148
0.0
149
0.0
100
AcDbLayout
  1
Layout1
 70
0
 71
1
 10
0.0
 20
0.0
 11
22.0
 21
17.0
 12
0.0
 22
0.0
 32
0.0
 14
0.0
 24
0.0
 34
0.0
 15
0.0
 25
0.0
 35
0.0
146
0.0
 13
0.0
 23
0.0
 33
0.0
 16
1.0
 26
0.0
 36
0.0
 17
0.0
 27
1.0
 37
0.0
 76
0
330
203
345
0
346
0
  0
ENDSEC
  0
EOF
