999
DXF file: E:\BT Custom\CADOUTPUT\_FRONT.dxf
999
Pro/ENGINEER 2018400 by Parametric Technology Corporation
  0
SECTION
  2
HEADER
  9
$ACADVER
  1
AC1018
  9
$DWGCODEPAGE
  3
ANSI_1252
  9
$EXTMAX
 10
22.0
 20
17.0
 30
0.0
  9
$EXTMIN
 10
0.0
 20
0.0
 30
0.0
  9
$LIMMIN
 10
0.0
 20
0.0
  9
$LIMMAX
 10
22.0
 20
17.0
  9
$VIEWCTR
 10
11.0
 20
8.5
  9
$VIEWSIZE
 40
17.0
  9
$CLAYER
  8
0
  9
$LTSCALE
 40
1.21
  9
$CELTYPE
  6
BYLAYER
  9
$DIMSCALE
 40
1.0
  9
$DIMASZ
 40
0.1
  9
$DIMEXO
 40
0.0625
  9
$DIMDLI
 40
0.836
  9
$DIMEXE
 40
0.125
  9
$DIMCEN
 40
0.198
  9
$DIMLFAC
 40
1.0
  9
$DIMBLK
  1
_FILLED
  9
$DIMALT
 70
1
  9
$DIMALTD
 70
2
  9
$DIMALTTD
 70
2
  9
$DIMALTF
 40
25.4
  9
$DIMTXT
 40
0.08
  9
$DIMTOL
 70
1
  9
$DIMLIM
 70
0
  9
$DIMTFAC
 40
1.0
  9
$DIMTP
 40
0.001
  9
$DIMTM
 40
0.001
  9
$DIMGAP
 40
0.09
  9
$DIMDSEP
 70
46
  9
$AUNITS
 70
0
  9
$PDMODE
 70
3
  9
$PDSIZE
 40
0.06
  9
$HANDSEED
  5
46E
  9
$TILEMODE
 70
1
  9
$MEASUREMENT
 70
0
  9
$INSUNITS
 70
1
  0
ENDSEC
  0
SECTION
  2
CLASSES
  0
CLASS
  1
ACDBDICTIONARYWDFLT
  2
AcDbDictionaryWithDefault
  3
AutoCAD 2000
 90
0
 91
1
280
0
281
0
  0
CLASS
  1
ACDBPLACEHOLDER
  2
AcDbPlaceHolder
  3
AutoCAD 2000
 90
0
 91
1
280
0
281
0
  0
CLASS
  1
LAYOUT
  2
AcDbLayout
  3
AutoCAD 2000
 90
0
 91
0
280
0
281
0
  0
ENDSEC
  0
SECTION
  2
TABLES
  0
TABLE
  2
VPORT
  5
8
100
AcDbSymbolTable
 70
2
  0
VPORT
  5
1F4
100
AcDbSymbolTableRecord
100
AcDbViewportTableRecord
  2
*ACTIVE
 70
0
 10
0.0
 20
0.0
 11
1.0
 21
1.0
 12
11.0
 22
8.5
 13
0.0
 23
0.0
 14
1.0
 24
1.0
 15
0.0
 25
0.0
 16
0.0
 26
0.0
 36
1.0
 17
0.0
 27
0.0
 37
0.0
 40
17.0
 41
1.2941176471
 42
50.0
 43
0.0
 44
0.0
 50
0.0
 51
0.0
 71
0
 72
100
 73
1
 74
1
 75
0
 76
0
 77
0
 78
0
  0
ENDTAB
  0
TABLE
  2
LTYPE
  5
5
100
AcDbSymbolTable
 70
6
  0
LTYPE
  5
14
100
AcDbSymbolTableRecord
100
AcDbLinetypeTableRecord
  2
BYBLOCK
 70
0
  3

 72
65
 73
0
 40
0.0
  0
LTYPE
  5
15
100
AcDbSymbolTableRecord
100
AcDbLinetypeTableRecord
  2
BYLAYER
 70
0
  3

 72
65
 73
0
 40
0.0
  0
LTYPE
  5
16
100
AcDbSymbolTableRecord
100
AcDbLinetypeTableRecord
  2
CONTINUOUS
 70
64
  3
Solid line
 72
65
 73
0
 40
0.0
  0
LTYPE
  5
1F5
100
AcDbSymbolTableRecord
100
AcDbLinetypeTableRecord
  2
CENTER
 70
64
  3
____ _ ____ _ ____ _ ____ _ ____ _ ____ _ ____
 72
65
 73
4
 40
0.6
 49
0.375
 74
0
 49
-0.075
 74
0
 49
0.075
 74
0
 49
-0.075
 74
0
  0
LTYPE
  5
1F6
100
AcDbSymbolTableRecord
100
AcDbLinetypeTableRecord
  2
HIDDEN
 70
64
  3
- - - - - - - - - - - - - - - - - - - -
 72
65
 73
2
 40
0.2
 49
0.1
 74
0
 49
-0.1
 74
0
  0
LTYPE
  5
1F7
100
AcDbSymbolTableRecord
100
AcDbLinetypeTableRecord
  2
PHANTOM
 70
64
  3
_____ _ _ _____ _ _ _____ _ _ _____
 72
65
 73
6
 40
0.8
 49
0.45
 74
0
 49
-0.05
 74
0
 49
0.1
 74
0
 49
-0.05
 74
0
 49
0.1
 74
0
 49
-0.05
 74
0
  0
LTYPE
  5
1F8
100
AcDbSymbolTableRecord
100
AcDbLinetypeTableRecord
  2
DOT
 70
64
  3
. . . . . . . . . . . . . . . . . . . .
 72
65
 73
2
 40
0.2
 49
0.1
 74
0
 49
-0.1
 74
0
  0
LTYPE
  5
1F9
100
AcDbSymbolTableRecord
100
AcDbLinetypeTableRecord
  2
DASHED
 70
64
  3
- - - - - - - - - - - - - - - - - - - -
 72
65
 73
2
 40
0.2
 49
0.1
 74
0
 49
-0.1
 74
0
  0
ENDTAB
  0
TABLE
  2
LAYER
  5
2
100
AcDbSymbolTable
 70
36
  0
LAYER
  5
10
100
AcDbSymbolTableRecord
100
AcDbLayerTableRecord
  2
0
 70
0
 62
7
  6
CONTINUOUS
370
-3
390
F
  0
LAYER
  5
1FA
100
AcDbSymbolTableRecord
100
AcDbLayerTableRecord
  2
DEFAULT_1
 70
0
 62
7
  6
CENTER
370
-3
390
F
  0
LAYER
  5
1FB
100
AcDbSymbolTableRecord
100
AcDbLayerTableRecord
  2
DEFAULT_2
 70
0
 62
8
  6
HIDDEN
370
-3
390
F
  0
LAYER
  5
1FC
100
AcDbSymbolTableRecord
100
AcDbLayerTableRecord
  2
DEFAULT_3
 70
0
 62
7
  6
PHANTOM
370
-3
390
F
  0
LAYER
  5
1FD
100
AcDbSymbolTableRecord
100
AcDbLayerTableRecord
  2
ALL_FEATURES
 70
0
 62
7
  6
CONTINUOUS
370
-3
390
F
  0
LAYER
  5
1FE
100
AcDbSymbolTableRecord
100
AcDbLayerTableRecord
  2
AXES_FEATURES
 70
0
 62
7
  6
CONTINUOUS
370
-3
390
F
  0
LAYER
  5
1FF
100
AcDbSymbolTableRecord
100
AcDbLayerTableRecord
  2
DIMENSIONS
 70
0
 62
7
  6
CONTINUOUS
370
-3
390
F
  0
ENDTAB
  0
TABLE
  2
STYLE
  5
3
100
AcDbSymbolTable
 70
1
  0
STYLE
  5
11
100
AcDbSymbolTableRecord
100
AcDbTextStyleTableRecord
  2
STANDARD
 70
0
 40
0.0
 41
0.8
 50
0.0
 71
0
 42
0.2
  3
txt
  4

  0
STYLE
  5
200
100
AcDbSymbolTableRecord
100
AcDbTextStyleTableRecord
  2
TEXTSTYLE_1
 70
0
 40
0.0
 41
0.8
 50
0.0
 71
0
 42
0.2
  3
gdt
  4

  0
ENDTAB
  0
TABLE
  2
VIEW
  5
6
100
AcDbSymbolTable
 70
0
  0
ENDTAB
  0
TABLE
  2
UCS
  5
7
100
AcDbSymbolTable
 70
0
  0
ENDTAB
  0
TABLE
  2
APPID
  5
9
100
AcDbSymbolTable
 70
1
  0
APPID
  5
201
100
AcDbSymbolTableRecord
100
AcDbRegAppTableRecord
  2
ACAD
 70
0
  0
ENDTAB
  0
TABLE
  2
BLOCK_RECORD
  5
1
100
AcDbSymbolTable
 70
0
  0
BLOCK_RECORD
  5
202
100
AcDbSymbolTableRecord
100
AcDbBlockTableRecord
  2
*Model_Space
  0
BLOCK_RECORD
  5
203
100
AcDbSymbolTableRecord
100
AcDbBlockTableRecord
  2
*Paper_Space
  0
BLOCK_RECORD
  5
204
100
AcDbSymbolTableRecord
100
AcDbBlockTableRecord
  2
_FILLED
  0
ENDTAB
  0
TABLE
  2
DIMSTYLE
  5
A
100
AcDbSymbolTable
 70
1
100
AcDbDimStyleTable
 71
0
  0
DIMSTYLE
105
205
100
AcDbSymbolTableRecord
100
AcDbDimStyleTableRecord
  2
STANDARD
 70
0
  3

  4

 40
1.0
 41
0.1
 42
0.0625
 43
0.38
 44
0.125
 45
0.0
 46
0.0
 47
0.001
 48
0.001
140
0.08
141
0.09
142
0.0
143
25.4
144
1.0
145
0.0
146
1.0
147
0.09
 71
1.0
 72
0.0
 73
1
 74
1
 75
0
 76
0
 77
0
 78
4
 79
1
170
1
171
2
172
0
173
0
174
0
175
0
176
0
177
0
178
0
270
2
179
3
271
3
272
3
273
2
274
2
275
0
280
0
281
0
282
0
283
1
284
4
285
0
286
0
287
3
288
0
340
11
278
46
341
204
342
204
343
204
344
204
  0
ENDTAB
  0
ENDSEC
  0
SECTION
  2
BLOCKS
  0
BLOCK
  5
20
100
AcDbEntity
  8
0
100
AcDbBlockBegin
  2
*Model_Space
 70
0
 10
0.0
 20
0.0
 30
0.0
  3
*Model_Space
  1

  0
ENDBLK
  5
21
100
AcDbEntity
  8
0
100
AcDbBlockEnd
  0
BLOCK
  5
1C
100
AcDbEntity
  8
0
100
AcDbBlockBegin
  2
*Paper_Space
 70
0
 10
0.0
 20
0.0
 30
0.0
  3
*Paper_Space
  1

  0
ENDBLK
  5
1D
100
AcDbEntity
  8
0
100
AcDbBlockEnd
  0
BLOCK
  5
206
100
AcDbEntity
  8
0
100
AcDbBlockBegin
  2
_FILLED
 70
64
 10
0.0
 20
0.0
  3
_FILLED
  1

  0
SOLID
  5
207
100
AcDbEntity
  8
0
  6
BYBLOCK
 62
0
100
AcDbTrace
 10
0.0
 20
0.0
 11
-1.0
 21
0.2
 12
-1.0
 22
-0.2
 13
-1.0
 23
-0.2
  0
ENDBLK
  5
208
100
AcDbEntity
  8
0
  6
BYBLOCK
 62
0
100
AcDbBlockEnd
  0
ENDSEC
  0
SECTION
  2
ENTITIES
  0
LINE
  5
209
100
AcDbEntity
  8
0
100
AcDbLine
 62
7
  6
CONTINUOUS
 10
3.8856748597
 20
9.6971343003
 11
3.8938318407
 21
9.936713852
  0
LINE
  5
20A
100
AcDbEntity
  8
0
100
AcDbLine
 62
9
  6
CONTINUOUS
 10
3.8956530658
 20
9.9173518247
 11
3.8888087812
 21
9.7163276195
  0
LINE
  5
20B
100
AcDbEntity
  8
0
100
AcDbLine
 62
7
  6
CONTINUOUS
 10
4.0508067855
 20
10.1474639605
 11
4.0291187075
 21
9.4771643428
  0
LINE
  5
20C
100
AcDbEntity
  8
0
100
AcDbLine
 62
7
  6
CONTINUOUS
 10
4.0330904003
 20
10.1480830057
 11
4.0096892065
 21
9.4778588425
  0
LINE
  5
20D
100
AcDbEntity
  8
0
100
AcDbLine
 62
7
  6
CONTINUOUS
 10
4.0331740272
 20
10.1754870833
 11
3.8966375881
 21
9.9462683346
  0
LINE
  5
20E
100
AcDbEntity
  8
0
100
AcDbLine
 62
9
  6
CONTINUOUS
 10
3.8956530658
 20
9.9173518247
 11
4.0330904003
 21
10.1480830057
  0
LINE
  5
20F
100
AcDbEntity
  8
0
100
AcDbLine
 62
7
  6
CONTINUOUS
 10
4.0336867836
 20
10.1763077067
 11
4.0332488559
 21
10.1756083834
  0
LWPOLYLINE
  5
210
100
AcDbEntity
  8
0
100
AcDbPolyline
 62
7
  6
CONTINUOUS
 90
10
 70
0
 10
4.0091661969
 20
9.448031876
 10
4.0096466608
 20
9.4471407094
 10
4.0113714144
 20
9.4446011572
 10
4.0133986837
 20
9.4424162759
 10
4.0156458745
 20
9.4406133645
 10
4.0180145109
 20
9.4392090305
 10
4.0204085283
 20
9.4381933189
 10
4.0227112019
 20
9.4375401151
 10
4.0246737728
 20
9.4372090942
 10
4.0258144154
 20
9.4371059506
  0
LINE
  5
211
100
AcDbEntity
  8
0
100
AcDbLine
 62
7
  6
CONTINUOUS
 10
3.8878242588
 20
9.6874111096
 11
4.0091661936
 21
9.4480318824
  0
LINE
  5
212
100
AcDbEntity
  8
0
100
AcDbLine
 62
9
  6
CONTINUOUS
 10
4.0096892065
 20
9.4778588425
 11
3.8888087812
 21
9.7163276195
  0
LINE
  5
213
100
AcDbEntity
  8
0
100
AcDbLine
 62
7
  6
CONTINUOUS
 10
4.0385983297
 20
10.1814599242
 11
4.0332418957
 21
10.1756007701
  0
LINE
  5
214
100
AcDbEntity
  8
0
100
AcDbLine
 62
7
  6
CONTINUOUS
 10
5.7880307366
 20
6.6211695021
 11
5.7880307366
 21
6.5911695021
  0
LINE
  5
215
100
AcDbEntity
  8
0
100
AcDbLine
 62
9
  6
CONTINUOUS
 10
5.80802073
 20
6.5911695021
 11
5.80802073
 21
6.6211695082
  0
LINE
  5
216
100
AcDbEntity
  8
0
100
AcDbLine
 62
7
  6
CONTINUOUS
 10
4.0536961731
 20
10.1849760451
 11
4.0536556825
 21
10.1850352948
  0
LINE
  5
217
100
AcDbEntity
  8
0
100
AcDbLine
 62
9
  6
CONTINUOUS
 10
6.3391924176
 20
9.9372153654
 11
6.3391924447
 21
9.464396932
  0
LINE
  5
218
100
AcDbEntity
  8
0
100
AcDbLine
 62
7
  6
CONTINUOUS
 10
6.6846923427
 20
9.1217695021
 11
6.6846923427
 21
9.0907695021
  0
LINE
  5
219
100
AcDbEntity
  8
0
100
AcDbLine
 62
7
  6
CONTINUOUS
 10
7.1906923427
 20
9.1217695021
 11
7.1906923427
 21
9.0907695021
  0
LINE
  5
21A
100
AcDbEntity
  8
0
100
AcDbLine
 62
9
  6
CONTINUOUS
 10
7.4457073899
 20
9.8633945694
 11
7.4457074112
 21
9.4022025081
  0
LINE
  5
21B
100
AcDbEntity
  8
0
100
AcDbLine
 62
9
  6
CONTINUOUS
 10
7.462667356
 20
9.8633945693
 11
7.4626673543
 21
9.4022024885
  0
LINE
  5
21C
100
AcDbEntity
  8
0
100
AcDbLine
 62
9
  6
CONTINUOUS
 10
7.4454664624
 20
9.8951598235
 11
7.444664207
 21
9.8751759002
  0
LINE
  5
21D
100
AcDbEntity
  8
0
100
AcDbLine
 62
7
  6
CONTINUOUS
 10
6.3651642199
 20
7.6907073642
 11
6.3914267387
 21
7.7600943934
  0
LINE
  5
21E
100
AcDbEntity
  8
0
100
AcDbLine
 62
7
  6
CONTINUOUS
 10
4.0459047637
 20
10.184795209
 11
4.0385983297
 21
10.1814599242
  0
LWPOLYLINE
  5
21F
100
AcDbEntity
  8
0
100
AcDbPolyline
 62
7
  6
CONTINUOUS
 90
3
 70
0
 10
7.8969027412
 20
6.8822016847
 10
7.8903552627
 20
6.8867061332
 10
7.8860749848
 20
6.8934150604
  0
LWPOLYLINE
  5
220
100
AcDbEntity
  8
0
100
AcDbPolyline
 62
7
  6
CONTINUOUS
 90
3
 70
0
 10
7.9290044791
 20
6.8608175449
 10
7.9182550852
 20
6.8715301817
 10
7.905205241
 20
6.8791845133
  0
LINE
  5
221
100
AcDbEntity
  8
0
100
AcDbLine
 62
7
  6
CONTINUOUS
 10
7.9324646599
 20
6.8558662075
 11
7.9290044791
 21
6.8608175449
  0
LWPOLYLINE
  5
222
100
AcDbEntity
  8
0
100
AcDbPolyline
 62
7
  6
CONTINUOUS
 90
4
 70
0
 10
8.0876670963
 20
6.6211695023
 10
8.0353658827
 20
6.6975350573
 10
7.980204282
 20
6.7809853471
 10
7.9324643722
 20
6.8558714083
  0
LINE
  5
223
100
AcDbEntity
  8
0
100
AcDbLine
 62
7
  6
CONTINUOUS
 10
7.8722756162
 20
6.9542298415
 11
7.7246394955
 21
7.2183533848
  0
LINE
  5
224
100
AcDbEntity
  8
0
100
AcDbLine
 62
7
  6
CONTINUOUS
 10
7.7246394955
 20
7.2183533848
 11
7.5936898
 21
7.48999079
  0
LINE
  5
225
100
AcDbEntity
  8
0
100
AcDbLine
 62
7
  6
CONTINUOUS
 10
7.5936898
 20
7.48999079
 11
7.4839299064
 21
7.7601686689
  0
LWPOLYLINE
  5
226
100
AcDbEntity
  8
0
100
AcDbPolyline
 62
7
  6
CONTINUOUS
 90
4
 70
0
 10
7.8847822536
 20
6.9019716546
 10
7.8844954295
 20
6.9175366855
 10
7.8787743732
 20
6.9409715652
 10
7.8722539197
 20
6.9542593889
  0
LINE
  5
227
100
AcDbEntity
  8
0
100
AcDbLine
 62
9
  6
CONTINUOUS
 10
7.5537523088
 20
9.5725110842
 11
7.5537523088
 21
9.7079211906
  0
LINE
  5
228
100
AcDbEntity
  8
0
100
AcDbLine
 62
7
  6
CONTINUOUS
 10
7.5567923427
 20
9.7291536108
 11
7.5567923427
 21
9.5508177245
  0
LINE
  5
229
100
AcDbEntity
  8
0
100
AcDbLine
 62
9
  6
CONTINUOUS
 10
7.5537523088
 20
9.5725110842
 11
7.4713864352
 21
9.4039350487
  0
LINE
  5
22A
100
AcDbEntity
  8
0
100
AcDbLine
 62
7
  6
CONTINUOUS
 10
7.4839949544
 20
9.3972005289
 11
7.5547620937
 21
9.5420377444
  0
LINE
  5
22B
100
AcDbEntity
  8
0
100
AcDbLine
 62
7
  6
CONTINUOUS
 10
7.905205241
 20
6.8791845133
 11
7.8969027412
 21
6.8822016847
  0
LINE
  5
22C
100
AcDbEntity
  8
0
100
AcDbLine
 62
9
  6
CONTINUOUS
 10
7.4457073809
 20
9.4022025019
 11
7.4497929589
 21
9.3826242424
  0
LINE
  5
22D
100
AcDbEntity
  8
0
100
AcDbLine
 62
7
  6
CONTINUOUS
 10
7.8860749848
 20
6.8934150604
 11
7.8847854685
 21
6.9019680257
  0
LINE
  5
22E
100
AcDbEntity
  8
0
100
AcDbLine
 62
9
  6
CONTINUOUS
 10
8.0673639352
 20
6.6211695007
 11
8.0673639352
 21
6.5911695021
  0
LINE
  5
22F
100
AcDbEntity
  8
0
100
AcDbLine
 62
7
  6
CONTINUOUS
 10
8.0873539285
 20
6.5911695021
 11
8.0873539285
 21
6.6211695013
  0
LINE
  5
230
100
AcDbEntity
  8
0
100
AcDbLine
 62
9
  6
CONTINUOUS
 10
13.9429204173
 20
6.8558714126
 11
13.9448363002
 21
6.8559829035
  0
LINE
  5
231
100
AcDbEntity
  8
0
100
AcDbLine
 62
9
  6
CONTINUOUS
 10
15.8722550333
 20
6.9542649112
 11
15.8702383956
 21
6.954152173
  0
LINE
  5
232
100
AcDbEntity
  8
0
100
AcDbLine
 62
7
  6
CONTINUOUS
 10
5.7880307366
 20
6.5911695021
 11
8.0873539285
 21
6.5911695021
  0
LINE
  5
233
100
AcDbEntity
  8
0
100
AcDbLine
 62
7
  6
CONTINUOUS
 10
9.9253309357
 20
6.5911695021
 11
11.9503309357
 21
6.5911695021
  0
LINE
  5
234
100
AcDbEntity
  8
0
100
AcDbLine
 62
7
  6
CONTINUOUS
 10
13.788030757
 20
6.5911695021
 11
16.0873539489
 21
6.5911695021
  0
LINE
  5
235
100
AcDbEntity
  8
0
100
AcDbLine
 62
7
  6
CONTINUOUS
 10
5.80802073
 20
6.6211695044
 11
8.0673639352
 21
6.6211695044
  0
LINE
  5
236
100
AcDbEntity
  8
0
100
AcDbLine
 62
7
  6
CONTINUOUS
 10
13.8080207503
 20
6.6211695044
 11
16.0673639555
 21
6.6211695044
  0
LINE
  5
237
100
AcDbEntity
  8
0
100
AcDbLine
 62
9
  6
CONTINUOUS
 10
7.9324608993
 20
6.8558715887
 11
7.9324643722
 21
6.8558714083
  0
LINE
  5
238
100
AcDbEntity
  8
0
100
AcDbLine
 62
9
  6
CONTINUOUS
 10
6.0051426641
 20
6.9541461273
 11
6.0031261353
 21
6.9542590249
  0
LINE
  5
239
100
AcDbEntity
  8
0
100
AcDbLine
 62
9
  6
CONTINUOUS
 10
7.930548238
 20
6.8559831462
 11
7.9324608993
 21
6.8558715887
  0
LINE
  5
23A
100
AcDbEntity
  8
0
100
AcDbLine
 62
9
  6
CONTINUOUS
 10
7.462667356
 20
9.8633945693
 11
7.5537523088
 21
9.7079211906
  0
LINE
  5
23B
100
AcDbEntity
  8
0
100
AcDbLine
 62
7
  6
CONTINUOUS
 10
7.5540489462
 20
9.7392634889
 11
7.4686590619
 21
9.8850159256
  0
LINE
  5
23C
100
AcDbEntity
  8
0
100
AcDbLine
 62
9
  6
CONTINUOUS
 10
5.9429188189
 20
6.8558694826
 11
5.9448397145
 21
6.8559885772
  0
LINE
  5
23D
100
AcDbEntity
  8
0
100
AcDbLine
 62
9
  6
CONTINUOUS
 10
11.9503309357
 20
6.8401369698
 11
11.6344325794
 21
6.8401369698
  0
LINE
  5
23E
100
AcDbEntity
  8
0
100
AcDbLine
 62
9
  6
CONTINUOUS
 10
10.240952106
 20
6.8401369698
 11
9.9253309357
 21
6.8401369698
  0
LINE
  5
23F
100
AcDbEntity
  8
0
100
AcDbLine
 62
9
  6
CONTINUOUS
 10
5.9616832088
 20
6.8559831492
 11
7.9137023891
 21
6.8559829594
  0
LINE
  5
240
100
AcDbEntity
  8
0
100
AcDbLine
 62
9
  6
CONTINUOUS
 10
13.9616836275
 20
6.8559829519
 11
15.9137018005
 21
6.8559832037
  0
LINE
  5
241
100
AcDbEntity
  8
0
100
AcDbLine
 62
7
  6
CONTINUOUS
 10
11.9128309357
 20
6.9111695021
 11
11.5924278532
 21
6.9111695021
  0
LINE
  5
242
100
AcDbEntity
  8
0
100
AcDbLine
 62
7
  6
CONTINUOUS
 10
10.2829568323
 20
6.9111695021
 11
9.9628309357
 21
6.9111695021
  0
LINE
  5
243
100
AcDbEntity
  8
0
100
AcDbLine
 62
9
  6
CONTINUOUS
 10
15.8531727577
 20
6.9541470127
 11
14.022211218
 21
6.954147391
  0
LINE
  5
244
100
AcDbEntity
  8
0
100
AcDbLine
 62
9
  6
CONTINUOUS
 10
7.8531218492
 20
6.9542297952
 11
6.02226163
 21
6.9542298709
  0
LINE
  5
245
100
AcDbEntity
  8
0
100
AcDbLine
 62
9
  6
CONTINUOUS
 10
14.005193
 20
6.9542298312
 11
14.0031162665
 21
6.9542298414
  0
LINE
  5
246
100
AcDbEntity
  8
0
100
AcDbLine
 62
9
  6
CONTINUOUS
 10
7.8722754765
 20
6.9542298415
 11
7.87019168
 21
6.9542298312
  0
LINE
  5
247
100
AcDbEntity
  8
0
100
AcDbLine
 62
7
  6
CONTINUOUS
 10
11.4326923427
 20
7.0911695021
 11
10.4426923427
 21
7.0911695021
  0
LINE
  5
248
100
AcDbEntity
  8
0
100
AcDbLine
 62
9
  6
CONTINUOUS
 10
11.4001923427
 20
7.1711695021
 11
10.4751923427
 21
7.1711695021
  0
LINE
  5
249
100
AcDbEntity
  8
0
100
AcDbLine
 62
9
  6
CONTINUOUS
 10
15.9305491403
 20
6.8559819641
 11
15.9324700992
 21
6.8558627257
  0
LINE
  5
24A
100
AcDbEntity
  8
0
100
AcDbLine
 62
9
  6
CONTINUOUS
 10
10.5840398532
 20
7.5332529045
 11
10.7858028637
 21
7.5870563737
  0
LINE
  5
24B
100
AcDbEntity
  8
0
100
AcDbLine
 62
7
  6
CONTINUOUS
 10
10.7806496093
 20
7.5870563736
 11
10.5730287359
 21
7.5316908074
  0
LINE
  5
24C
100
AcDbEntity
  8
0
100
AcDbLine
 62
7
  6
CONTINUOUS
 10
17.8518964608
 20
9.4373851242
 11
17.8542387041
 21
9.4379515235
  0
LINE
  5
24D
100
AcDbEntity
  8
0
100
AcDbLine
 62
9
  6
CONTINUOUS
 10
10.5104088365
 20
7.3352720662
 11
11.3649804298
 21
7.3352720662
  0
LINE
  5
24E
100
AcDbEntity
  8
0
100
AcDbLine
 62
7
  6
CONTINUOUS
 10
11.3558607276
 20
7.3411695021
 11
10.5195284409
 21
7.3411695021
  0
LINE
  5
24F
100
AcDbEntity
  8
0
100
AcDbLine
 62
9
  6
CONTINUOUS
 10
10.5981818894
 20
7.4438029995
 11
11.2772026966
 21
7.4438029995
  0
LINE
  5
250
100
AcDbEntity
  8
0
100
AcDbLine
 62
9
  6
CONTINUOUS
 10
10.5981819886
 20
7.4576901454
 11
11.2772026965
 21
7.4576901455
  0
LINE
  5
251
100
AcDbEntity
  8
0
100
AcDbLine
 62
9
  6
CONTINUOUS
 10
11.2772026966
 20
7.5123661086
 11
10.5981819889
 21
7.5123661086
  0
LINE
  5
252
100
AcDbEntity
  8
0
100
AcDbLine
 62
9
  6
CONTINUOUS
 10
10.5981819889
 20
7.5316908074
 11
11.2772026966
 21
7.5316908074
  0
LINE
  5
253
100
AcDbEntity
  8
0
100
AcDbLine
 62
9
  6
CONTINUOUS
 10
11.0895818232
 20
7.5870563736
 11
10.7858028637
 21
7.5870563737
  0
LINE
  5
254
100
AcDbEntity
  8
0
100
AcDbLine
 62
7
  6
CONTINUOUS
 10
10.7858028622
 20
7.5877316748
 11
11.0895818231
 21
7.5877316748
  0
LINE
  5
255
100
AcDbEntity
  8
0
100
AcDbLine
 62
9
  6
CONTINUOUS
 10
10.2296387381
 20
7.7519146422
 11
11.6460231332
 21
7.7519146422
  0
LINE
  5
256
100
AcDbEntity
  8
0
100
AcDbLine
 62
9
  6
CONTINUOUS
 10
11.0895818232
 20
7.5870563736
 11
11.2913448322
 21
7.5332529045
  0
LINE
  5
257
100
AcDbEntity
  8
0
100
AcDbLine
 62
7
  6
CONTINUOUS
 10
11.3023559496
 20
7.5316908074
 11
11.0947350759
 21
7.5870563737
  0
LWPOLYLINE
  5
258
100
AcDbEntity
  8
0
100
AcDbPolyline
 62
7
  6
CONTINUOUS
 90
5
 70
0
 10
4.0201069532
 20
9.4383014344
 10
4.0224022181
 20
9.4376106839
 10
4.0244088262
 20
9.4372422104
 10
4.0256871169
 20
9.4371144147
 10
4.0263469961
 20
9.4370776167
  0
LINE
  5
259
100
AcDbEntity
  8
0
100
AcDbLine
 62
7
  6
CONTINUOUS
 10
9.8724533315
 20
11.0591695021
 11
9.8724533315
 21
11.6691695021
  0
LINE
  5
25A
100
AcDbEntity
  8
0
100
AcDbLine
 62
7
  6
CONTINUOUS
 10
9.9253309357
 20
6.8401369698
 11
9.9253309357
 21
6.5911695021
  0
LINE
  5
25B
100
AcDbEntity
  8
0
100
AcDbLine
 62
9
  6
CONTINUOUS
 10
10.2809603323
 20
7.894510275
 11
11.5947015391
 21
7.894510275
  0
LINE
  5
25C
100
AcDbEntity
  8
0
100
AcDbLine
 62
7
  6
CONTINUOUS
 10
10.2993027982
 20
11.043244538
 11
10.2984618921
 21
11.0591695021
  0
LINE
  5
25D
100
AcDbEntity
  8
0
100
AcDbLine
 62
7
  6
CONTINUOUS
 10
10.0705285223
 20
11.0591695021
 11
10.0705285223
 21
11.6691695021
  0
LINE
  5
25E
100
AcDbEntity
  8
0
100
AcDbLine
 62
7
  6
CONTINUOUS
 10
10.1778309357
 20
10.693430271
 11
10.1778309357
 21
10.1340026499
  0
LINE
  5
25F
100
AcDbEntity
  8
0
100
AcDbLine
 62
7
  6
CONTINUOUS
 10
10.2984618921
 20
11.0591695021
 11
10.2984618921
 21
11.6691695021
  0
LINE
  5
260
100
AcDbEntity
  8
0
100
AcDbLine
 62
7
  6
CONTINUOUS
 10
10.4751923427
 20
7.0911695021
 11
10.4751923427
 21
7.1711695021
  0
LINE
  5
261
100
AcDbEntity
  8
0
100
AcDbLine
 62
7
  6
CONTINUOUS
 10
10.3622420029
 20
10.0591695021
 11
10.2809603323
 21
7.894510275
  0
LINE
  5
262
100
AcDbEntity
  8
0
100
AcDbLine
 62
7
  6
CONTINUOUS
 10
11.9278309357
 20
10.969602573
 11
11.7262997144
 21
10.7633107717
  0
LINE
  5
263
100
AcDbEntity
  8
0
100
AcDbLine
 62
7
  6
CONTINUOUS
 10
17.8501416423
 20
9.4371497847
 11
17.8519483218
 21
9.4373944786
  0
LINE
  5
264
100
AcDbEntity
  8
0
100
AcDbLine
 62
7
  6
CONTINUOUS
 10
10.5581819889
 20
7.4576901455
 11
10.5581819889
 21
7.5123661086
  0
LINE
  5
265
100
AcDbEntity
  8
0
100
AcDbLine
 62
9
  6
CONTINUOUS
 10
10.5981819888
 20
7.5316908074
 11
10.5981818894
 21
7.4438029995
  0
LINE
  5
266
100
AcDbEntity
  8
0
100
AcDbLine
 62
7
  6
CONTINUOUS
 10
10.7766577042
 20
11.0591695021
 11
10.7766577042
 21
11.6691695021
  0
LINE
  5
267
100
AcDbEntity
  8
0
100
AcDbLine
 62
9
  6
CONTINUOUS
 10
10.7858028623
 20
7.5877316748
 11
10.7858028623
 21
7.5870563736
  0
LINE
  5
268
100
AcDbEntity
  8
0
100
AcDbLine
 62
7
  6
CONTINUOUS
 10
17.8217287699
 20
10.1850352563
 11
17.4925671525
 21
10.134865773
  0
LINE
  5
269
100
AcDbEntity
  8
0
100
AcDbLine
 62
7
  6
CONTINUOUS
 10
17.4925672236
 20
10.1348657839
 11
17.1257252769
 21
10.0880642084
  0
LINE
  5
26A
100
AcDbEntity
  8
0
100
AcDbLine
 62
9
  6
CONTINUOUS
 10
15.5338833371
 20
9.4641358743
 11
15.5361922039
 21
9.4643969279
  0
LINE
  5
26B
100
AcDbEntity
  8
0
100
AcDbLine
 62
7
  6
CONTINUOUS
 10
15.5361839952
 20
9.4442685788
 11
15.5384270285
 21
9.4445213133
  0
LWPOLYLINE
  5
26C
100
AcDbEntity
  8
0
100
AcDbPolyline
 62
7
  6
CONTINUOUS
 90
4
 70
0
 10
15.5384340788
 20
9.44438852
 10
15.8922340948
 20
9.4631724085
 10
16.2881778773
 20
9.4712827654
 10
16.7236923427
 20
9.4685456353
  0
LWPOLYLINE
  5
26D
100
AcDbEntity
  8
0
100
AcDbPolyline
 62
7
  6
CONTINUOUS
 90
4
 70
0
 10
17.8482866517
 20
9.4370501962
 10
17.8487733733
 20
9.4370668603
 10
17.8492780103
 20
9.4370891034
 10
17.8501356692
 20
9.4371492464
  0
LINE
  5
26E
100
AcDbEntity
  8
0
100
AcDbLine
 62
7
  6
CONTINUOUS
 10
17.8464951316
 20
9.437000028
 11
17.8482866517
 21
9.4370501962
  0
LINE
  5
26F
100
AcDbEntity
  8
0
100
AcDbLine
 62
7
  6
CONTINUOUS
 10
6.6576920701
 20
9.0907695021
 11
7.2176924315
 21
9.0907695021
  0
LINE
  5
270
100
AcDbEntity
  8
0
100
AcDbLine
 62
7
  6
CONTINUOUS
 10
14.6576922002
 20
9.0907695021
 11
15.2176924582
 21
9.0907695021
  0
LINE
  5
271
100
AcDbEntity
  8
0
100
AcDbLine
 62
7
  6
CONTINUOUS
 10
6.6626923437
 20
9.1217695021
 11
7.212692337
 21
9.1217695021
  0
LINE
  5
272
100
AcDbEntity
  8
0
100
AcDbLine
 62
7
  6
CONTINUOUS
 10
14.6626923474
 20
9.1217695021
 11
15.2126923405
 21
9.1217695021
  0
LINE
  5
273
100
AcDbEntity
  8
0
100
AcDbLine
 62
7
  6
CONTINUOUS
 10
4.0291409162
 20
9.4369950876
 11
4.0288900921
 21
9.4370000095
  0
LINE
  5
274
100
AcDbEntity
  8
0
100
AcDbLine
 62
7
  6
CONTINUOUS
 10
4.0271147452
 20
9.4370496699
 11
4.0288894994
 21
9.4370000295
  0
LINE
  5
275
100
AcDbEntity
  8
0
100
AcDbLine
 62
7
  6
CONTINUOUS
 10
4.0266923539
 20
9.4370638577
 11
4.0271955853
 21
9.4370471549
  0
LINE
  5
276
100
AcDbEntity
  8
0
100
AcDbLine
 62
7
  6
CONTINUOUS
 10
4.0262717815
 20
9.4370810109
 11
4.026762857
 21
9.4370613335
  0
LINE
  5
277
100
AcDbEntity
  8
0
100
AcDbLine
 62
9
  6
CONTINUOUS
 10
6.3415013484
 20
9.4641358743
 11
6.3391924447
 21
9.464396932
  0
LINE
  5
278
100
AcDbEntity
  8
0
100
AcDbLine
 62
7
  6
CONTINUOUS
 10
4.382817391
 20
10.1348657929
 11
4.0536556818
 21
10.1850352949
  0
LINE
  5
279
100
AcDbEntity
  8
0
100
AcDbLine
 62
9
  6
CONTINUOUS
 10
11.0895818231
 20
7.5870563736
 11
11.0895818231
 21
7.5877316748
  0
LINE
  5
27A
100
AcDbEntity
  8
0
100
AcDbLine
 62
7
  6
CONTINUOUS
 10
11.0990041671
 20
11.0591695021
 11
11.0990041671
 21
11.6691695021
  0
LINE
  5
27B
100
AcDbEntity
  8
0
100
AcDbLine
 62
9
  6
CONTINUOUS
 10
11.2772026966
 20
7.4438029995
 11
11.2772026966
 21
7.5316908074
  0
LINE
  5
27C
100
AcDbEntity
  8
0
100
AcDbLine
 62
7
  6
CONTINUOUS
 10
11.3172026966
 20
7.5123661086
 11
11.3172026966
 21
7.4576901454
  0
LINE
  5
27D
100
AcDbEntity
  8
0
100
AcDbLine
 62
7
  6
CONTINUOUS
 10
11.4001923427
 20
7.0911695021
 11
11.4001923427
 21
7.1711695021
  0
LINE
  5
27E
100
AcDbEntity
  8
0
100
AcDbLine
 62
7
  6
CONTINUOUS
 10
11.5771999792
 20
11.0591695021
 11
11.5763590731
 21
11.0432442944
  0
LINE
  5
27F
100
AcDbEntity
  8
0
100
AcDbLine
 62
7
  6
CONTINUOUS
 10
17.1257253131
 20
10.088064213
 11
16.7236923427
 21
10.0459459641
  0
LINE
  5
280
100
AcDbEntity
  8
0
100
AcDbLine
 62
7
  6
CONTINUOUS
 10
15.5361924165
 20
9.9372154501
 11
15.5377899563
 21
9.9373249019
  0
LINE
  5
281
100
AcDbEntity
  8
0
100
AcDbLine
 62
7
  6
CONTINUOUS
 10
5.1516685707
 20
9.4685447288
 11
4.66525724
 21
9.448557854
  0
LINE
  5
282
100
AcDbEntity
  8
0
100
AcDbLine
 62
9
  6
CONTINUOUS
 10
17.9865759043
 20
9.7163276194
 11
17.9890534776
 21
9.7164119735
  0
LINE
  5
283
100
AcDbEntity
  8
0
100
AcDbLine
 62
9
  6
CONTINUOUS
 10
17.982209193
 20
9.9174361788
 11
17.9797316197
 21
9.9173518247
  0
LINE
  5
284
100
AcDbEntity
  8
0
100
AcDbLine
 62
7
  6
CONTINUOUS
 10
4.0291474083
 20
9.4369948937
 11
4.66525724
 21
9.448557854
  0
LWPOLYLINE
  5
285
100
AcDbEntity
  8
0
100
AcDbPolyline
 62
7
  6
CONTINUOUS
 90
4
 70
0
 10
5.1516923427
 20
9.4685456353
 10
5.5872068081
 20
9.4712827654
 10
5.9831505907
 20
9.4631724085
 10
6.3369371048
 20
9.4443892368
  0
LINE
  5
286
100
AcDbEntity
  8
0
100
AcDbLine
 62
9
  6
CONTINUOUS
 10
7.4457073899
 20
9.4022024994
 11
7.4626673551
 21
9.4022024994
  0
LINE
  5
287
100
AcDbEntity
  8
0
100
AcDbLine
 62
9
  6
CONTINUOUS
 10
14.412717332
 20
9.4022025228
 11
14.4296772956
 21
9.4022025228
  0
LINE
  5
288
100
AcDbEntity
  8
0
100
AcDbLine
 62
9
  6
CONTINUOUS
 10
7.5537523088
 20
9.5725110976
 11
7.5567923427
 21
9.5725110976
  0
LINE
  5
289
100
AcDbEntity
  8
0
100
AcDbLine
 62
9
  6
CONTINUOUS
 10
14.3185923427
 20
9.5725110842
 11
14.3216323767
 21
9.5725110842
  0
LINE
  5
28A
100
AcDbEntity
  8
0
100
AcDbLine
 62
9
  6
CONTINUOUS
 10
14.3216323767
 20
9.7079211908
 11
14.3185923427
 21
9.7079211908
  0
LINE
  5
28B
100
AcDbEntity
  8
0
100
AcDbLine
 62
9
  6
CONTINUOUS
 10
7.5567923427
 20
9.7079211906
 11
7.5537523088
 21
9.7079211906
  0
LINE
  5
28C
100
AcDbEntity
  8
0
100
AcDbLine
 62
9
  6
CONTINUOUS
 10
3.8863312079
 20
9.7164119736
 11
3.8888087812
 21
9.7163276195
  0
LINE
  5
28D
100
AcDbEntity
  8
0
100
AcDbLine
 62
9
  6
CONTINUOUS
 10
3.8956530658
 20
9.9173518248
 11
3.8931754925
 21
9.9174361789
  0
LWPOLYLINE
  5
28E
100
AcDbEntity
  8
0
100
AcDbPolyline
 62
7
  6
CONTINUOUS
 90
3
 70
0
 10
16.7236923427
 20
9.4685456353
 10
17.2101226934
 20
9.448558035
 10
17.8462372839
 20
9.4369948933
  0
LINE
  5
28F
100
AcDbEntity
  8
0
100
AcDbLine
 62
7
  6
CONTINUOUS
 10
6.3377053
 20
9.9373172924
 11
6.3391924176
 21
9.9372154396
  0
LWPOLYLINE
  5
290
100
AcDbEntity
  8
0
100
AcDbPolyline
 62
7
  6
CONTINUOUS
 90
3
 70
0
 10
5.1516923427
 20
10.0459459641
 10
4.7496593343
 20
10.088064217
 10
4.382817391
 20
10.1348657929
  0
LINE
  5
291
100
AcDbEntity
  8
0
100
AcDbLine
 62
7
  6
CONTINUOUS
 10
9.9478309357
 20
10.969602573
 11
10.1493621569
 21
10.7633107717
  0
LINE
  5
292
100
AcDbEntity
  8
0
100
AcDbLine
 62
7
  6
CONTINUOUS
 10
11.5134198685
 20
10.0591695021
 11
11.5947015391
 21
7.894510275
  0
LINE
  5
293
100
AcDbEntity
  8
0
100
AcDbLine
 62
7
  6
CONTINUOUS
 10
11.5771999792
 20
11.0591695021
 11
11.5771999792
 21
11.6691695021
  0
LINE
  5
294
100
AcDbEntity
  8
0
100
AcDbLine
 62
7
  6
CONTINUOUS
 10
11.6978309357
 20
10.693430271
 11
11.6978309357
 21
10.1340026499
  0
LINE
  5
295
100
AcDbEntity
  8
0
100
AcDbLine
 62
7
  6
CONTINUOUS
 10
11.805133349
 20
11.0591695021
 11
11.805133349
 21
11.6691695021
  0
LINE
  5
296
100
AcDbEntity
  8
0
100
AcDbLine
 62
7
  6
CONTINUOUS
 10
11.9503309357
 20
6.8401369698
 11
11.9503309357
 21
6.5911695021
  0
LINE
  5
297
100
AcDbEntity
  8
0
100
AcDbLine
 62
7
  6
CONTINUOUS
 10
12.0032085398
 20
11.0591695021
 11
12.0032085398
 21
11.6691695021
  0
LINE
  5
298
100
AcDbEntity
  8
0
100
AcDbLine
 62
9
  6
CONTINUOUS
 10
17.8422942065
 20
10.1480830013
 11
17.8245779002
 21
10.1474639605
  0
LINE
  5
299
100
AcDbEntity
  8
0
100
AcDbLine
 62
9
  6
CONTINUOUS
 10
14.4296772956
 20
9.8633945694
 11
14.412717332
 21
9.8633945694
  0
LINE
  5
29A
100
AcDbEntity
  8
0
100
AcDbLine
 62
9
  6
CONTINUOUS
 10
7.4626673551
 20
9.8633945944
 11
7.4457073899
 21
9.8633945944
  0
LINE
  5
29B
100
AcDbEntity
  8
0
100
AcDbLine
 62
7
  6
CONTINUOUS
 10
10.1978309357
 20
10.0591695021
 11
11.6778309357
 21
10.0591695021
  0
LINE
  5
29C
100
AcDbEntity
  8
0
100
AcDbLine
 62
9
  6
CONTINUOUS
 10
10.1778309357
 20
10.1340026499
 11
11.6978309357
 21
10.1340026499
  0
LINE
  5
29D
100
AcDbEntity
  8
0
100
AcDbLine
 62
9
  6
CONTINUOUS
 10
4.0330904791
 20
10.1480830031
 11
4.0508067855
 21
10.1474639605
  0
LINE
  5
29E
100
AcDbEntity
  8
0
100
AcDbLine
 62
9
  6
CONTINUOUS
 10
7.4627362818
 20
9.8782778137
 11
7.4446642068
 21
9.8751759003
  0
LINE
  5
29F
100
AcDbEntity
  8
0
100
AcDbLine
 62
7
  6
CONTINUOUS
 10
4.0536512446
 20
10.1850360291
 11
4.0458093983
 21
10.1847730231
  0
LINE
  5
2A0
100
AcDbEntity
  8
0
100
AcDbLine
 62
9
  6
CONTINUOUS
 10
11.6978309357
 20
10.693430271
 11
10.1778454206
 21
10.693430271
  0
LINE
  5
2A1
100
AcDbEntity
  8
0
100
AcDbLine
 62
9
  6
CONTINUOUS
 10
10.1493621569
 20
10.7633107717
 11
11.7262997144
 21
10.7633107717
  0
LINE
  5
2A2
100
AcDbEntity
  8
0
100
AcDbLine
 62
9
  6
CONTINUOUS
 10
14.430720479
 20
9.8751759011
 11
14.4126483346
 21
9.8782778329
  0
LINE
  5
2A3
100
AcDbEntity
  8
0
100
AcDbLine
 62
7
  6
CONTINUOUS
 10
9.8724533315
 20
11.0591695021
 11
10.0705285223
 21
11.0591695021
  0
LINE
  5
2A4
100
AcDbEntity
  8
0
100
AcDbLine
 62
7
  6
CONTINUOUS
 10
10.2984618921
 20
11.0591695021
 11
10.7766577042
 21
11.0591695021
  0
LINE
  5
2A5
100
AcDbEntity
  8
0
100
AcDbLine
 62
7
  6
CONTINUOUS
 10
11.0990041671
 20
11.0591695021
 11
11.5771999792
 21
11.0591695021
  0
LINE
  5
2A6
100
AcDbEntity
  8
0
100
AcDbLine
 62
7
  6
CONTINUOUS
 10
11.805133349
 20
11.0591695021
 11
12.0032085398
 21
11.0591695021
  0
LWPOLYLINE
  5
2A7
100
AcDbEntity
  8
0
100
AcDbPolyline
 62
7
  6
CONTINUOUS
 90
7
 70
0
 10
17.8542387041
 20
9.4379515235
 10
17.8567427592
 20
9.4389068178
 10
17.859198951
 20
9.4402535849
 10
17.86153694
 20
9.4420118779
 10
17.8636593389
 20
9.4441700137
 10
17.8654830196
 20
9.446707812
 10
17.8662184434
 20
9.4480317868
  0
LINE
  5
2A8
100
AcDbEntity
  8
0
100
AcDbLine
 62
9
  6
CONTINUOUS
 10
12.0032085398
 20
11.6691695021
 11
11.805133349
 21
11.6691695021
  0
LINE
  5
2A9
100
AcDbEntity
  8
0
100
AcDbLine
 62
9
  6
CONTINUOUS
 10
11.5771999792
 20
11.6691695021
 11
11.0990041671
 21
11.6691695021
  0
LINE
  5
2AA
100
AcDbEntity
  8
0
100
AcDbLine
 62
9
  6
CONTINUOUS
 10
10.7766577042
 20
11.6691695021
 11
10.2984618921
 21
11.6691695021
  0
LINE
  5
2AB
100
AcDbEntity
  8
0
100
AcDbLine
 62
9
  6
CONTINUOUS
 10
10.0705285223
 20
11.6691695021
 11
9.8724533315
 21
11.6691695021
  0
LINE
  5
2AC
100
AcDbEntity
  8
0
100
AcDbLine
 62
7
  6
CONTINUOUS
 10
11.8653309357
 20
11.8191695021
 11
10.0103309357
 21
11.8191695021
  0
LINE
  5
2AD
100
AcDbEntity
  8
0
100
AcDbLine
 62
7
  6
CONTINUOUS
 10
13.788030757
 20
6.6211695013
 11
13.788030757
 21
6.5911695021
  0
LINE
  5
2AE
100
AcDbEntity
  8
0
100
AcDbLine
 62
9
  6
CONTINUOUS
 10
13.8080207503
 20
6.5911695021
 11
13.8080207503
 21
6.6211695007
  0
LINE
  5
2AF
100
AcDbEntity
  8
0
100
AcDbLine
 62
7
  6
CONTINUOUS
 10
14.4067256235
 20
9.8850159256
 11
14.3213357393
 21
9.7392634889
  0
LINE
  5
2B0
100
AcDbEntity
  8
0
100
AcDbLine
 62
9
  6
CONTINUOUS
 10
14.3216323767
 20
9.7079211906
 11
14.4127173295
 21
9.8633945694
  0
LINE
  5
2B1
100
AcDbEntity
  8
0
100
AcDbLine
 62
9
  6
CONTINUOUS
 10
10.0286945026
 20
11.8791695021
 11
11.8469673687
 21
11.8791695021
  0
LINE
  5
2B2
100
AcDbEntity
  8
0
100
AcDbLine
 62
9
  6
CONTINUOUS
 10
14.4307204795
 20
9.8751759011
 11
14.4299182226
 21
9.8951598619
  0
LINE
  5
2B3
100
AcDbEntity
  8
0
100
AcDbLine
 62
7
  6
CONTINUOUS
 10
14.3185923427
 20
9.5508177245
 11
14.3185923427
 21
9.7291536108
  0
LINE
  5
2B4
100
AcDbEntity
  8
0
100
AcDbLine
 62
9
  6
CONTINUOUS
 10
14.3216323767
 20
9.7079211906
 11
14.3216323767
 21
9.5725110842
  0
LINE
  5
2B5
100
AcDbEntity
  8
0
100
AcDbLine
 62
9
  6
CONTINUOUS
 10
14.4127173345
 20
9.4022025471
 11
14.4127173295
 21
9.8633945694
  0
LINE
  5
2B6
100
AcDbEntity
  8
0
100
AcDbLine
 62
9
  6
CONTINUOUS
 10
14.4296772795
 20
9.4022025296
 11
14.4296772956
 21
9.8633945694
  0
LINE
  5
2B7
100
AcDbEntity
  8
0
100
AcDbLine
 62
7
  6
CONTINUOUS
 10
13.990599217
 20
6.9019680257
 11
13.9893097006
 21
6.8934150604
  0
LINE
  5
2B8
100
AcDbEntity
  8
0
100
AcDbLine
 62
9
  6
CONTINUOUS
 10
14.4255917596
 20
9.3826242634
 11
14.4296772795
 21
9.4022025296
  0
LWPOLYLINE
  5
2B9
100
AcDbEntity
  8
0
100
AcDbPolyline
 62
7
  6
CONTINUOUS
 90
3
 70
0
 10
13.9966103123
 20
6.9409715652
 10
13.990889256
 20
6.9175366855
 10
13.9906024319
 20
6.9019716546
  0
LINE
  5
2BA
100
AcDbEntity
  8
0
100
AcDbLine
 62
7
  6
CONTINUOUS
 10
13.9784819443
 20
6.8822016847
 11
13.9701794445
 21
6.8791845133
  0
LINE
  5
2BB
100
AcDbEntity
  8
0
100
AcDbLine
 62
7
  6
CONTINUOUS
 10
14.3206225918
 20
9.5420377444
 11
14.391389731
 21
9.3972005289
  0
LINE
  5
2BC
100
AcDbEntity
  8
0
100
AcDbLine
 62
9
  6
CONTINUOUS
 10
14.403998225
 20
9.4039351004
 11
14.3216323767
 21
9.5725110842
  0
LINE
  5
2BD
100
AcDbEntity
  8
0
100
AcDbLine
 62
7
  6
CONTINUOUS
 10
14.6846923427
 20
9.1217695021
 11
14.6846923427
 21
9.0907695021
  0
LWPOLYLINE
  5
2BE
100
AcDbEntity
  8
0
100
AcDbPolyline
 62
7
  6
CONTINUOUS
 90
3
 70
0
 10
14.3914547791
 20
7.7601686689
 10
14.2816948854
 20
7.48999079
 10
14.15074519
 20
7.2183533848
  0
LINE
  5
2BF
100
AcDbEntity
  8
0
100
AcDbLine
 62
7
  6
CONTINUOUS
 10
14.0031307657
 20
6.9542593889
 11
13.9966103123
 21
6.9409715652
  0
LINE
  5
2C0
100
AcDbEntity
  8
0
100
AcDbLine
 62
7
  6
CONTINUOUS
 10
14.15074519
 20
7.2183533848
 11
14.0031090693
 21
6.9542298415
  0
LWPOLYLINE
  5
2C1
100
AcDbEntity
  8
0
100
AcDbPolyline
 62
7
  6
CONTINUOUS
 90
4
 70
0
 10
13.9429203133
 20
6.8558714083
 10
13.8951804033
 20
6.7809853469
 10
13.8400188027
 20
6.6975350572
 10
13.7877175892
 20
6.6211695023
  0
LWPOLYLINE
  5
2C2
100
AcDbEntity
  8
0
100
AcDbPolyline
 62
7
  6
CONTINUOUS
 90
3
 70
0
 10
13.9893097006
 20
6.8934150604
 10
13.9850294228
 20
6.8867061332
 10
13.9784819443
 20
6.8822016847
  0
LWPOLYLINE
  5
2C3
100
AcDbEntity
  8
0
100
AcDbPolyline
 62
7
  6
CONTINUOUS
 90
4
 70
0
 10
13.9701794445
 20
6.8791845133
 10
13.9571296002
 20
6.8715301817
 10
13.9463802063
 20
6.8608175449
 10
13.9429200255
 20
6.8558662075
  0
LWPOLYLINE
  5
2C4
100
AcDbEntity
  8
0
100
AcDbPolyline
 62
7
  6
CONTINUOUS
 90
3
 70
0
 10
17.8367420646
 20
10.1814921557
 10
17.8294823351
 20
10.1847946538
 10
17.8216750097
 20
10.1850262839
  0
LINE
  5
2C5
100
AcDbEntity
  8
0
100
AcDbLine
 62
7
  6
CONTINUOUS
 10
17.8368657357
 20
10.1814016985
 11
17.8297018525
 21
10.1847428253
  0
LINE
  5
2C6
100
AcDbEntity
  8
0
100
AcDbLine
 62
7
  6
CONTINUOUS
 10
15.5102204656
 20
7.6907073642
 11
15.4839606982
 21
7.7600869351
  0
LINE
  5
2C7
100
AcDbEntity
  8
0
100
AcDbLine
 62
7
  6
CONTINUOUS
 10
15.4839606982
 20
7.7600869351
 11
15.4839073672
 21
7.7602314776
  0
LINE
  5
2C8
100
AcDbEntity
  8
0
100
AcDbLine
 62
7
  6
CONTINUOUS
 10
15.1906923427
 20
9.1217695021
 11
15.1906923427
 21
9.0907695021
  0
LINE
  5
2C9
100
AcDbEntity
  8
0
100
AcDbLine
 62
9
  6
CONTINUOUS
 10
15.5384270285
 20
9.4445213133
 11
15.5361923427
 21
9.4643960636
  0
LINE
  5
2CA
100
AcDbEntity
  8
0
100
AcDbLine
 62
9
  6
CONTINUOUS
 10
15.5361922039
 20
9.4643969279
 11
15.5361924165
 21
9.9372157513
  0
LINE
  5
2CB
100
AcDbEntity
  8
0
100
AcDbLine
 62
9
  6
CONTINUOUS
 10
16.0673639555
 20
6.6211695082
 11
16.0673639555
 21
6.5911695021
  0
LINE
  5
2CC
100
AcDbEntity
  8
0
100
AcDbLine
 62
7
  6
CONTINUOUS
 10
16.0873539489
 20
6.5911695021
 11
16.0873539489
 21
6.6211695021
  0
LINE
  5
2CD
100
AcDbEntity
  8
0
100
AcDbLine
 62
7
  6
CONTINUOUS
 10
17.8217287664
 20
10.1850352557
 11
17.8216885124
 21
10.1849760451
  0
LINE
  5
2CE
100
AcDbEntity
  8
0
100
AcDbLine
 62
9
  6
CONTINUOUS
 10
17.9865759043
 20
9.7163276195
 11
17.865695479
 21
9.4778588425
  0
LINE
  5
2CF
100
AcDbEntity
  8
0
100
AcDbLine
 62
7
  6
CONTINUOUS
 10
17.8662184918
 20
9.4480318824
 11
17.9875604266
 21
9.6874111096
  0
LINE
  5
2D0
100
AcDbEntity
  8
0
100
AcDbLine
 62
7
  6
CONTINUOUS
 10
17.8651783065
 20
9.4462837792
 11
17.8662184955
 21
9.4480318896
  0
LINE
  5
2D1
100
AcDbEntity
  8
0
100
AcDbLine
 62
7
  6
CONTINUOUS
 10
17.8421340738
 20
10.1756152694
 11
17.8367420646
 21
10.1814921557
  0
LINE
  5
2D2
100
AcDbEntity
  8
0
100
AcDbLine
 62
7
  6
CONTINUOUS
 10
17.8421206414
 20
10.1756299097
 11
17.8415074759
 21
10.1765914233
  0
LINE
  5
2D3
100
AcDbEntity
  8
0
100
AcDbLine
 62
9
  6
CONTINUOUS
 10
17.8422942852
 20
10.1480830057
 11
17.9797316197
 21
9.9173518247
  0
LINE
  5
2D4
100
AcDbEntity
  8
0
100
AcDbLine
 62
7
  6
CONTINUOUS
 10
17.9787470973
 20
9.9462683346
 11
17.8422080701
 21
10.1754914283
  0
LINE
  5
2D5
100
AcDbEntity
  8
0
100
AcDbLine
 62
7
  6
CONTINUOUS
 10
17.865695479
 20
9.4778588425
 11
17.8422942852
 21
10.1480830057
  0
LINE
  5
2D6
100
AcDbEntity
  8
0
100
AcDbLine
 62
9
  6
CONTINUOUS
 10
17.9865759043
 20
9.7163276195
 11
17.9797316197
 21
9.9173518247
  0
LINE
  5
2D7
100
AcDbEntity
  8
0
100
AcDbLine
 62
7
  6
CONTINUOUS
 10
17.9815528447
 20
9.936713852
 11
17.9897098258
 21
9.6971343003
  0
LINE
  5
2D8
100
AcDbEntity
  8
0
100
AcDbLine
 62
7
  6
CONTINUOUS
 10
17.846265981
 20
9.4771643429
 11
17.8245779002
 21
10.1474639605
  0
ARC
  5
2D9
100
AcDbEntity
  8
0
100
AcDbCircle
 62
7
  6
CONTINUOUS
 10
1.0082837074
 20
9.9503558987
 40
5.824643325
100
AcDbArc
 50
325.1406339723
 51
327.9083692386
  0
ARC
  5
2DA
100
AcDbEntity
  8
0
100
AcDbCircle
 62
9
  6
CONTINUOUS
 10
1.4478521418
 20
9.7102572809
 40
5.3405573724
100
AcDbArc
 50
324.6658231982
 51
327.6932115912
  0
ARC
  5
2DB
100
AcDbEntity
  8
0
100
AcDbCircle
 62
9
  6
CONTINUOUS
 10
1.4482475753
 20
9.6889544609
 40
5.3146059498
100
AcDbArc
 50
324.7489164423
 51
327.788018406
  0
ARC
  5
2DC
100
AcDbEntity
  8
0
100
AcDbCircle
 62
7
  6
CONTINUOUS
 10
1.6463342648
 20
9.5623535091
 40
5.0777736137
100
AcDbArc
 50
329.1037357173
 51
334.2263617835
  0
ARC
  5
2DD
100
AcDbEntity
  8
0
100
AcDbCircle
 62
7
  6
CONTINUOUS
 10
1.8865083447
 20
9.4423497496
 40
4.8093140294
100
AcDbArc
 50
334.2696545978
 51
334.8284984128
  0
ARC
  5
2DE
100
AcDbEntity
  8
0
100
AcDbCircle
 62
7
  6
CONTINUOUS
 10
2.0063865759
 20
9.3866211809
 40
4.6771166344
100
AcDbArc
 50
334.8217461078
 51
337.9955373524
  0
ARC
  5
2DF
100
AcDbEntity
  8
0
100
AcDbCircle
 62
7
  6
CONTINUOUS
 10
2.1687706704
 20
9.3192092514
 40
4.5013039465
100
AcDbArc
 50
338.0166594509
 51
338.790172718
  0
ARC
  5
2E0
100
AcDbEntity
  8
0
100
AcDbCircle
 62
7
  6
CONTINUOUS
 10
2.212343842
 20
9.2853604559
 40
4.448895655
100
AcDbArc
 50
347.9378960273
 51
349.7968680669
  0
ARC
  5
2E1
100
AcDbEntity
  8
0
100
AcDbCircle
 62
7
  6
CONTINUOUS
 10
2.2726454397
 20
9.2715326466
 40
4.3883862213
100
AcDbArc
 50
350.1183464373
 51
352.431266509
  0
ARC
  5
2E2
100
AcDbEntity
  8
0
100
AcDbCircle
 62
9
  6
CONTINUOUS
 10
4.2491519992
 20
9.6703068671
 40
0.3632700709
100
AcDbArc
 50
172.7219457026
 51
173.7695480488
  0
ARC
  5
2E3
100
AcDbEntity
  8
0
100
AcDbCircle
 62
9
  6
CONTINUOUS
 10
4.2354331133
 20
9.937615274
 40
0.3403837365
100
AcDbArc
 50
182.2717744489
 51
183.4129038988
  0
ARC
  5
2E4
100
AcDbEntity
  8
0
100
AcDbCircle
 62
9
  6
CONTINUOUS
 10
4.1396101791
 20
9.6824107569
 40
0.2530617014
100
AcDbArc
 50
173.8021677711
 51
175.1001871009
  0
ARC
  5
2E5
100
AcDbEntity
  8
0
100
AcDbCircle
 62
9
  6
CONTINUOUS
 10
4.1302456135
 20
9.9336198181
 40
0.2351205982
100
AcDbArc
 50
180.9091499984
 51
182.3149728491
  0
ARC
  5
2E6
100
AcDbEntity
  8
0
100
AcDbCircle
 62
7
  6
CONTINUOUS
 10
3.9138202588
 20
9.936033305
 40
0.02
100
AcDbArc
 50
149.2194346999
 51
178.05
  0
ARC
  5
2E7
100
AcDbEntity
  8
0
100
AcDbCircle
 62
7
  6
CONTINUOUS
 10
3.9056632777
 20
9.6964537533
 40
0.02
100
AcDbArc
 50
178.05
 51
206.8805652989
  0
ARC
  5
2E8
100
AcDbEntity
  8
0
100
AcDbCircle
 62
7
  6
CONTINUOUS
 10
5.8080250898
 20
6.6354384548
 40
0.0142689473
100
AcDbArc
 50
256.2985022514
 51
269.9824933399
  0
ARC
  5
2E9
100
AcDbEntity
  8
0
100
AcDbCircle
 62
9
  6
CONTINUOUS
 10
4.30317273
 20
17.4173194325
 40
7.9448830762
100
AcDbArc
 50
267.8830155581
 51
268.0231859683
  0
ARC
  5
2EA
100
AcDbEntity
  8
0
100
AcDbCircle
 62
7
  6
CONTINUOUS
 10
7.5469262369
 20
8.9128264222
 40
0.4797458659
100
AcDbArc
 50
99.3162848365
 51
99.4571366918
  0
ARC
  5
2EB
100
AcDbEntity
  8
0
100
AcDbCircle
 62
7
  6
CONTINUOUS
 10
7.5456742739
 20
8.9202386113
 40
0.4722286758
100
AcDbArc
 50
99.6833130402
 51
99.907978513
  0
ARC
  5
2EC
100
AcDbEntity
  8
0
100
AcDbCircle
 62
7
  6
CONTINUOUS
 10
7.5450653573
 20
8.9238683569
 40
0.4685483326
100
AcDbArc
 50
99.310315152
 51
100.6916066807
  0
ARC
  5
2ED
100
AcDbEntity
  8
0
100
AcDbCircle
 62
9
  6
CONTINUOUS
 10
7.5579947262
 20
8.9452746314
 40
0.4667658668
100
AcDbArc
 50
100.693185842
 51
101.7843999881
  0
ARC
  5
2EE
100
AcDbEntity
  8
0
100
AcDbCircle
 62
7
  6
CONTINUOUS
 10
6.3027850031
 20
8.9847227454
 40
0.4596621091
100
AcDbArc
 50
71.7179054087
 51
74.6916127329
  0
ARC
  5
2EF
100
AcDbEntity
  8
0
100
AcDbCircle
 62
7
  6
CONTINUOUS
 10
7.5423033683
 20
8.9387392443
 40
0.4534231947
100
AcDbArc
 50
100.6972735393
 51
101.0567284822
  0
ARC
  5
2F0
100
AcDbEntity
  8
0
100
AcDbCircle
 62
7
  6
CONTINUOUS
 10
7.5405877797
 20
8.9474700079
 40
0.4445254765
100
AcDbArc
 50
101.0555232632
 51
101.7856650603
  0
ARC
  5
2F1
100
AcDbEntity
  8
0
100
AcDbCircle
 62
7
  6
CONTINUOUS
 10
6.3085839973
 20
9.1242027678
 40
0.3527314804
100
AcDbArc
 50
12.6404340762
 51
16.7524052004
  0
ARC
  5
2F2
100
AcDbEntity
  8
0
100
AcDbCircle
 62
7
  6
CONTINUOUS
 10
6.3499019757
 20
9.1013683472
 40
0.3336757904
100
AcDbArc
 50
59.3115328841
 51
64.0966730115
  0
ARC
  5
2F3
100
AcDbEntity
  8
0
100
AcDbCircle
 62
7
  6
CONTINUOUS
 10
7.5422529605
 20
9.0917296725
 40
0.3298336512
100
AcDbArc
 50
158.8844515619
 51
162.3755250051
  0
ARC
  5
2F4
100
AcDbEntity
  8
0
100
AcDbCircle
 62
7
  6
CONTINUOUS
 10
7.5002264275
 20
9.0791964432
 40
0.3064630069
100
AcDbArc
 50
112.5527534623
 51
116.7864622228
  0
ARC
  5
2F5
100
AcDbEntity
  8
0
100
AcDbCircle
 62
7
  6
CONTINUOUS
 10
7.4829788844
 20
9.119107295
 40
0.264430051
100
AcDbArc
 50
145.1919400842
 51
150.5143169482
  0
ARC
  5
2F6
100
AcDbEntity
  8
0
100
AcDbCircle
 62
7
  6
CONTINUOUS
 10
7.4744124469
 20
9.1235784928
 40
0.2550256919
100
AcDbArc
 50
124.8482599531
 51
131.0186258582
  0
ARC
  5
2F7
100
AcDbEntity
  8
0
100
AcDbCircle
 62
7
  6
CONTINUOUS
 10
7.4713203282
 20
9.1274155696
 40
0.2501150237
100
AcDbArc
 50
137.7499565061
 51
145.2301097557
  0
ARC
  5
2F8
100
AcDbEntity
  8
0
100
AcDbCircle
 62
7
  6
CONTINUOUS
 10
7.4706369456
 20
9.127946123
 40
0.249252454
100
AcDbArc
 50
131.0227389451
 51
137.734610552
  0
ARC
  5
2F9
100
AcDbEntity
  8
0
100
AcDbCircle
 62
9
  6
CONTINUOUS
 10
7.7927233369
 20
6.90773619
 40
0.0903492744
100
AcDbArc
 50
356.2904963832
 51
30.9072916982
  0
ARC
  5
2FA
100
AcDbEntity
  8
0
100
AcDbCircle
 62
7
  6
CONTINUOUS
 10
6.0825433385
 20
6.9077599446
 40
0.0902357657
100
AcDbArc
 50
149.0634375468
 51
183.7295056135
  0
ARC
  5
2FB
100
AcDbEntity
  8
0
100
AcDbCircle
 62
7
  6
CONTINUOUS
 10
6.0804632664
 20
6.9080854546
 40
0.0900716426
100
AcDbArc
 50
149.1562014121
 51
183.8920684827
  0
ARC
  5
2FC
100
AcDbEntity
  8
0
100
AcDbCircle
 62
7
  6
CONTINUOUS
 10
7.8797227646
 20
6.8239245352
 40
0.0600923019
100
AcDbArc
 50
32.2415631386
 51
45.5326220905
  0
ARC
  5
2FD
100
AcDbEntity
  8
0
100
AcDbCircle
 62
7
  6
CONTINUOUS
 10
5.9938087596
 20
6.8239594932
 40
0.0600659529
100
AcDbArc
 50
106.8172951389
 51
147.906288769
  0
ARC
  5
2FE
100
AcDbEntity
  8
0
100
AcDbCircle
 62
9
  6
CONTINUOUS
 10
5.9955072636
 20
6.8240559898
 40
0.0598890697
100
AcDbArc
 50
106.6474790071
 51
147.7945239914
  0
ARC
  5
2FF
100
AcDbEntity
  8
0
100
AcDbCircle
 62
7
  6
CONTINUOUS
 10
7.8799017162
 20
6.8240885506
 40
0.0598498975
100
AcDbArc
 50
45.5448906333
 51
73.3697626448
  0
ARC
  5
300
100
AcDbEntity
  8
0
100
AcDbCircle
 62
7
  6
CONTINUOUS
 10
7.9030283703
 20
6.9006061074
 40
0.0201823635
100
AcDbArc
 50
176.3142599286
 51
200.6374975168
  0
ARC
  5
301
100
AcDbEntity
  8
0
100
AcDbCircle
 62
7
  6
CONTINUOUS
 10
5.9723681672
 20
6.9006023891
 40
0.0201698357
100
AcDbArc
 50
339.3902241029
 51
3.6889801789
  0
ARC
  5
302
100
AcDbEntity
  8
0
100
AcDbCircle
 62
7
  6
CONTINUOUS
 10
7.9028192252
 20
6.9005241875
 40
0.0199564093
100
AcDbArc
 50
200.6290311367
 51
240.8347041425
  0
ARC
  5
303
100
AcDbEntity
  8
0
100
AcDbCircle
 62
7
  6
CONTINUOUS
 10
5.9726304338
 20
6.9004655895
 40
0.0198730266
100
AcDbArc
 50
286.7337717114
 51
299.1090532339
  0
ARC
  5
304
100
AcDbEntity
  8
0
100
AcDbCircle
 62
7
  6
CONTINUOUS
 10
7.9026246354
 20
6.9001618251
 40
0.0195446644
100
AcDbArc
 50
240.8151475429
 51
253.3676134562
  0
ARC
  5
305
100
AcDbEntity
  8
0
100
AcDbCircle
 62
7
  6
CONTINUOUS
 10
8.0673465154
 20
6.6355536233
 40
0.0143841331
100
AcDbArc
 50
270.069387417
 51
283.6426751065
  0
ARC
  5
306
100
AcDbEntity
  8
0
100
AcDbCircle
 62
7
  6
CONTINUOUS
 10
7.7764980558
 20
9.2187570004
 40
2.7892914323
100
AcDbArc
 50
38.880829521
 51
41.2856606156
  0
ARC
  5
307
100
AcDbEntity
  8
0
100
AcDbCircle
 62
9
  6
CONTINUOUS
 10
7.0872594891
 20
9.5221695202
 40
0.4692012616
100
AcDbArc
 50
5.2253706268
 51
6.1592373582
  0
ARC
  5
308
100
AcDbEntity
  8
0
100
AcDbCircle
 62
9
  6
CONTINUOUS
 10
7.165012694
 20
9.7481619458
 40
0.3908168453
100
AcDbArc
 50
354.0900218453
 51
355.1767757497
  0
ARC
  5
309
100
AcDbEntity
  8
0
100
AcDbCircle
 62
9
  6
CONTINUOUS
 10
7.247798447
 20
9.5366311466
 40
0.3080124829
100
AcDbArc
 50
4.0748718032
 51
5.2661692451
  0
ARC
  5
30A
100
AcDbEntity
  8
0
100
AcDbCircle
 62
7
  6
CONTINUOUS
 10
6.3847734856
 20
9.1527041631
 40
0.2714876051
100
AcDbArc
 50
45.3658176094
 51
51.6981305266
  0
ARC
  5
30B
100
AcDbEntity
  8
0
100
AcDbCircle
 62
9
  6
CONTINUOUS
 10
7.284778885
 20
9.7378934037
 40
0.2706114146
100
AcDbArc
 50
355.211081532
 51
356.5491080039
  0
ARC
  5
30C
100
AcDbEntity
  8
0
100
AcDbCircle
 62
7
  6
CONTINUOUS
 10
6.3878008676
 20
9.1558351124
 40
0.2671326324
100
AcDbArc
 50
38.3037702597
 51
45.3560738084
  0
ARC
  5
30D
100
AcDbEntity
  8
0
100
AcDbCircle
 62
7
  6
CONTINUOUS
 10
6.3887116269
 20
9.1565611998
 40
0.265967876
100
AcDbArc
 50
30.9102960509
 51
38.3026349728
  0
ARC
  5
30E
100
AcDbEntity
  8
0
100
AcDbCircle
 62
7
  6
CONTINUOUS
 10
7.4660252035
 20
9.405980509
 40
0.02
100
AcDbArc
 50
279.3163491726
 51
333.9599688474
  0
ARC
  5
30F
100
AcDbEntity
  8
0
100
AcDbCircle
 62
7
  6
CONTINUOUS
 10
7.4514024585
 20
9.8749060475
 40
0.02
100
AcDbArc
 50
30.3641445497
 51
87.7122155184
  0
ARC
  5
310
100
AcDbEntity
  8
0
100
AcDbCircle
 62
7
  6
CONTINUOUS
 10
7.5367923427
 20
9.7291536108
 40
0.02
100
AcDbArc
 50
0.0
 51
30.3641445258
  0
ARC
  5
311
100
AcDbEntity
  8
0
100
AcDbCircle
 62
7
  6
CONTINUOUS
 10
7.5367923427
 20
9.5508177245
 40
0.02
100
AcDbArc
 50
333.9599688895
 51
360.0
  0
ARC
  5
312
100
AcDbEntity
  8
0
100
AcDbCircle
 62
7
  6
CONTINUOUS
 10
10.6138109276
 20
6.9616374993
 40
1.3
100
AcDbArc
 50
357.7751307225
 51
37.4382101819
  0
ARC
  5
313
100
AcDbEntity
  8
0
100
AcDbCircle
 62
7
  6
CONTINUOUS
 10
10.8464719365
 20
6.4082744624
 40
0.9
100
AcDbArc
 50
11.7251268757
 51
49.3560828237
  0
ARC
  5
314
100
AcDbEntity
  8
0
100
AcDbCircle
 62
7
  6
CONTINUOUS
 10
10.0843180505
 20
6.9878003467
 40
0.6619435904
100
AcDbArc
 50
32.3206230033
 51
36.1605539491
  0
ARC
  5
315
100
AcDbEntity
  8
0
100
AcDbCircle
 62
9
  6
CONTINUOUS
 10
10.1240181167
 20
6.992902996
 40
0.6399943972
100
AcDbArc
 50
33.059986565
 51
44.0453178758
  0
ARC
  5
316
100
AcDbEntity
  8
0
100
AcDbCircle
 62
7
  6
CONTINUOUS
 10
10.110266527
 20
7.0070768346
 40
0.6296196133
100
AcDbArc
 50
36.1375947333
 51
43.1704928176
  0
ARC
  5
317
100
AcDbEntity
  8
0
100
AcDbCircle
 62
7
  6
CONTINUOUS
 10
10.124294848
 20
7.0197483415
 40
0.6107190819
100
AcDbArc
 50
43.2038885807
 51
43.9756861587
  0
ARC
  5
318
100
AcDbEntity
  8
0
100
AcDbCircle
 62
7
  6
CONTINUOUS
 10
10.1247297998
 20
7.0201658313
 40
0.6101161929
100
AcDbArc
 50
43.6564194071
 51
43.8116733509
  0
ARC
  5
319
100
AcDbEntity
  8
0
100
AcDbCircle
 62
7
  6
CONTINUOUS
 10
10.8751923427
 20
7.1711695021
 40
0.4
100
AcDbArc
 50
155.7790568907
 51
180.0
  0
ARC
  5
31A
100
AcDbEntity
  8
0
100
AcDbCircle
 62
7
  6
CONTINUOUS
 10
10.0311363909
 20
7.9038910159
 40
0.25
100
AcDbArc
 50
322.5617898181
 51
357.849587733
  0
ARC
  5
31B
100
AcDbEntity
  8
0
100
AcDbCircle
 62
7
  6
CONTINUOUS
 10
10.0113558777
 20
6.8401369698
 40
0.0860249421
100
AcDbArc
 50
124.338423378
 51
180.0
  0
ARC
  5
31C
100
AcDbEntity
  8
0
100
AcDbCircle
 62
7
  6
CONTINUOUS
 10
10.5781819889
 20
7.4576901455
 40
0.02
100
AcDbArc
 50
180.000000131
 51
223.9760241723
  0
ARC
  5
31D
100
AcDbEntity
  8
0
100
AcDbCircle
 62
7
  6
CONTINUOUS
 10
10.5781819889
 20
7.5123661086
 40
0.02
100
AcDbArc
 50
104.9314171781
 51
180.0
  0
ARC
  5
31E
100
AcDbEntity
  8
0
100
AcDbCircle
 62
7
  6
CONTINUOUS
 10
10.7858028623
 20
7.5677316748
 40
0.02
100
AcDbArc
 50
90.0
 51
104.931416821
  0
ARC
  5
31F
100
AcDbEntity
  8
0
100
AcDbCircle
 62
7
  6
CONTINUOUS
 10
10.5195239579
 20
7.3311695021
 40
0.01
100
AcDbArc
 50
90.0
 51
155.7790568908
  0
ARC
  5
320
100
AcDbEntity
  8
0
100
AcDbCircle
 62
9
  6
CONTINUOUS
 10
9.4478180038
 20
9.7102890306
 40
5.3406036537
100
AcDbArc
 50
324.6657553272
 51
327.6931200498
  0
ARC
  5
321
100
AcDbEntity
  8
0
100
AcDbCircle
 62
9
  6
CONTINUOUS
 10
9.4479782217
 20
9.6891319808
 40
5.3149286076
100
AcDbArc
 50
324.7490274722
 51
327.7878749686
  0
ARC
  5
322
100
AcDbEntity
  8
0
100
AcDbCircle
 62
7
  6
CONTINUOUS
 10
10.1963595759
 20
9.2884516916
 40
4.4651748913
100
AcDbArc
 50
347.982365306
 51
350.8891957148
  0
ARC
  5
323
100
AcDbEntity
  8
0
100
AcDbCircle
 62
7
  6
CONTINUOUS
 10
10.0103309357
 20
11.6691695021
 40
0.15
100
AcDbArc
 50
90.0
 51
114.6243183522
  0
ARC
  5
324
100
AcDbEntity
  8
0
100
AcDbCircle
 62
7
  6
CONTINUOUS
 10
10.3278309357
 20
10.1340026499
 40
0.15
100
AcDbArc
 50
180.0
 51
209.9264348665
  0
ARC
  5
325
100
AcDbEntity
  8
0
100
AcDbCircle
 62
7
  6
CONTINUOUS
 10
10.0778309357
 20
10.693430271
 40
0.1
100
AcDbArc
 50
0.0
 51
44.3312080467
  0
ARC
  5
326
100
AcDbEntity
  8
0
100
AcDbCircle
 62
7
  6
CONTINUOUS
 10
10.0329842878
 20
11.8493228543
 40
0.0301533521
100
AcDbArc
 50
98.1789688981
 51
270.0
  0
ARC
  5
327
100
AcDbEntity
  8
0
100
AcDbCircle
 62
9
  6
CONTINUOUS
 10
8.8378047183
 20
44.5782733876
 40
34.7310497805
100
AcDbArc
 50
265.8744780151
 51
267.7011207624
  0
ARC
  5
328
100
AcDbEntity
  8
0
100
AcDbCircle
 62
7
  6
CONTINUOUS
 10
8.8378047184
 20
44.5782733886
 40
34.711049716
100
AcDbArc
 50
265.8745565296
 51
267.7011206861
  0
ARC
  5
329
100
AcDbEntity
  8
0
100
AcDbCircle
 62
7
  6
CONTINUOUS
 10
8.8377830476
 20
44.5778856042
 40
34.7106613996
100
AcDbArc
 50
265.8720859758
 51
265.8745461589
  0
ARC
  5
32A
100
AcDbEntity
  8
0
100
AcDbCircle
 62
7
  6
CONTINUOUS
 10
8.8377830476
 20
44.5778856042
 40
34.7106613996
100
AcDbArc
 50
267.7011307526
 51
267.7122558763
  0
ARC
  5
32B
100
AcDbEntity
  8
0
100
AcDbCircle
 62
7
  6
CONTINUOUS
 10
10.9378309357
 20
5.553753703
 40
6.3904157991
100
AcDbArc
 50
81.821031102
 51
98.178968898
  0
ARC
  5
32C
100
AcDbEntity
  8
0
100
AcDbCircle
 62
7
  6
CONTINUOUS
 10
11.2618509437
 20
6.9616374993
 40
1.3
100
AcDbArc
 50
142.5617898182
 51
182.2248692774
  0
ARC
  5
32D
100
AcDbEntity
  8
0
100
AcDbCircle
 62
7
  6
CONTINUOUS
 10
11.028912749
 20
6.4082744624
 40
0.9
100
AcDbArc
 50
130.6439171763
 51
168.2748731243
  0
ARC
  5
32E
100
AcDbEntity
  8
0
100
AcDbCircle
 62
9
  6
CONTINUOUS
 10
11.7513853633
 20
6.9928871017
 40
0.6400190024
100
AcDbArc
 50
135.9548231183
 51
146.9391098424
  0
ARC
  5
32F
100
AcDbEntity
  8
0
100
AcDbCircle
 62
7
  6
CONTINUOUS
 10
11.7510898274
 20
7.0197483511
 40
0.610719068
100
AcDbArc
 50
136.0243138382
 51
136.7961048067
  0
ARC
  5
330
100
AcDbEntity
  8
0
100
AcDbCircle
 62
7
  6
CONTINUOUS
 10
11.0001923427
 20
7.1711695021
 40
0.4
100
AcDbArc
 50
0.0
 51
24.2209431093
  0
ARC
  5
331
100
AcDbEntity
  8
0
100
AcDbCircle
 62
7
  6
CONTINUOUS
 10
11.8445254805
 20
7.9038910159
 40
0.25
100
AcDbArc
 50
182.150412267
 51
217.4382101819
  0
ARC
  5
332
100
AcDbEntity
  8
0
100
AcDbCircle
 62
7
  6
CONTINUOUS
 10
11.8643059936
 20
6.8401369698
 40
0.0860249421
100
AcDbArc
 50
0.0
 51
55.661576622
  0
ARC
  5
333
100
AcDbEntity
  8
0
100
AcDbCircle
 62
7
  6
CONTINUOUS
 10
11.0895818231
 20
7.5677316748
 40
0.02
100
AcDbArc
 50
75.068583179
 51
90.0
  0
ARC
  5
334
100
AcDbEntity
  8
0
100
AcDbCircle
 62
7
  6
CONTINUOUS
 10
11.2972026966
 20
7.5123661086
 40
0.02
100
AcDbArc
 50
0.0
 51
75.0685828219
  0
ARC
  5
335
100
AcDbEntity
  8
0
100
AcDbCircle
 62
7
  6
CONTINUOUS
 10
11.2972026966
 20
7.4576901455
 40
0.02
100
AcDbArc
 50
316.0239758277
 51
359.999999869
  0
ARC
  5
336
100
AcDbEntity
  8
0
100
AcDbCircle
 62
7
  6
CONTINUOUS
 10
11.3558607276
 20
7.3311695021
 40
0.01
100
AcDbArc
 50
24.2209431092
 51
90.0
  0
ARC
  5
337
100
AcDbEntity
  8
0
100
AcDbCircle
 62
7
  6
CONTINUOUS
 10
12.4653656101
 20
9.714512063
 40
5.3605742385
100
AcDbArc
 50
212.2253425521
 51
215.1391944266
  0
ARC
  5
338
100
AcDbEntity
  8
0
100
AcDbCircle
 62
9
  6
CONTINUOUS
 10
12.4257910041
 20
9.709034585
 40
5.338437061
100
AcDbArc
 50
212.4039191415
 51
215.3342669913
  0
ARC
  5
339
100
AcDbEntity
  8
0
100
AcDbCircle
 62
7
  6
CONTINUOUS
 10
11.5478309357
 20
10.1340026499
 40
0.15
100
AcDbArc
 50
330.0735651335
 51
360.0
  0
ARC
  5
33A
100
AcDbEntity
  8
0
100
AcDbCircle
 62
7
  6
CONTINUOUS
 10
11.7978309357
 20
10.693430271
 40
0.1
100
AcDbArc
 50
135.6687919533
 51
180.0
  0
ARC
  5
33B
100
AcDbEntity
  8
0
100
AcDbCircle
 62
9
  6
CONTINUOUS
 10
15.7927246161
 20
6.907736467
 40
0.0903491325
100
AcDbArc
 50
356.2908587529
 51
30.9084620824
  0
ARC
  5
33C
100
AcDbEntity
  8
0
100
AcDbCircle
 62
7
  6
CONTINUOUS
 10
14.082541911
 20
6.9077604003
 40
0.0902360129
100
AcDbArc
 50
149.0680639448
 51
183.7295800798
  0
ARC
  5
33D
100
AcDbEntity
  8
0
100
AcDbCircle
 62
7
  6
CONTINUOUS
 10
15.7949214191
 20
6.9080854546
 40
0.0900716426
100
AcDbArc
 50
356.1079315191
 51
30.8437985997
  0
ARC
  5
33E
100
AcDbEntity
  8
0
100
AcDbCircle
 62
7
  6
CONTINUOUS
 10
15.8810712359
 20
6.8235286191
 40
0.060725473
100
AcDbArc
 50
33.3947219403
 51
45.799945217
  0
ARC
  5
33F
100
AcDbEntity
  8
0
100
AcDbCircle
 62
7
  6
CONTINUOUS
 10
15.8797229621
 20
6.8239241022
 40
0.0600914104
100
AcDbArc
 50
32.242770725
 51
45.5335113318
  0
ARC
  5
340
100
AcDbEntity
  8
0
100
AcDbCircle
 62
7
  6
CONTINUOUS
 10
15.8815815589
 20
6.8239620836
 40
0.0600611234
100
AcDbArc
 50
45.8606754123
 51
73.1871336509
  0
ARC
  5
341
100
AcDbEntity
  8
0
100
AcDbCircle
 62
9
  6
CONTINUOUS
 10
13.9955082394
 20
6.8240559201
 40
0.0598891101
100
AcDbArc
 50
106.6513541701
 51
147.7970307999
  0
ARC
  5
342
100
AcDbEntity
  8
0
100
AcDbCircle
 62
7
  6
CONTINUOUS
 10
15.8798991663
 20
6.824086916
 40
0.0598517882
100
AcDbArc
 50
45.544711917
 51
73.3680111492
  0
ARC
  5
343
100
AcDbEntity
  8
0
100
AcDbCircle
 62
7
  6
CONTINUOUS
 10
15.8830387925
 20
6.8249041732
 40
0.0583256894
100
AcDbArc
 50
32.0710338295
 51
33.3303810123
  0
ARC
  5
344
100
AcDbEntity
  8
0
100
AcDbCircle
 62
7
  6
CONTINUOUS
 10
13.972707273
 20
6.9002884622
 40
0.0196813267
100
AcDbArc
 50
286.6572297882
 51
299.1023745239
  0
ARC
  5
345
100
AcDbEntity
  8
0
100
AcDbCircle
 62
7
  6
CONTINUOUS
 10
13.8080253515
 20
6.6354497813
 40
0.0142802814
100
AcDbArc
 50
256.3085613888
 51
269.9815390686
  0
ARC
  5
346
100
AcDbEntity
  8
0
100
AcDbCircle
 62
7
  6
CONTINUOUS
 10
14.0991651855
 20
9.2187558474
 40
2.7892932225
100
AcDbArc
 50
138.7143401562
 51
141.1191697072
  0
ARC
  5
347
100
AcDbEntity
  8
0
100
AcDbCircle
 62
7
  6
CONTINUOUS
 10
14.3284584486
 20
8.912826422
 40
0.4797458661
100
AcDbArc
 50
80.5428633083
 51
80.6837151781
  0
ARC
  5
348
100
AcDbEntity
  8
0
100
AcDbCircle
 62
7
  6
CONTINUOUS
 10
14.3290180874
 20
8.9161810451
 40
0.4763448823
100
AcDbArc
 50
80.3166907652
 51
80.5429637982
  0
ARC
  5
349
100
AcDbEntity
  8
0
100
AcDbCircle
 62
7
  6
CONTINUOUS
 10
14.3297104114
 20
8.9202386106
 40
0.4722286765
100
AcDbArc
 50
80.0920214871
 51
80.3166869596
  0
ARC
  5
34A
100
AcDbEntity
  8
0
100
AcDbCircle
 62
7
  6
CONTINUOUS
 10
14.3303193279
 20
8.923868355
 40
0.4685483345
100
AcDbArc
 50
79.3083935519
 51
80.6896848313
  0
ARC
  5
34B
100
AcDbEntity
  8
0
100
AcDbCircle
 62
9
  6
CONTINUOUS
 10
14.3170714814
 20
8.9436686706
 40
0.4684030798
100
AcDbArc
 50
78.2175850625
 51
79.3049882199
  0
ARC
  5
34C
100
AcDbEntity
  8
0
100
AcDbCircle
 62
7
  6
CONTINUOUS
 10
14.3312687705
 20
8.9290761261
 40
0.4632548284
100
AcDbArc
 50
79.3042872022
 51
80.0938121841
  0
ARC
  5
34D
100
AcDbEntity
  8
0
100
AcDbCircle
 62
7
  6
CONTINUOUS
 10
14.3342119977
 20
8.9445904008
 40
0.4474638457
100
AcDbArc
 50
78.2163311274
 51
79.3059202018
  0
ARC
  5
34E
100
AcDbEntity
  8
0
100
AcDbCircle
 62
7
  6
CONTINUOUS
 10
14.3331415505
 20
9.0917318623
 40
0.3298237107
100
AcDbArc
 50
17.6246292533
 51
21.1158095002
  0
ARC
  5
34F
100
AcDbEntity
  8
0
100
AcDbCircle
 62
7
  6
CONTINUOUS
 10
14.3751588066
 20
9.0791949338
 40
0.3064641352
100
AcDbArc
 50
63.2137574519
 51
67.4474495112
  0
ARC
  5
350
100
AcDbEntity
  8
0
100
AcDbCircle
 62
7
  6
CONTINUOUS
 10
14.3924075215
 20
9.119108441
 40
0.2644279127
100
AcDbArc
 50
29.4856503672
 51
34.8080689543
  0
ARC
  5
351
100
AcDbEntity
  8
0
100
AcDbCircle
 62
7
  6
CONTINUOUS
 10
14.4009698782
 20
9.1235769872
 40
0.2550282884
100
AcDbArc
 50
48.9811951018
 51
55.1514980731
  0
ARC
  5
352
100
AcDbEntity
  8
0
100
AcDbCircle
 62
7
  6
CONTINUOUS
 10
14.4040643177
 20
9.1274151739
 40
0.2501152104
100
AcDbArc
 50
34.7699596585
 51
42.2501045026
  0
ARC
  5
353
100
AcDbEntity
  8
0
100
AcDbCircle
 62
7
  6
CONTINUOUS
 10
14.4047419632
 20
9.1279404652
 40
0.2492604255
100
AcDbArc
 50
42.2654588488
 51
48.9771119261
  0
ARC
  5
354
100
AcDbEntity
  8
0
100
AcDbCircle
 62
9
  6
CONTINUOUS
 10
14.8176750267
 20
9.5192027504
 40
0.4988988766
100
AcDbArc
 50
173.8661223195
 51
174.7379951208
  0
ARC
  5
355
100
AcDbEntity
  8
0
100
AcDbCircle
 62
9
  6
CONTINUOUS
 10
14.6856383776
 20
9.7458346584
 40
0.3659751354
100
AcDbArc
 50
184.7658315169
 51
185.9462675995
  0
ARC
  5
356
100
AcDbEntity
  8
0
100
AcDbCircle
 62
9
  6
CONTINUOUS
 10
14.6513822054
 20
9.53469862
 40
0.331885776
100
AcDbArc
 50
174.7690365685
 51
175.8698121057
  0
ARC
  5
357
100
AcDbEntity
  8
0
100
AcDbCircle
 62
9
  6
CONTINUOUS
 10
14.5716569524
 20
9.7365344296
 40
0.2516151763
100
AcDbArc
 50
183.3662669097
 51
184.8118086975
  0
ARC
  5
358
100
AcDbEntity
  8
0
100
AcDbCircle
 62
7
  6
CONTINUOUS
 10
14.409359482
 20
9.405980509
 40
0.02
100
AcDbArc
 50
206.0400311526
 51
260.6836508274
  0
ARC
  5
359
100
AcDbEntity
  8
0
100
AcDbCircle
 62
7
  6
CONTINUOUS
 10
14.423982227
 20
9.8749060475
 40
0.02
100
AcDbArc
 50
92.2877844816
 51
149.6358554503
  0
ARC
  5
35A
100
AcDbEntity
  8
0
100
AcDbCircle
 62
7
  6
CONTINUOUS
 10
14.3385923427
 20
9.7291536108
 40
0.02
100
AcDbArc
 50
149.6358554742
 51
180.0
  0
ARC
  5
35B
100
AcDbEntity
  8
0
100
AcDbCircle
 62
7
  6
CONTINUOUS
 10
14.3385923427
 20
9.5508177245
 40
0.02
100
AcDbArc
 50
180.0
 51
206.0400311105
  0
ARC
  5
35C
100
AcDbEntity
  8
0
100
AcDbCircle
 62
7
  6
CONTINUOUS
 10
15.5726017764
 20
8.984700776
 40
0.459683419
100
AcDbArc
 50
105.3079159892
 51
108.281481488
  0
ARC
  5
35D
100
AcDbEntity
  8
0
100
AcDbCircle
 62
7
  6
CONTINUOUS
 10
15.5667817405
 20
9.1242086214
 40
0.3527117707
100
AcDbArc
 50
163.247618177
 51
167.3598202477
  0
ARC
  5
35E
100
AcDbEntity
  8
0
100
AcDbCircle
 62
7
  6
CONTINUOUS
 10
15.5005712037
 20
9.1483646354
 40
0.2821025204
100
AcDbArc
 50
149.1114333404
 51
155.0590104419
  0
ARC
  5
35F
100
AcDbEntity
  8
0
100
AcDbCircle
 62
7
  6
CONTINUOUS
 10
15.4906037123
 20
9.1527112523
 40
0.2714773798
100
AcDbArc
 50
128.3015565904
 51
134.6341087555
  0
ARC
  5
360
100
AcDbEntity
  8
0
100
AcDbCircle
 62
7
  6
CONTINUOUS
 10
15.4875746979
 20
9.1558441987
 40
0.267119839
100
AcDbArc
 50
134.6439036254
 51
141.6965467828
  0
ARC
  5
361
100
AcDbEntity
  8
0
100
AcDbCircle
 62
7
  6
CONTINUOUS
 10
15.4866826409
 20
9.1565558764
 40
0.2659786906
100
AcDbArc
 50
141.6977446614
 51
149.0897806954
  0
ARC
  5
362
100
AcDbEntity
  8
0
100
AcDbCircle
 62
7
  6
CONTINUOUS
 10
11.8653309357
 20
11.6691695021
 40
0.15
100
AcDbArc
 50
65.3756816479
 51
90.0
  0
ARC
  5
363
100
AcDbEntity
  8
0
100
AcDbCircle
 62
7
  6
CONTINUOUS
 10
11.8426775835
 20
11.8493228543
 40
0.0301533521
100
AcDbArc
 50
270.0
 51
81.8210311019
  0
ARC
  5
364
100
AcDbEntity
  8
0
100
AcDbCircle
 62
7
  6
CONTINUOUS
 10
20.867100978
 20
9.9503558987
 40
5.8246433249
100
AcDbArc
 50
212.0916307601
 51
214.8593660277
  0
ARC
  5
365
100
AcDbEntity
  8
0
100
AcDbCircle
 62
7
  6
CONTINUOUS
 10
20.465375808
 20
9.7145162243
 40
5.3605849515
100
AcDbArc
 50
212.2253378851
 51
215.1391675013
  0
ARC
  5
366
100
AcDbEntity
  8
0
100
AcDbCircle
 62
9
  6
CONTINUOUS
 10
20.4258779107
 20
9.7091037397
 40
5.3385476736
100
AcDbArc
 50
212.4040623852
 51
215.3343312727
  0
ARC
  5
367
100
AcDbEntity
  8
0
100
AcDbCircle
 62
7
  6
CONTINUOUS
 10
20.2251069684
 20
9.5601532744
 40
5.073259956
100
AcDbArc
 50
205.6830408972
 51
210.8977926718
  0
ARC
  5
368
100
AcDbEntity
  8
0
100
AcDbCircle
 62
7
  6
CONTINUOUS
 10
19.9915513644
 20
9.4436389445
 40
4.8122834647
100
AcDbArc
 50
205.3339164003
 51
205.6380103547
  0
ARC
  5
369
100
AcDbEntity
  8
0
100
AcDbCircle
 62
7
  6
CONTINUOUS
 10
19.8689094734
 20
9.38639196
 40
4.6769405922
100
AcDbArc
 50
201.7662095726
 51
205.3429340586
  0
ARC
  5
36A
100
AcDbEntity
  8
0
100
AcDbCircle
 62
7
  6
CONTINUOUS
 10
19.6981108456
 20
9.3158721902
 40
4.4921694699
100
AcDbArc
 50
201.2093846997
 51
201.7387048052
  0
ARC
  5
36B
100
AcDbEntity
  8
0
100
AcDbCircle
 62
7
  6
CONTINUOUS
 10
19.6694913292
 20
9.3047443172
 40
4.4614626977
100
AcDbArc
 50
200.9036860171
 51
201.2091248853
  0
ARC
  5
36C
100
AcDbEntity
  8
0
100
AcDbCircle
 62
7
  6
CONTINUOUS
 10
19.6372624949
 20
9.2924715475
 40
4.4269762155
100
AcDbArc
 50
200.2517268031
 51
200.904128547
  0
ARC
  5
36D
100
AcDbEntity
  8
0
100
AcDbCircle
 62
7
  6
CONTINUOUS
 10
19.5582026118
 20
9.2665388238
 40
4.3437295923
100
AcDbArc
 50
193.0950127896
 51
196.0009750837
  0
ARC
  5
36E
100
AcDbEntity
  8
0
100
AcDbCircle
 62
7
  6
CONTINUOUS
 10
19.5149549192
 20
9.2563403728
 40
4.2992959005
100
AcDbArc
 50
190.1634574315
 51
193.093216769
  0
ARC
  5
36F
100
AcDbEntity
  8
0
100
AcDbCircle
 62
9
  6
CONTINUOUS
 10
16.1822836782
 20
9.9967972197
 40
0.6472318859
100
AcDbArc
 50
184.5925320844
 51
185.2721849429
  0
ARC
  5
370
100
AcDbEntity
  8
0
100
AcDbCircle
 62
9
  6
CONTINUOUS
 10
17.6170927588
 20
9.9387571563
 40
0.3632700533
100
AcDbArc
 50
356.6219456751
 51
357.6695480723
  0
ARC
  5
371
100
AcDbEntity
  8
0
100
AcDbCircle
 62
9
  6
CONTINUOUS
 10
17.6489608768
 20
9.6730008513
 40
0.340383777
100
AcDbArc
 50
6.17177451
 51
7.3129038238
  0
ARC
  5
372
100
AcDbEntity
  8
0
100
AcDbCircle
 62
9
  6
CONTINUOUS
 10
17.7272041407
 20
9.9341318153
 40
0.2530617034
100
AcDbArc
 50
357.7021677797
 51
359.0001870999
  0
ARC
  5
373
100
AcDbEntity
  8
0
100
AcDbCircle
 62
9
  6
CONTINUOUS
 10
17.7536330848
 20
9.6841414183
 40
0.2351205931
100
AcDbArc
 50
4.8091499858
 51
6.2149728671
  0
ARC
  5
374
100
AcDbEntity
  8
0
100
AcDbCircle
 62
7
  6
CONTINUOUS
 10
15.9030198492
 20
6.9006037027
 40
0.0201733665
100
AcDbArc
 50
176.3058476978
 51
200.6524017429
  0
ARC
  5
375
100
AcDbEntity
  8
0
100
AcDbCircle
 62
7
  6
CONTINUOUS
 10
17.9615644267
 20
9.936033305
 40
0.02
100
AcDbArc
 50
1.95
 51
30.7805653001
  0
ARC
  5
376
100
AcDbEntity
  8
0
100
AcDbCircle
 62
7
  6
CONTINUOUS
 10
17.9697214078
 20
9.6964537533
 40
0.02
100
AcDbArc
 50
333.1194347011
 51
1.95
  0
ARC
  5
377
100
AcDbEntity
  8
0
100
AcDbCircle
 62
7
  6
CONTINUOUS
 10
15.9028193305
 20
6.9005240859
 40
0.0199562855
100
AcDbArc
 50
200.6415550171
 51
240.8760663438
  0
ARC
  5
378
100
AcDbEntity
  8
0
100
AcDbCircle
 62
7
  6
CONTINUOUS
 10
15.9026253346
 20
6.9001614843
 40
0.019544615
100
AcDbArc
 50
240.8555174992
 51
253.364912731
  0
ARC
  5
379
100
AcDbEntity
  8
0
100
AcDbCircle
 62
7
  6
CONTINUOUS
 10
15.9043298483
 20
6.8991715625
 40
0.0185116961
100
AcDbArc
 50
247.83707887
 51
253.1227385089
  0
ARC
  5
37A
100
AcDbEntity
  8
0
100
AcDbCircle
 62
7
  6
CONTINUOUS
 10
16.0673476257
 20
6.6355379403
 40
0.0143684413
100
AcDbArc
 50
270.0651170699
 51
283.6539389672
  0
ARC
  5
37B
100
AcDbEntity
  8
0
100
AcDbCircle
 62
9
  6
CONTINUOUS
 10
17.5722109172
 20
17.4173395809
 40
7.9449032456
100
AcDbArc
 50
271.9768165026
 51
272.1169865576
  0
ARC
  5
37C
100
AcDbEntity
  8
0
100
AcDbCircle
 62
9
  6
CONTINUOUS
 10
13.0376040704
 20
44.5778443949
 40
34.7306203848
100
AcDbArc
 50
272.298868009
 51
274.1255335291
  0
ARC
  5
37D
100
AcDbEntity
  8
0
100
AcDbCircle
 62
7
  6
CONTINUOUS
 10
13.0376016379
 20
44.5778856042
 40
34.7106613996
100
AcDbArc
 50
272.2877441237
 51
274.1279139645
  0
LINE
  5
37E
100
AcDbEntity
  8
0
100
AcDbLine
 62
7
  6
CONTINUOUS
 10
10.565001357
 20
7.4425432985
 11
10.5643873265
 21
7.4431824117
  0
LINE
  5
37F
100
AcDbEntity
  8
0
100
AcDbLine
 62
7
  6
CONTINUOUS
 10
10.5643873265
 20
7.4431824117
 11
10.5637893804
 21
7.4438029995
  0
SPLINE
  5
380
100
AcDbEntity
  8
0
100
AcDbSpline
 62
7
  6
CONTINUOUS
 70
0
 71
3
 72
8
 73
4
 74
0
 42
0.0000001
 43
0.0000001
 44
0.0000000001
 40
0.0
 40
0.0
 40
0.0
 40
0.0
 40
1.0
 40
1.0
 40
1.0
 40
1.0
 10
10.6437084416
 20
7.3417095276
 30
0.0
 10
10.6220337378
 20
7.375952221
 30
0.0
 10
10.5973006513
 20
7.4082032732
 30
0.0
 10
10.5694614417
 20
7.4378446233
 30
0.0
  0
LINE
  5
381
100
AcDbEntity
  8
0
100
AcDbLine
 62
7
  6
CONTINUOUS
 10
11.3115953051
 20
7.4438029995
 11
11.3109973598
 21
7.4431824125
  0
LINE
  5
382
100
AcDbEntity
  8
0
100
AcDbLine
 62
7
  6
CONTINUOUS
 10
11.3109973598
 20
7.4431824125
 11
11.3103833047
 21
7.4425432737
  0
SPLINE
  5
383
100
AcDbEntity
  8
0
100
AcDbSpline
 62
7
  6
CONTINUOUS
 70
0
 71
3
 72
8
 73
4
 74
0
 42
0.0000001
 43
0.0000001
 44
0.0000000001
 40
0.0
 40
0.0
 40
0.0
 40
0.0
 40
1.0
 40
1.0
 40
1.0
 40
1.0
 10
11.3059233065
 20
7.4378446902
 30
0.0
 10
11.2780848299
 20
7.4082041293
 30
0.0
 10
11.2533523117
 20
7.3759540042
 30
0.0
 10
11.2316780155
 20
7.3417123265
 30
0.0
  0
SPLINE
  5
384
100
AcDbEntity
  8
0
100
AcDbSpline
 62
9
  6
CONTINUOUS
 70
0
 71
3
 72
12
 73
8
 74
0
 42
0.0000001
 43
0.0000001
 44
0.0000000001
 40
0.0
 40
0.0
 40
0.0
 40
0.0
 40
0.2756571301
 40
0.5408805086
 40
0.7853678204
 40
0.8970108709
 40
1.0
 40
1.0
 40
1.0
 40
1.0
 10
11.2772026966
 20
7.5123659924
 30
0.0
 10
11.2798071787
 20
7.5123659938
 30
0.0
 10
11.2849178347
 20
7.5124327538
 30
0.0
 10
11.2923332325
 20
7.5127260773
 30
0.0
 10
11.298191042
 20
7.5131340439
 30
0.0
 10
11.3025082934
 20
7.513559034
 30
0.0
 10
11.3045220456
 20
7.5138000148
 30
0.0
 10
11.3054866302
 20
7.5139282304
 30
0.0
  0
LINE
  5
385
100
AcDbEntity
  8
0
100
AcDbLine
 62
9
  6
CONTINUOUS
 10
11.305486968
 20
7.4515365434
 11
11.3172026966
 21
7.4576901454
  0
SPLINE
  5
386
100
AcDbEntity
  8
0
100
AcDbSpline
 62
9
  6
CONTINUOUS
 70
0
 71
3
 72
15
 73
11
 74
0
 42
0.0000001
 43
0.0000001
 44
0.0000000001
 40
0.0
 40
0.0
 40
0.0
 40
0.0
 40
0.101603068
 40
0.2084015866
 40
0.3229538627
 40
0.4460187924
 40
0.5770859915
 40
0.7147823252
 40
0.8567459209
 40
1.0
 40
1.0
 40
1.0
 40
1.0
 10
10.5694613564
 20
7.4378445447
 30
0.0
 10
10.5698216852
 20
7.4374608902
 30
0.0
 10
10.5706641487
 20
7.4367656108
 30
0.0
 10
10.5721821597
 20
7.4360296359
 30
0.0
 10
10.5739295152
 20
7.4356136138
 30
0.0
 10
10.5758454831
 20
7.4355108354
 30
0.0
 10
10.5778712133
 20
7.4357202613
 30
0.0
 10
10.5799486531
 20
7.4361996883
 30
0.0
 10
10.5820246052
 20
7.4369097843
 30
0.0
 10
10.5833757041
 20
7.4375131845
 30
0.0
 10
10.5840397179
 20
7.4378445395
 30
0.0
  0
SPLINE
  5
387
100
AcDbEntity
  8
0
100
AcDbSpline
 62
9
  6
CONTINUOUS
 70
0
 71
3
 72
15
 73
11
 74
0
 42
0.0000001
 43
0.0000001
 44
0.0000000001
 40
0.0
 40
0.0
 40
0.0
 40
0.0
 40
0.0974595865
 40
0.2007271771
 40
0.3116334075
 40
0.4316968
 40
0.5619616049
 40
0.7015726596
 40
0.8484492723
 40
1.0
 40
1.0
 40
1.0
 40
1.0
 10
10.5694613561
 20
7.4378447145
 30
0.0
 10
10.5691375902
 20
7.4381894471
 30
0.0
 10
10.5685548332
 20
7.4389822081
 30
0.0
 10
10.5679369658
 20
7.4403733305
 30
0.0
 10
10.5675756226
 20
7.4419641713
 30
0.0
 10
10.5674950874
 20
7.443723778
 30
0.0
 10
10.5677141131
 20
7.4456099704
 30
0.0
 10
10.568200596
 20
7.4475774164
 30
0.0
 10
10.568928736
 20
7.449578077
 30
0.0
 10
10.5695521255
 20
7.4508878626
 30
0.0
 10
10.5698977222
 20
7.4515370144
 30
0.0
  0
SPLINE
  5
388
100
AcDbEntity
  8
0
100
AcDbSpline
 62
9
  6
CONTINUOUS
 70
0
 71
3
 72
15
 73
11
 74
0
 42
0.0000001
 43
0.0000001
 44
0.0000000001
 40
0.0
 40
0.0
 40
0.0
 40
0.0
 40
0.1158836724
 40
0.2390206711
 40
0.3670641433
 40
0.4976806564
 40
0.6286220007
 40
0.7575963699
 40
0.8821984523
 40
1.0
 40
1.0
 40
1.0
 40
1.0
 10
10.5698984744
 20
7.4515374554
 30
0.0
 10
10.5702609899
 20
7.4508564725
 30
0.0
 10
10.5710748699
 20
7.4494865175
 30
0.0
 10
10.5724852651
 20
7.4474883759
 30
0.0
 10
10.5741017355
 20
7.4455239326
 30
0.0
 10
10.5758949947
 20
7.4436465553
 30
0.0
 10
10.5778340469
 20
7.4419108919
 30
0.0
 10
10.5798629401
 20
7.4403463426
 30
0.0
 10
10.5819267218
 20
7.4389812192
 30
0.0
 10
10.5833385752
 20
7.4381952474
 30
0.0
 10
10.5840402778
 20
7.4378450598
 30
0.0
  0
SPLINE
  5
389
100
AcDbEntity
  8
0
100
AcDbSpline
 62
9
  6
CONTINUOUS
 70
0
 71
3
 72
15
 73
11
 74
0
 42
0.0000001
 43
0.0000001
 44
0.0000000001
 40
0.0
 40
0.0
 40
0.0
 40
0.0
 40
0.0988994107
 40
0.2052035546
 40
0.3208746534
 40
0.4461109134
 40
0.579933508
 40
0.719447608
 40
0.8607392397
 40
1.0
 40
1.0
 40
1.0
 40
1.0
 10
10.5788863493
 20
7.5332528376
 30
0.0
 10
10.5781488601
 20
7.5330561738
 30
0.0
 10
10.5766631638
 20
7.5324602306
 30
0.0
 10
10.5746248594
 20
7.5310155838
 30
0.0
 10
10.5728364574
 20
7.5289917545
 30
0.0
 10
10.571378631
 20
7.5264737792
 30
0.0
 10
10.5703471282
 20
7.5235602127
 30
0.0
 10
10.569746636
 20
7.5204056892
 30
0.0
 10
10.5695936755
 20
7.5171582538
 30
0.0
 10
10.5697551837
 20
7.514993398
 30
0.0
 10
10.5698972244
 20
7.5139280742
 30
0.0
  0
SPLINE
  5
38A
100
AcDbEntity
  8
0
100
AcDbSpline
 62
9
  6
CONTINUOUS
 70
0
 71
3
 72
15
 73
11
 74
0
 42
0.0000001
 43
0.0000001
 44
0.0000000001
 40
0.0
 40
0.0
 40
0.0
 40
0.0
 40
0.1296441892
 40
0.2653314428
 40
0.4035217119
 40
0.5397534133
 40
0.669900619
 40
0.7909922194
 40
0.9009873448
 40
1.0
 40
1.0
 40
1.0
 40
1.0
 10
11.3054864099
 20
7.5139280569
 30
0.0
 10
11.3053421457
 20
7.5150100599
 30
0.0
 10
11.3049159296
 20
7.5172087947
 30
0.0
 10
11.3038902581
 20
7.5204561093
 30
0.0
 10
11.3024453023
 20
7.523602238
 30
0.0
 10
11.3006382746
 20
7.5265024287
 30
0.0
 10
11.298520936
 20
7.5290000754
 30
0.0
 10
11.2962151234
 20
7.5310048645
 30
0.0
 10
11.2938180771
 20
7.5324402323
 30
0.0
 10
11.292153523
 20
7.533051416
 30
0.0
 10
11.2913445524
 20
7.5332528278
 30
0.0
  0
SPLINE
  5
38B
100
AcDbEntity
  8
0
100
AcDbSpline
 62
9
  6
CONTINUOUS
 70
0
 71
3
 72
15
 73
11
 74
0
 42
0.0000001
 43
0.0000001
 44
0.0000000001
 40
0.0
 40
0.0
 40
0.0
 40
0.0
 40
0.0988993964
 40
0.2052035265
 40
0.3208746169
 40
0.4461108749
 40
0.5799334699
 40
0.7194475822
 40
0.860739223
 40
1.0
 40
1.0
 40
1.0
 40
1.0
 10
11.2964983325
 20
7.5332528386
 30
0.0
 10
11.2972358215
 20
7.5330561749
 30
0.0
 10
11.2987215174
 20
7.5324602317
 30
0.0
 10
11.3007598212
 20
7.5310155851
 30
0.0
 10
11.3025482225
 20
7.5289917558
 30
0.0
 10
11.3040060485
 20
7.5264737807
 30
0.0
 10
11.3050375507
 20
7.5235602144
 30
0.0
 10
11.3056380425
 20
7.520405691
 30
0.0
 10
11.3057910029
 20
7.5171582557
 30
0.0
 10
11.3056294945
 20
7.5149934
 30
0.0
 10
11.3054874538
 20
7.5139280761
 30
0.0
  0
SPLINE
  5
38C
100
AcDbEntity
  8
0
100
AcDbSpline
 62
9
  6
CONTINUOUS
 70
0
 71
3
 72
9
 73
5
 74
0
 42
0.0000001
 43
0.0000001
 44
0.0000000001
 40
0.0
 40
0.0
 40
0.0
 40
0.0
 40
0.4916250112
 40
1.0
 40
1.0
 40
1.0
 40
1.0
 10
11.0947350764
 20
7.5870563735
 30
0.0
 10
11.0939124758
 20
7.5872757336
 30
0.0
 10
11.0921721069
 20
7.5874982355
 30
0.0
 10
11.0904360983
 20
7.5872690562
 30
0.0
 10
11.0895818231
 20
7.5870563736
 30
0.0
  0
SPLINE
  5
38D
100
AcDbEntity
  8
0
100
AcDbSpline
 62
9
  6
CONTINUOUS
 70
0
 71
3
 72
9
 73
5
 74
0
 42
0.0000001
 43
0.0000001
 44
0.0000000001
 40
0.0
 40
0.0
 40
0.0
 40
0.0
 40
0.5083749837
 40
1.0
 40
1.0
 40
1.0
 40
1.0
 10
11.2913448322
 20
7.5332529045
 30
0.0
 10
11.2921991085
 20
7.5334655827
 30
0.0
 10
11.2939351154
 20
7.5336947693
 30
0.0
 10
11.295675485
 20
7.5334722646
 30
0.0
 10
11.2964980855
 20
7.5332529044
 30
0.0
  0
LINE
  5
38E
100
AcDbEntity
  8
0
100
AcDbLine
 62
9
  6
CONTINUOUS
 10
10.5581819889
 20
7.4576901455
 11
10.569897722
 21
7.4515364815
  0
SPLINE
  5
38F
100
AcDbEntity
  8
0
100
AcDbSpline
 62
9
  6
CONTINUOUS
 70
0
 71
3
 72
15
 73
11
 74
0
 42
0.0000001
 43
0.0000001
 44
0.0000000001
 40
0.0
 40
0.0
 40
0.0
 40
0.0
 40
0.1515488519
 40
0.2984238893
 40
0.4380338362
 40
0.5682981699
 40
0.6883618822
 40
0.7992691853
 40
0.9025384297
 40
1.0
 40
1.0
 40
1.0
 40
1.0
 10
11.3054876981
 20
7.4515375771
 30
0.0
 10
11.3058332817
 20
7.4508884201
 30
0.0
 10
11.3064566441
 20
7.4495786234
 30
0.0
 10
11.3071847389
 20
7.4475779464
 30
0.0
 10
11.3076711742
 20
7.4456104827
 30
0.0
 10
11.3078901505
 20
7.4437242709
 30
0.0
 10
11.3078095663
 20
7.4419646438
 30
0.0
 10
11.307448177
 20
7.4403737814
 30
0.0
 10
11.3068302675
 20
7.4389826361
 30
0.0
 10
11.306247486
 20
7.4381898594
 30
0.0
 10
11.3059237083
 20
7.4378451179
 30
0.0
  0
LINE
  5
390
100
AcDbEntity
  8
0
100
AcDbLine
 62
9
  6
CONTINUOUS
 10
10.5581819889
 20
7.5123659919
 11
10.5698973812
 21
7.5139282309
  0
SPLINE
  5
391
100
AcDbEntity
  8
0
100
AcDbSpline
 62
9
  6
CONTINUOUS
 70
0
 71
3
 72
15
 73
11
 74
0
 42
0.0000001
 43
0.0000001
 44
0.0000000001
 40
0.0
 40
0.0
 40
0.0
 40
0.0
 40
0.1178024838
 40
0.2424053085
 40
0.3713801734
 40
0.5023217212
 40
0.6329381189
 40
0.7609811538
 40
0.8841173958
 40
1.0
 40
1.0
 40
1.0
 40
1.0
 10
11.2913447928
 20
7.437844776
 30
0.0
 10
11.2920465133
 20
7.4381949584
 30
0.0
 10
11.2934584024
 20
7.4389809206
 30
0.0
 10
11.2955222363
 20
7.4403460338
 30
0.0
 10
11.2975511781
 20
7.4419105757
 30
0.0
 10
11.2994902728
 20
7.4436462345
 30
0.0
 10
11.3012835669
 20
7.4455236095
 30
0.0
 10
11.3029000641
 20
7.4474880508
 30
0.0
 10
11.3043104767
 20
7.4494861901
 30
0.0
 10
11.3051243632
 20
7.4508561449
 30
0.0
 10
11.3054868799
 20
7.4515371274
 30
0.0
  0
SPLINE
  5
392
100
AcDbEntity
  8
0
100
AcDbSpline
 62
9
  6
CONTINUOUS
 70
0
 71
3
 72
15
 73
11
 74
0
 42
0.0000001
 43
0.0000001
 44
0.0000000001
 40
0.0
 40
0.0
 40
0.0
 40
0.0
 40
0.1432541057
 40
0.285217724
 40
0.4229140733
 40
0.5539812767
 40
0.6770461968
 40
0.7915984552
 40
0.8983969523
 40
1.0
 40
1.0
 40
1.0
 40
1.0
 10
11.2913449806
 20
7.437844652
 30
0.0
 10
11.2920089946
 20
7.4375132968
 30
0.0
 10
11.2933600939
 20
7.4369098965
 30
0.0
 10
11.2954360465
 20
7.4361998003
 30
0.0
 10
11.2975134869
 20
7.4357203733
 30
0.0
 10
11.2995392173
 20
7.4355109473
 30
0.0
 10
11.3014551854
 20
7.4356137257
 30
0.0
 10
11.3032025407
 20
7.436029748
 30
0.0
 10
11.3047205515
 20
7.4367657232
 30
0.0
 10
11.3055630147
 20
7.4374610029
 30
0.0
 10
11.3059233433
 20
7.4378446575
 30
0.0
  0
SPLINE
  5
393
100
AcDbEntity
  8
0
100
AcDbSpline
 62
9
  6
CONTINUOUS
 70
0
 71
3
 72
12
 73
8
 74
0
 42
0.0000001
 43
0.0000001
 44
0.0000000001
 40
0.0
 40
0.0
 40
0.0
 40
0.0
 40
0.2385638604
 40
0.4853013191
 40
0.6120787681
 40
0.7405847913
 40
1.0
 40
1.0
 40
1.0
 40
1.0
 10
10.5840402567
 20
7.4378443038
 30
0.0
 10
10.5849118813
 20
7.4387428193
 30
0.0
 10
10.5868653324
 20
7.4404040816
 30
0.0
 10
10.5896888441
 20
7.4419816721
 30
0.0
 10
10.5921620716
 20
7.4429011725
 30
0.0
 10
10.5947777626
 20
7.4435855788
 30
0.0
 10
10.5968207526
 20
7.4438024943
 30
0.0
 10
10.598181989
 20
7.4438025916
 30
0.0
  0
SPLINE
  5
394
100
AcDbEntity
  8
0
100
AcDbSpline
 62
9
  6
CONTINUOUS
 70
0
 71
3
 72
12
 73
8
 74
0
 42
0.0000001
 43
0.0000001
 44
0.0000000001
 40
0.0
 40
0.0
 40
0.0
 40
0.0
 40
0.2594856169
 40
0.38798939
 40
0.5147462758
 40
0.7614153853
 40
1.0
 40
1.0
 40
1.0
 40
1.0
 10
11.2772026971
 20
7.4438027316
 30
0.0
 10
11.2785643166
 20
7.4438026967
 30
0.0
 10
11.2806077029
 20
7.4435856646
 30
0.0
 10
11.283223595
 20
7.4429009366
 30
0.0
 10
11.2856963406
 20
7.4419814713
 30
0.0
 10
11.2885197255
 20
7.4404043437
 30
0.0
 10
11.2904729292
 20
7.4387430882
 30
0.0
 10
11.2913445801
 20
7.4378444288
 30
0.0
  0
SPLINE
  5
395
100
AcDbEntity
  8
0
100
AcDbSpline
 62
9
  6
CONTINUOUS
 70
0
 71
3
 72
14
 73
10
 74
0
 42
0.0000001
 43
0.0000001
 44
0.0000000001
 40
0.0
 40
0.0
 40
0.0
 40
0.0
 40
0.1063987687
 40
0.2194396527
 40
0.3386406558
 40
0.4634070779
 40
0.7264217104
 40
0.8626866451
 40
1.0
 40
1.0
 40
1.0
 40
1.0
 10
10.569897722
 20
7.4515364815
 30
0.0
 10
10.570811484
 20
7.4520247098
 30
0.0
 10
10.5727399695
 20
7.4529508363
 30
0.0
 10
10.5758114575
 20
7.4541569903
 30
0.0
 10
10.5791270821
 20
7.4552098006
 30
0.0
 10
10.5839177402
 20
7.4564108519
 30
0.0
 10
10.5889700815
 20
7.457212612
 30
0.0
 10
10.5941804441
 20
7.4576202338
 30
0.0
 10
10.5968449549
 20
7.4576902384
 30
0.0
 10
10.5981819888
 20
7.4576901454
 30
0.0
  0
SPLINE
  5
396
100
AcDbEntity
  8
0
100
AcDbSpline
 62
9
  6
CONTINUOUS
 70
0
 71
3
 72
9
 73
5
 74
0
 42
0.0000001
 43
0.0000001
 44
0.0000000001
 40
0.0
 40
0.0
 40
0.0
 40
0.0
 40
0.4916250154
 40
1.0
 40
1.0
 40
1.0
 40
1.0
 10
10.5788866002
 20
7.5332529045
 30
0.0
 10
10.5797092008
 20
7.5334722647
 30
0.0
 10
10.5814495704
 20
7.5336947695
 30
0.0
 10
10.5831855772
 20
7.5334655824
 30
0.0
 10
10.5840398535
 20
7.5332529044
 30
0.0
  0
SPLINE
  5
397
100
AcDbEntity
  8
0
100
AcDbSpline
 62
9
  6
CONTINUOUS
 70
0
 71
3
 72
15
 73
11
 74
0
 42
0.0000001
 43
0.0000001
 44
0.0000000001
 40
0.0
 40
0.0
 40
0.0
 40
0.0
 40
0.0990126622
 40
0.2090077913
 40
0.3300993943
 40
0.4602466012
 40
0.5964782975
 40
0.7346685667
 40
0.8703558133
 40
1.0
 40
1.0
 40
1.0
 40
1.0
 10
10.5840401313
 20
7.5332528281
 30
0.0
 10
10.5832311607
 20
7.5330514163
 30
0.0
 10
10.5815666065
 20
7.5324402326
 30
0.0
 10
10.5791695599
 20
7.5310048649
 30
0.0
 10
10.5768637472
 20
7.5290000758
 30
0.0
 10
10.5747464084
 20
7.5265024292
 30
0.0
 10
10.5729393806
 20
7.5236022386
 30
0.0
 10
10.5714944247
 20
7.5204561099
 30
0.0
 10
10.5704687529
 20
7.5172087955
 30
0.0
 10
10.5700425369
 20
7.5150100607
 30
0.0
 10
10.5698982727
 20
7.5139280577
 30
0.0
  0
SPLINE
  5
398
100
AcDbEntity
  8
0
100
AcDbSpline
 62
9
  6
CONTINUOUS
 70
0
 71
3
 72
11
 73
7
 74
0
 42
0.0000001
 43
0.0000001
 44
0.0000000001
 40
0.0
 40
0.0
 40
0.0
 40
0.0
 40
0.2165919642
 40
0.4612031847
 40
0.7256434544
 40
1.0
 40
1.0
 40
1.0
 40
1.0
 10
11.2913448872
 20
7.5332528908
 30
0.0
 10
11.2903499381
 20
7.5329876083
 30
0.0
 10
11.2882022282
 20
7.5325311552
 30
0.0
 10
11.2847837883
 20
7.5320521014
 30
0.0
 10
11.2810690026
 20
7.5317580029
 30
0.0
 10
11.2785070254
 20
7.5316908098
 30
0.0
 10
11.2772026966
 20
7.5316907877
 30
0.0
  0
SPLINE
  5
399
100
AcDbEntity
  8
0
100
AcDbSpline
 62
9
  6
CONTINUOUS
 70
0
 71
3
 72
11
 73
7
 74
0
 42
0.0000001
 43
0.0000001
 44
0.0000000001
 40
0.0
 40
0.0
 40
0.0
 40
0.0
 40
0.2743488437
 40
0.538774931
 40
0.7833963728
 40
1.0
 40
1.0
 40
1.0
 40
1.0
 10
10.5981819889
 20
7.531690792
 30
0.0
 10
10.5968776978
 20
7.5316908144
 30
0.0
 10
10.5943158265
 20
7.5317579845
 30
0.0
 10
10.5906010991
 20
7.5320520844
 30
0.0
 10
10.5871826275
 20
7.5325311463
 30
0.0
 10
10.5850348117
 20
7.5329875951
 30
0.0
 10
10.5840398104
 20
7.5332528939
 30
0.0
  0
SPLINE
  5
39A
100
AcDbEntity
  8
0
100
AcDbSpline
 62
9
  6
CONTINUOUS
 70
0
 71
3
 72
13
 73
9
 74
0
 42
0.0000001
 43
0.0000001
 44
0.0000000001
 40
0.0
 40
0.0
 40
0.0
 40
0.0
 40
0.137330596
 40
0.2736152332
 40
0.5366673471
 40
0.7805406888
 40
0.8935956796
 40
1.0
 40
1.0
 40
1.0
 40
1.0
 10
11.2772026966
 20
7.4576901455
 30
0.0
 10
11.2785397469
 20
7.4576902335
 30
0.0
 10
11.2812042491
 20
7.4576202045
 30
0.0
 10
11.2864151312
 20
7.457212624
 30
0.0
 10
11.2926130771
 20
7.4562302387
 30
0.0
 10
11.2984432379
 20
7.4546014617
 30
0.0
 10
11.3026444308
 20
7.4529500601
 30
0.0
 10
11.3045729366
 20
7.4520241329
 30
0.0
 10
11.305486968
 20
7.4515365434
 30
0.0
  0
LINE
  5
39B
100
AcDbEntity
  8
0
100
AcDbLine
 62
9
  6
CONTINUOUS
 10
10.7858028626
 20
7.5870563735
 11
10.784050424
 21
7.5873486867
  0
SPLINE
  5
39C
100
AcDbEntity
  8
0
100
AcDbSpline
 62
9
  6
CONTINUOUS
 70
0
 71
3
 72
9
 73
5
 74
0
 42
0.0000001
 43
0.0000001
 44
0.0000000001
 40
0.0
 40
0.0
 40
0.0
 40
0.0
 40
0.5038694028
 40
1.0
 40
1.0
 40
1.0
 40
1.0
 10
10.784050424
 20
7.5873486867
 30
0.0
 10
10.7834770048
 20
7.5873968935
 30
0.0
 10
10.7823287963
 20
7.587399255
 30
0.0
 10
10.7811970818
 20
7.5872023663
 30
0.0
 10
10.7806496093
 20
7.5870563736
 30
0.0
  0
SPLINE
  5
39D
100
AcDbEntity
  8
0
100
AcDbSpline
 62
9
  6
CONTINUOUS
 70
0
 71
3
 72
12
 73
8
 74
0
 42
0.0000001
 43
0.0000001
 44
0.0000000001
 40
0.0
 40
0.0
 40
0.0
 40
0.0
 40
0.102988362
 40
0.2146301658
 40
0.4591166881
 40
0.7243412407
 40
1.0
 40
1.0
 40
1.0
 40
1.0
 10
10.5698973812
 20
7.5139282309
 30
0.0
 10
10.5708619726
 20
7.5137999495
 30
0.0
 10
10.5728757554
 20
7.513558971
 30
0.0
 10
10.5771931071
 20
7.5131342378
 30
0.0
 10
10.5830510544
 20
7.5127264605
 30
0.0
 10
10.5904666297
 20
7.5124328679
 30
0.0
 10
10.5955774307
 20
7.5123658797
 30
0.0
 10
10.5981819888
 20
7.5123658714
 30
0.0
  0
LINE
  5
39E
100
AcDbEntity
  8
0
100
AcDbLine
 62
9
  6
CONTINUOUS
 10
11.3054866302
 20
7.5139282304
 11
11.3172026966
 21
7.5123658714
  0
SPLINE
  5
39F
100
AcDbEntity
  8
0
100
AcDbSpline
 62
7
  6
CONTINUOUS
 70
0
 71
3
 72
11
 73
7
 74
0
 42
0.0000001
 43
0.0000001
 44
0.0000000001
 40
0.0
 40
0.0
 40
0.0
 40
0.0
 40
0.2326649289
 40
0.480301574
 40
0.7379674473
 40
1.0
 40
1.0
 40
1.0
 40
1.0
 10
11.5763590939
 20
11.7356954053
 30
0.0
 10
11.5763581208
 20
11.730535514
 30
0.0
 10
11.5764976996
 20
11.7198839421
 30
0.0
 10
11.5768469993
 20
11.7035216788
 30
0.0
 10
11.5771205289
 20
11.686506251
 30
0.0
 10
11.5771999792
 20
11.6749806896
 30
0.0
 10
11.5771999792
 20
11.6691695021
 30
0.0
  0
SPLINE
  5
3A0
100
AcDbEntity
  8
0
100
AcDbSpline
 62
7
  6
CONTINUOUS
 70
0
 71
3
 72
11
 73
7
 74
0
 42
0.0000001
 43
0.0000001
 44
0.0000000001
 40
0.0
 40
0.0
 40
0.0
 40
0.0
 40
0.2620142826
 40
0.5196800622
 40
0.7673310429
 40
1.0
 40
1.0
 40
1.0
 40
1.0
 10
10.2984618921
 20
11.6691695021
 30
0.0
 10
10.2984618921
 20
11.674980293
 30
0.0
 10
10.2985415577
 20
11.6865054621
 30
0.0
 10
10.2988147993
 20
11.703520831
 30
0.0
 10
10.2991643416
 20
11.7198835156
 30
0.0
 10
10.2993042809
 20
11.7305355131
 30
0.0
 10
10.2993029572
 20
11.7356955013
 30
0.0
  0
SPLINE
  5
3A1
100
AcDbEntity
  8
0
100
AcDbSpline
 62
7
  6
CONTINUOUS
 70
0
 71
3
 72
17
 73
13
 74
0
 42
0.0000001
 43
0.0000001
 44
0.0000000001
 40
0.0
 40
0.0
 40
0.0
 40
0.0
 40
0.0984980257
 40
0.1964939791
 40
0.2930442436
 40
0.3872890399
 40
0.478268414
 40
0.5647738692
 40
0.6455454751
 40
0.7194133388
 40
0.93040296
 40
1.0
 40
1.0
 40
1.0
 40
1.0
 10
9.8724533315
 20
11.6691695021
 30
0.0
 10
9.8724533315
 20
11.6745211923
 30
0.0
 10
9.8729733507
 20
11.6852039488
 30
0.0
 10
9.8752537468
 20
11.7009851851
 30
0.0
 10
9.8789848119
 20
11.7162506738
 30
0.0
 10
9.8839978326
 20
11.7307397869
 30
0.0
 10
9.8901094903
 20
11.7442019787
 30
0.0
 10
9.8970279974
 20
11.7564297929
 30
0.0
 10
9.9044625012
 20
11.7672406523
 30
0.0
 10
9.9170137057
 20
11.782647748
 30
0.0
 10
9.9315433764
 20
11.7956655083
 30
0.0
 10
9.944526693
 20
11.803693173
 30
0.0
 10
9.9478309357
 20
11.8055284036
 30
0.0
  0
SPLINE
  5
3A2
100
AcDbEntity
  8
0
100
AcDbSpline
 62
7
  6
CONTINUOUS
 70
0
 71
3
 72
24
 73
20
 74
0
 42
0.0000001
 43
0.0000001
 44
0.0000000001
 40
0.0
 40
0.0
 40
0.0
 40
0.0
 40
0.0043116968
 40
0.0172913256
 40
0.0390154125
 40
0.0695657361
 40
0.109071062
 40
0.1576269261
 40
0.215001199
 40
0.2809866204
 40
0.3548414536
 40
0.4355608409
 40
0.4781813404
 40
0.522072953
 40
0.6129920139
 40
0.7071871304
 40
0.8036899931
 40
0.9016102092
 40
1.0
 40
1.0
 40
1.0
 40
1.0
 10
11.9278309357
 20
11.8055284036
 30
0.0
 10
11.9280371315
 20
11.8054169112
 30
0.0
 10
11.9288608235
 20
11.8049639858
 30
0.0
 10
11.9306950413
 20
11.8038985033
 30
0.0
 10
11.9337299083
 20
11.802061331
 30
0.0
 10
11.93791143
 20
11.7993367276
 30
0.0
 10
11.9431453087
 20
11.7955661377
 30
0.0
 10
11.9493160457
 20
11.7906165
 30
0.0
 10
11.9562251645
 20
11.7843122142
 30
0.0
 10
11.963618448
 20
11.7765347584
 30
0.0
 10
11.9712078539
 20
11.7672364732
 30
0.0
 10
11.9772852839
 20
11.7583882595
 30
0.0
 10
11.9819405202
 20
11.7505765767
 30
0.0
 10
11.9865151904
 20
11.742081804
 30
0.0
 10
11.9916693308
 20
11.7307285332
 30
0.0
 10
11.9966788071
 20
11.7162390159
 30
0.0
 10
12.0004105154
 20
11.7009744166
 30
0.0
 10
12.0026878558
 20
11.6851967062
 30
0.0
 10
12.0032085398
 20
11.6745182262
 30
0.0
 10
12.0032085398
 20
11.6691695021
 30
0.0
  0
SPLINE
  5
3A3
100
AcDbEntity
  8
0
100
AcDbSpline
 62
7
  6
CONTINUOUS
 70
0
 71
3
 72
39
 73
35
 74
0
 42
0.0000001
 43
0.0000001
 44
0.0000000001
 40
0.0
 40
0.0
 40
0.0
 40
0.0
 40
0.0394031321
 40
0.0788887787
 40
0.1183766381
 40
0.1578376915
 40
0.1972855066
 40
0.2367420512
 40
0.2761786545
 40
0.2958725981
 40
0.3155302948
 40
0.3546816645
 40
0.393502856
 40
0.4317850314
 40
0.469373912
 40
0.5416369294
 40
0.5760031502
 40
0.6089520053
 40
0.6403365038
 40
0.6700426268
 40
0.6979527428
 40
0.7239866532
 40
0.7481097273
 40
0.7703445641
 40
0.7908527248
 40
0.8099759754
 40
0.8282870605
 40
0.8466435189
 40
0.8660357682
 40
0.887373005
 40
0.9112498442
 40
0.9380097887
 40
0.9676759245
 40
1.0
 40
1.0
 40
1.0
 40
1.0
 10
11.805133349
 20
11.6691695021
 30
0.0
 10
11.805133349
 20
11.6737948507
 30
0.0
 10
11.8046297158
 20
11.6830628078
 30
0.0
 10
11.8023843309
 20
11.6968020886
 30
0.0
 10
11.7986488675
 20
11.7102231711
 30
0.0
 10
11.7934499281
 20
11.7231427967
 30
0.0
 10
11.786849314
 20
11.7354029397
 30
0.0
 10
11.7789039725
 20
11.7468328065
 30
0.0
 10
11.7712794381
 20
11.755571387
 30
0.0
 10
11.7646539687
 20
11.7620297129
 30
0.0
 10
11.7577153899
 20
11.7680998599
 30
0.0
 10
11.7485155527
 20
11.774968143
 30
0.0
 10
11.736842844
 20
11.7820729661
 30
0.0
 10
11.7247542919
 20
11.7880370092
 30
0.0
 10
11.7085899286
 20
11.7944827498
 30
0.0
 10
11.6922567624
 20
11.7991303651
 30
0.0
 10
11.6761717982
 20
11.8022702947
 30
0.0
 10
11.6647009392
 20
11.8039327452
 30
0.0
 10
11.6537106057
 20
11.8050074613
 30
0.0
 10
11.6432726753
 20
11.8055335135
 30
0.0
 10
11.6334494021
 20
11.8055660863
 30
0.0
 10
11.6242920904
 20
11.8050890513
 30
0.0
 10
11.6158480948
 20
11.804067725
 30
0.0
 10
11.6081504016
 20
11.8024731731
 30
0.0
 10
11.6012305426
 20
11.8002050472
 30
0.0
 10
11.5951212505
 20
11.7971446869
 30
0.0
 10
11.5898705053
 20
11.7931589208
 30
0.0
 10
11.5855318024
 20
11.7881468853
 30
0.0
 10
11.5821392871
 20
11.7820473356
 30
0.0
 10
11.5796647383
 20
11.7748477084
 30
0.0
 10
11.5779609383
 20
11.7665561425
 30
0.0
 10
11.5769288827
 20
11.7571771461
 30
0.0
 10
11.5764327385
 20
11.7467671857
 30
0.0
 10
11.5763598095
 20
11.7394897765
 30
0.0
 10
11.5763590939
 20
11.7356954053
 30
0.0
  0
SPLINE
  5
3A4
100
AcDbEntity
  8
0
100
AcDbSpline
 62
7
  6
CONTINUOUS
 70
0
 71
3
 72
30
 73
26
 74
0
 42
0.0000001
 43
0.0000001
 44
0.0000000001
 40
0.0
 40
0.0
 40
0.0
 40
0.0
 40
0.0813579631
 40
0.1627145681
 40
0.2435885479
 40
0.3233527157
 40
0.4011369198
 40
0.4757894197
 40
0.5115235583
 40
0.5459443855
 40
0.5788838978
 40
0.6102089663
 40
0.6398461316
 40
0.6678039278
 40
0.6941822543
 40
0.719169968
 40
0.74302836
 40
0.7660584691
 40
0.7885664896
 40
0.8108376414
 40
0.8331137271
 40
0.8555858029
 40
0.9016040897
 40
0.9496497686
 40
1.0
 40
1.0
 40
1.0
 40
1.0
 10
10.0705285223
 20
11.0591695021
 30
0.0
 10
10.0766771242
 20
11.053768229
 30
0.0
 10
10.0891539223
 20
11.043167876
 30
0.0
 10
10.1084092769
 20
11.0280036086
 30
0.0
 10
10.1281719135
 20
11.0137750998
 30
0.0
 10
10.148340608
 20
11.0007722435
 30
0.0
 10
10.1687462679
 20
10.9893696946
 30
0.0
 10
10.185978742
 20
10.9814651252
 30
0.0
 10
10.1996630922
 20
10.9764518973
 30
0.0
 10
10.2096039718
 20
10.9734723012
 30
0.0
 10
10.2192951826
 20
10.9712801531
 30
0.0
 10
10.2286552979
 20
10.9699288502
 30
0.0
 10
10.2376013114
 20
10.969454468
 30
0.0
 10
10.2460546849
 20
10.9698726073
 30
0.0
 10
10.2539462008
 20
10.9711772093
 30
0.0
 10
10.2612197811
 20
10.9733397279
 30
0.0
 10
10.267836077
 20
10.9763099573
 30
0.0
 10
10.2737731454
 20
10.980023471
 30
0.0
 10
10.2790264296
 20
10.9844066084
 30
0.0
 10
10.2836076689
 20
10.9893823325
 30
0.0
 10
10.2875387262
 20
10.9948789939
 30
0.0
 10
10.2919856505
 20
11.0028720135
 30
0.0
 10
10.2960595671
 20
11.0139448928
 30
0.0
 10
10.2987705119
 20
11.0282656341
 30
0.0
 10
10.299302736
 20
11.0381777725
 30
0.0
 10
10.2993028527
 20
11.043242673
 30
0.0
  0
SPLINE
  5
3A5
100
AcDbEntity
  8
0
100
AcDbSpline
 62
7
  6
CONTINUOUS
 70
0
 71
3
 72
21
 73
17
 74
0
 42
0.0000001
 43
0.0000001
 44
0.0000000001
 40
0.0
 40
0.0
 40
0.0
 40
0.0
 40
0.114390995
 40
0.1741407317
 40
0.2357520814
 40
0.2993212877
 40
0.3648128874
 40
0.431926876
 40
0.4999999063
 40
0.5680728527
 40
0.6351868852
 40
0.7006783761
 40
0.7642475533
 40
0.8258589463
 40
0.8856087475
 40
1.0
 40
1.0
 40
1.0
 40
1.0
 10
10.7766577042
 20
11.0591695021
 30
0.0
 10
10.7852746744
 20
11.0474087855
 30
0.0
 10
10.7999654498
 20
11.0305687089
 30
0.0
 10
10.8227078806
 20
11.0108750575
 30
0.0
 10
10.8420644531
 20
10.9973402968
 30
0.0
 10
10.8634946747
 20
10.9857567191
 30
0.0
 10
10.8868932776
 20
10.9767322927
 30
0.0
 10
10.9118993188
 20
10.9709367905
 30
0.0
 10
10.9378308898
 20
10.968931085
 30
0.0
 10
10.963762466
 20
10.9709367814
 30
0.0
 10
10.9887684949
 20
10.9767322545
 30
0.0
 10
11.0121670885
 20
10.9857566717
 30
0.0
 10
11.0335973084
 20
10.9973402264
 30
0.0
 10
11.0529538975
 20
11.0108749812
 30
0.0
 10
11.0756963755
 20
11.0305686496
 30
0.0
 10
11.0903871775
 20
11.047408759
 30
0.0
 10
11.0990041671
 20
11.0591695021
 30
0.0
  0
SPLINE
  5
3A6
100
AcDbEntity
  8
0
100
AcDbSpline
 62
7
  6
CONTINUOUS
 70
0
 71
3
 72
42
 73
38
 74
0
 42
0.0000001
 43
0.0000001
 44
0.0000000001
 40
0.0
 40
0.0
 40
0.0
 40
0.0
 40
0.0330342289
 40
0.0658398593
 40
0.0980672423
 40
0.1295141418
 40
0.1601220168
 40
0.1899807886
 40
0.2047035584
 40
0.2193337967
 40
0.2484997266
 40
0.2631472974
 40
0.2778847417
 40
0.3077552268
 40
0.3383132754
 40
0.3695947468
 40
0.401549301
 40
0.4340405954
 40
0.4669039197
 40
0.4999620033
 40
0.53301991
 40
0.5658891201
 40
0.5983932609
 40
0.6303558004
 40
0.6616511062
 40
0.6922255666
 40
0.7221091556
 40
0.7514912475
 40
0.7806677398
 40
0.7953013133
 40
0.8100265568
 40
0.8398890201
 40
0.8704972068
 40
0.901940605
 40
0.9341633575
 40
0.966966395
 40
1.0
 40
1.0
 40
1.0
 40
1.0
 10
11.0990041671
 20
11.6691695021
 30
0.0
 10
11.0990041671
 20
11.674516999
 30
0.0
 10
11.0985802138
 20
11.6851801868
 30
0.0
 10
11.0966420569
 20
11.7009548847
 30
0.0
 10
11.0933586226
 20
11.7162474534
 30
0.0
 10
11.0886606898
 20
11.7308002412
 30
0.0
 10
11.0824597446
 20
11.7443658013
 30
0.0
 10
11.0759758425
 20
11.7547160257
 30
0.0
 10
11.0700382725
 20
11.7622506882
 30
0.0
 10
11.0636306034
 20
11.7692374975
 30
0.0
 10
11.0564721354
 20
11.7754830224
 30
0.0
 10
11.0487076286
 20
11.7809285424
 30
0.0
 10
11.0404897541
 20
11.7858893771
 30
0.0
 10
11.0294808851
 20
11.7911465885
 30
0.0
 10
11.0154477663
 20
11.7960606746
 30
0.0
 10
11.0007091707
 20
11.7997778574
 30
0.0
 10
10.9854354408
 20
11.802456975
 30
0.0
 10
10.9697804538
 20
11.8042699517
 30
0.0
 10
10.9538774894
 20
11.8053063184
 30
0.0
 10
10.9378538163
 20
11.805639306
 30
0.0
 10
10.921828747
 20
11.805313255
 30
0.0
 10
10.905923582
 20
11.804266798
 30
0.0
 10
10.8902627539
 20
11.8024679287
 30
0.0
 10
10.8749833539
 20
11.7997863945
 30
0.0
 10
10.8602395906
 20
11.7960660181
 30
0.0
 10
10.8461976846
 20
11.7911536746
 30
0.0
 10
10.8330402458
 20
11.7848755296
 30
0.0
 10
10.8209954397
 20
11.7770555862
 30
0.0
 10
10.8120333247
 20
11.7692366548
 30
0.0
 10
10.8056218174
 20
11.7622491159
 30
0.0
 10
10.7996829548
 20
11.7547135799
 30
0.0
 10
10.7932003121
 20
11.7443612293
 30
0.0
 10
10.7869994238
 20
11.7307956826
 30
0.0
 10
10.7823020499
 20
11.7162439962
 30
0.0
 10
10.7790196636
 20
11.7009529918
 30
0.0
 10
10.7770817452
 20
11.6851795631
 30
0.0
 10
10.7766577042
 20
11.674516898
 30
0.0
 10
10.7766577042
 20
11.6691695021
 30
0.0
  0
SPLINE
  5
3A7
100
AcDbEntity
  8
0
100
AcDbSpline
 62
7
  6
CONTINUOUS
 70
0
 71
3
 72
38
 73
34
 74
0
 42
0.0000001
 43
0.0000001
 44
0.0000000001
 40
0.0
 40
0.0
 40
0.0
 40
0.0
 40
0.0323261072
 40
0.0619913406
 40
0.0887530333
 40
0.1126285355
 40
0.1339580296
 40
0.1533416916
 40
0.1716925882
 40
0.1900013555
 40
0.209114375
 40
0.2296103414
 40
0.2518409532
 40
0.2759544503
 40
0.3019816728
 40
0.3298910281
 40
0.3595928909
 40
0.3909835162
 40
0.4582941817
 40
0.4939109729
 40
0.5306342614
 40
0.5682385001
 40
0.6065403618
 40
0.6453844713
 40
0.6845531358
 40
0.7042170756
 40
0.7239160856
 40
0.7633612125
 40
0.8028244445
 40
0.842273766
 40
0.881733236
 40
0.9212204096
 40
1.0
 40
1.0
 40
1.0
 40
1.0
 10
10.2993029572
 20
11.7356955013
 30
0.0
 10
10.2993019839
 20
11.739489728
 30
0.0
 10
10.2992285738
 20
11.7467665314
 30
0.0
 10
10.2987322925
 20
11.7571757477
 30
0.0
 10
10.2977020142
 20
11.7665538762
 30
0.0
 10
10.2960004587
 20
11.77484419
 30
0.0
 10
10.2935260993
 20
11.7820410465
 30
0.0
 10
10.2901351606
 20
11.7881372326
 30
0.0
 10
10.2858032568
 20
11.7931516429
 30
0.0
 10
10.2805548386
 20
11.7971364581
 30
0.0
 10
10.2744486562
 20
11.8001948645
 30
0.0
 10
10.2675333
 20
11.8024631947
 30
0.0
 10
10.2598417219
 20
11.8040685731
 30
0.0
 10
10.2514001116
 20
11.8050857344
 30
0.0
 10
10.2422458929
 20
11.8055591698
 30
0.0
 10
10.2324249971
 20
11.8055412776
 30
0.0
 10
10.2219876792
 20
11.8050097545
 30
0.0
 10
10.2069852706
 20
11.8035385201
 30
0.0
 10
10.1914074899
 20
11.8009154243
 30
0.0
 10
10.1755124402
 20
11.7968809488
 30
0.0
 10
10.1632132421
 20
11.7929440388
 30
0.0
 10
10.1509217763
 20
11.7880453105
 30
0.0
 10
10.1388296344
 20
11.7820771732
 30
0.0
 10
10.1271522793
 20
11.7749690269
 30
0.0
 10
10.1179480452
 20
11.7680995649
 30
0.0
 10
10.1110066072
 20
11.7620289784
 30
0.0
 10
10.1043798504
 20
11.755569924
 30
0.0
 10
10.0967558542
 20
11.7468292791
 30
0.0
 10
10.0888103347
 20
11.7353987685
 30
0.0
 10
10.0822095833
 20
11.7231400779
 30
0.0
 10
10.0770119682
 20
11.7102188736
 30
0.0
 10
10.0720397135
 20
11.6923594484
 30
0.0
 10
10.0705285223
 20
11.6784161347
 30
0.0
 10
10.0705285223
 20
11.6691695021
 30
0.0
  0
SPLINE
  5
3A8
100
AcDbEntity
  8
0
100
AcDbSpline
 62
7
  6
CONTINUOUS
 70
0
 71
3
 72
30
 73
26
 74
0
 42
0.0000001
 43
0.0000001
 44
0.0000000001
 40
0.0
 40
0.0
 40
0.0
 40
0.0
 40
0.0503501045
 40
0.098395748
 40
0.1444140018
 40
0.166886095
 40
0.1891621755
 40
0.211433331
 40
0.2339413548
 40
0.2569715612
 40
0.2808299481
 40
0.3058175973
 40
0.332195947
 40
0.3601537678
 40
0.389790886
 40
0.4211158917
 40
0.4540554811
 40
0.4884762741
 40
0.5242102455
 40
0.5988626911
 40
0.6766468452
 40
0.7564110552
 40
0.8372850841
 40
0.9186418781
 40
1.0
 40
1.0
 40
1.0
 40
1.0
 10
11.5763590207
 20
11.0432426747
 30
0.0
 10
11.576359136
 20
11.038177787
 30
0.0
 10
11.5768913612
 20
11.0282656652
 30
0.0
 10
11.579602292
 20
11.0139449417
 30
0.0
 10
11.5836761969
 20
11.0028720634
 30
0.0
 10
11.5881231152
 20
10.9948790427
 30
0.0
 10
11.5920541684
 20
10.9893823766
 30
0.0
 10
11.5966353994
 20
10.9844066447
 30
0.0
 10
11.6018886889
 20
10.9800234962
 30
0.0
 10
11.6078257665
 20
10.9763099802
 30
0.0
 10
11.6144420571
 20
10.9733397313
 30
0.0
 10
11.621715636
 20
10.9711772234
 30
0.0
 10
11.6296071475
 20
10.9698726084
 30
0.0
 10
11.6380605217
 20
10.9694544683
 30
0.0
 10
11.6470065264
 20
10.9699288476
 30
0.0
 10
11.6563666402
 20
10.9712801397
 30
0.0
 10
11.6660578476
 20
10.9734722938
 30
0.0
 10
11.6759987195
 20
10.976451872
 30
0.0
 10
11.6896830447
 20
10.981465094
 30
0.0
 10
11.7069154994
 20
10.9893696394
 30
0.0
 10
11.7273211569
 20
11.0007721806
 30
0.0
 10
11.7474898598
 20
11.0137750316
 30
0.0
 10
11.7672525232
 20
11.0280035519
 30
0.0
 10
11.7865079119
 20
11.0431678407
 30
0.0
 10
11.7989847351
 20
11.0537682185
 30
0.0
 10
11.805133349
 20
11.0591695021
 30
0.0
  0
LINE
  5
3A9
100
AcDbEntity
  8
0
100
AcDbLine
 62
7
  6
CONTINUOUS
 10
6.3391941734
 20
9.4442692954
 11
6.33694419
 21
9.4445228162
  0
SPLINE
  5
3AA
100
AcDbEntity
  8
0
100
AcDbSpline
 62
7
  6
CONTINUOUS
 70
0
 71
3
 72
14
 73
10
 74
0
 42
0.0000001
 43
0.0000001
 44
0.0000000001
 40
0.0
 40
0.0
 40
0.0
 40
0.0
 40
0.125
 40
0.25
 40
0.375
 40
0.5
 40
0.625
 40
0.75
 40
1.0
 40
1.0
 40
1.0
 40
1.0
 10
6.6626923444
 20
9.1217695341
 30
0.0
 10
6.661892656
 20
9.1431311695
 30
0.0
 10
6.657689574
 20
9.1856303622
 30
0.0
 10
6.6414259362
 20
9.2471119853
 30
0.0
 10
6.6132625428
 20
9.3036515784
 30
0.0
 10
6.5728016335
 20
9.3519212998
 30
0.0
 10
6.5220999128
 20
9.389640026
 30
0.0
 10
6.4452831214
 20
9.4257580876
 30
0.0
 10
6.3819225329
 20
9.439159646
 30
0.0
 10
6.3391941772
 20
9.4442693801
 30
0.0
  0
SPLINE
  5
3AB
100
AcDbEntity
  8
0
100
AcDbSpline
 62
7
  6
CONTINUOUS
 70
0
 71
3
 72
13
 73
9
 74
0
 42
0.0000001
 43
0.0000001
 44
0.0000000001
 40
0.0
 40
0.0
 40
0.0
 40
0.0
 40
0.25
 40
0.375
 40
0.5
 40
0.625
 40
0.75
 40
1.0
 40
1.0
 40
1.0
 40
1.0
 10
7.4497929559
 20
9.3826242411
 30
0.0
 10
7.4183892123
 20
9.376071018
 30
0.0
 10
7.3725229265
 20
9.3610763336
 30
0.0
 10
7.3189061497
 20
9.3275396833
 30
0.0
 10
7.2841383414
 20
9.2955598019
 30
0.0
 10
7.2560323448
 20
9.2575369352
 30
0.0
 10
7.2279688661
 20
9.2007053491
 30
0.0
 10
7.2168802617
 20
9.153654526
 30
0.0
 10
7.2126923257
 20
9.1217695042
 30
0.0
  0
SPLINE
  5
3AC
100
AcDbEntity
  8
0
100
AcDbSpline
 62
7
  6
CONTINUOUS
 70
0
 71
3
 72
11
 73
7
 74
0
 42
0.0000001
 43
0.0000001
 44
0.0000000001
 40
0.0
 40
0.0
 40
0.0
 40
0.0
 40
0.2502274136
 40
0.5003157299
 40
0.7502170768
 40
1.0
 40
1.0
 40
1.0
 40
1.0
 10
6.3391923194
 20
9.9572695037
 30
0.0
 10
6.2400948672
 20
9.9640100183
 30
0.0
 10
6.0419411987
 20
9.9772813588
 30
0.0
 10
5.7448571071
 20
9.9978529866
 30
0.0
 10
5.4480741426
 20
10.0201658472
 30
0.0
 10
5.2504298918
 20
10.0369110851
 30
0.0
 10
5.1516924011
 20
10.0459459463
 30
0.0
  0
SPLINE
  5
3AD
100
AcDbEntity
  8
0
100
AcDbSpline
 62
7
  6
CONTINUOUS
 70
0
 71
3
 72
13
 73
9
 74
0
 42
0.0000001
 43
0.0000001
 44
0.0000000001
 40
0.0
 40
0.0
 40
0.0
 40
0.0
 40
0.2523314056
 40
0.3816861552
 40
0.5105216125
 40
0.7620514132
 40
0.883634826
 40
1.0
 40
1.0
 40
1.0
 40
1.0
 10
4.033176615
 20
10.1754914277
 30
0.0
 10
4.0342076297
 20
10.1772223058
 30
0.0
 10
4.0362135912
 20
10.1795971178
 30
0.0
 10
4.0394492702
 20
10.1820906023
 30
0.0
 10
4.0430229176
 20
10.1840714335
 30
0.0
 10
4.0469688284
 20
10.1851206657
 30
0.0
 10
4.050879862
 20
10.1853056058
 30
0.0
 10
4.0527801066
 20
10.1851310592
 30
0.0
 10
4.0536961731
 20
10.1849760451
 30
0.0
  0
SPLINE
  5
3AE
100
AcDbEntity
  8
0
100
AcDbSpline
 62
7
  6
CONTINUOUS
 70
0
 71
3
 72
11
 73
7
 74
0
 42
0.0000001
 43
0.0000001
 44
0.0000000001
 40
0.0
 40
0.0
 40
0.0
 40
0.0
 40
0.2558021649
 40
0.5077026086
 40
0.7557367144
 40
1.0
 40
1.0
 40
1.0
 40
1.0
 10
6.3914824726
 20
7.760245397
 30
0.0
 10
6.365538913
 20
7.6892172542
 30
0.0
 10
6.3104399676
 20
7.5495342313
 30
0.0
 10
6.218333767
 20
7.3459111335
 30
0.0
 10
6.1183213012
 20
7.1498816254
 30
0.0
 10
6.0464139258
 20
7.0232974118
 30
0.0
 10
6.0094138837
 20
6.9612907238
 30
0.0
  0
LINE
  5
3AF
100
AcDbEntity
  8
0
100
AcDbLine
 62
7
  6
CONTINUOUS
 10
6.0094138837
 20
6.9612907238
 11
6.0051426641
 21
6.9541461273
  0
SPLINE
  5
3B0
100
AcDbEntity
  8
0
100
AcDbSpline
 62
7
  6
CONTINUOUS
 70
0
 71
3
 72
8
 73
4
 74
0
 42
0.0000001
 43
0.0000001
 44
0.0000000001
 40
0.0
 40
0.0
 40
0.0
 40
0.0
 40
1.0
 40
1.0
 40
1.0
 40
1.0
 10
6.3392007076
 20
9.4442687245
 30
0.0
 10
6.3679459276
 20
9.4408313909
 30
0.0
 10
6.3964690368
 20
9.4356628393
 30
0.0
 10
6.4241423475
 20
9.4280754825
 30
0.0
  0
SPLINE
  5
3B1
100
AcDbEntity
  8
0
100
AcDbSpline
 62
7
  6
CONTINUOUS
 70
0
 71
3
 72
9
 73
5
 74
0
 42
0.0000001
 43
0.0000001
 44
0.0000000001
 40
0.0
 40
0.0
 40
0.0
 40
0.0
 40
0.3400903512
 40
1.0
 40
1.0
 40
1.0
 40
1.0
 10
6.4469790473
 20
9.421182746
 30
0.0
 10
6.4526514014
 20
9.4193061168
 30
0.0
 10
6.4691989586
 20
9.4134532124
 30
0.0
 10
6.4853106575
 20
9.4065614526
 30
0.0
 10
6.4956695869
 20
9.4015205364
 30
0.0
  0
SPLINE
  5
3B2
100
AcDbEntity
  8
0
100
AcDbSpline
 62
7
  6
CONTINUOUS
 70
0
 71
3
 72
9
 73
5
 74
0
 42
0.0000001
 43
0.0000001
 44
0.0000000001
 40
0.0
 40
0.0
 40
0.0
 40
0.0
 40
0.0220425856
 40
1.0
 40
1.0
 40
1.0
 40
1.0
 10
6.5202000324
 20
9.3883145182
 30
0.0
 10
6.5204525059
 20
9.3881644052
 30
0.0
 10
6.5318962696
 20
9.3813386406
 30
0.0
 10
6.5428774762
 20
9.3738023787
 30
0.0
 10
6.5530427623
 20
9.3657557303
 30
0.0
  0
SPLINE
  5
3B3
100
AcDbEntity
  8
0
100
AcDbSpline
 62
7
  6
CONTINUOUS
 70
0
 71
3
 72
9
 73
5
 74
0
 42
0.0000001
 43
0.0000001
 44
0.0000000001
 40
0.0
 40
0.0
 40
0.0
 40
0.0
 40
0.515012561
 40
1.0
 40
1.0
 40
1.0
 40
1.0
 10
6.6306078989
 20
9.2673229496
 30
0.0
 10
6.6338158171
 20
9.2604362158
 30
0.0
 10
6.6395326171
 20
9.2468027854
 30
0.0
 10
6.6442672399
 20
9.2327611237
 30
0.0
 10
6.6463452933
 20
9.225872843
 30
0.0
  0
SPLINE
  5
3B4
100
AcDbEntity
  8
0
100
AcDbSpline
 62
7
  6
CONTINUOUS
 70
0
 71
3
 72
9
 73
5
 74
0
 42
0.0000001
 43
0.0000001
 44
0.0000000001
 40
0.0
 40
0.0
 40
0.0
 40
0.0
 40
0.2058056616
 40
1.0
 40
1.0
 40
1.0
 40
1.0
 10
6.6527661744
 20
9.2013916675
 30
0.0
 10
6.6539694115
 20
9.196041554
 30
0.0
 10
6.6592469542
 20
9.1698847082
 30
0.0
 10
6.6618927593
 20
9.1431296544
 30
0.0
 10
6.6626923483
 20
9.1217695342
 30
0.0
  0
SPLINE
  5
3B5
100
AcDbEntity
  8
0
100
AcDbSpline
 62
7
  6
CONTINUOUS
 70
0
 71
3
 72
11
 73
7
 74
0
 42
0.0000001
 43
0.0000001
 44
0.0000000001
 40
0.0
 40
0.0
 40
0.0
 40
0.0
 40
0.2558042972
 40
0.5077046107
 40
0.7557394359
 40
1.0
 40
1.0
 40
1.0
 40
1.0
 10
7.4839234703
 20
7.7601968588
 30
0.0
 10
7.509861985
 20
7.68917491
 30
0.0
 10
7.5649525111
 20
7.5495052068
 30
0.0
 10
7.6570555581
 20
7.3459063451
 30
0.0
 10
7.7570543521
 20
7.1498974192
 30
0.0
 10
7.8289526544
 20
7.0233267973
 30
0.0
 10
7.8659479248
 20
6.9613272937
 30
0.0
  0
LINE
  5
3B6
100
AcDbEntity
  8
0
100
AcDbLine
 62
7
  6
CONTINUOUS
 10
7.8659479248
 20
6.9613272937
 11
7.8702402674
 21
6.9541473414
  0
SPLINE
  5
3B7
100
AcDbEntity
  8
0
100
AcDbSpline
 62
7
  6
CONTINUOUS
 70
0
 71
3
 72
8
 73
4
 74
0
 42
0.0000001
 43
0.0000001
 44
0.0000000001
 40
0.0
 40
0.0
 40
0.0
 40
0.0
 40
1.0
 40
1.0
 40
1.0
 40
1.0
 10
7.2126923288
 20
9.1217695038
 30
0.0
 10
7.2158133613
 20
9.145531788
 30
0.0
 10
7.220714585
 20
9.1690077955
 30
0.0
 10
7.2279012333
 20
9.1915957281
 30
0.0
  0
SPLINE
  5
3B8
100
AcDbEntity
  8
0
100
AcDbSpline
 62
7
  6
CONTINUOUS
 70
0
 71
3
 72
9
 73
5
 74
0
 42
0.0000001
 43
0.0000001
 44
0.0000000001
 40
0.0
 40
0.0
 40
0.0
 40
0.0
 40
0.9318956654
 40
1.0
 40
1.0
 40
1.0
 40
1.0
 10
7.3286894876
 20
9.3328699705
 30
0.0
 10
7.3385886283
 20
9.3397682544
 30
0.0
 10
7.3497431966
 20
9.346453518
 30
0.0
 10
7.3613231931
 20
9.3523739356
 30
0.0
 10
7.3621137772
 20
9.3527736178
 30
0.0
  0
SPLINE
  5
3B9
100
AcDbEntity
  8
0
100
AcDbSpline
 62
7
  6
CONTINUOUS
 70
0
 71
3
 72
8
 73
4
 74
0
 42
0.0000001
 43
0.0000001
 44
0.0000000001
 40
0.0
 40
0.0
 40
0.0
 40
0.0
 40
1.0
 40
1.0
 40
1.0
 40
1.0
 10
7.3826874734
 20
9.3622232421
 30
0.0
 10
7.4041672958
 20
9.3711579514
 30
0.0
 10
7.4267570967
 20
9.3778172152
 30
0.0
 10
7.4497929385
 20
9.3826242502
 30
0.0
  0
SPLINE
  5
3BA
100
AcDbEntity
  8
0
100
AcDbSpline
 62
7
  6
CONTINUOUS
 70
0
 71
3
 72
10
 73
6
 74
0
 42
0.0000001
 43
0.0000001
 44
0.0000000001
 40
0.0
 40
0.0
 40
0.0
 40
0.0
 40
0.5005024403
 40
0.7505992403
 40
1.0
 40
1.0
 40
1.0
 40
1.0
 10
6.3391923323
 20
9.9572695029
 30
0.0
 10
6.1410377285
 20
9.9715707391
 30
0.0
 10
5.8437636313
 20
9.9915633819
 30
0.0
 10
5.4478956571
 20
10.0207585052
 30
0.0
 10
5.2502944652
 20
10.0371079249
 30
0.0
 10
5.1516923427
 20
10.0459459641
 30
0.0
  0
SPLINE
  5
3BB
100
AcDbEntity
  8
0
100
AcDbSpline
 62
7
  6
CONTINUOUS
 70
0
 71
3
 72
14
 73
10
 74
0
 42
0.0000001
 43
0.0000001
 44
0.0000000001
 40
0.0
 40
0.0
 40
0.0
 40
0.0
 40
0.1185560938
 40
0.2421198536
 40
0.4955856774
 40
0.6241477329
 40
0.7524641899
 40
0.8785661837
 40
1.0
 40
1.0
 40
1.0
 40
1.0
 10
4.028889521
 20
9.4370002557
 30
0.0
 10
4.0278823219
 20
9.4370285666
 30
0.0
 10
4.0258266328
 20
9.4372716851
 30
0.0
 10
4.021764876
 20
9.438422698
 30
0.0
 10
4.0179324727
 20
9.4405811707
 30
0.0
 10
4.014859931
 20
9.4436693672
 30
0.0
 10
4.012958718
 20
9.4463282136
 30
0.0
 10
4.0115084038
 20
9.4491867187
 30
0.0
 10
4.0108469588
 20
9.4511948649
 30
0.0
 10
4.0106085573
 20
9.4521990068
 30
0.0
  0
SPLINE
  5
3BC
100
AcDbEntity
  8
0
100
AcDbSpline
 62
7
  6
CONTINUOUS
 70
0
 71
3
 72
11
 73
7
 74
0
 42
0.0000001
 43
0.0000001
 44
0.0000000001
 40
0.0
 40
0.0
 40
0.0
 40
0.0
 40
0.2498035997
 40
0.4997082666
 40
0.7497771357
 40
1.0
 40
1.0
 40
1.0
 40
1.0
 10
5.1516924011
 20
10.0459459463
 30
0.0
 10
5.0601552441
 20
10.0543219493
 30
0.0
 10
4.8771450414
 20
10.0722198848
 30
0.0
 10
4.6030136872
 20
10.1034823645
 30
0.0
 10
4.3293943079
 20
10.1401668145
 30
0.0
 10
4.1475310056
 20
10.1688657991
 30
0.0
 10
4.0567794324
 20
10.1844139893
 30
0.0
  0
LINE
  5
3BD
100
AcDbEntity
  8
0
100
AcDbLine
 62
7
  6
CONTINUOUS
 10
4.0673020618
 20
10.1825293899
 11
4.0567689712
 21
10.1843616015
  0
SPLINE
  5
3BE
100
AcDbEntity
  8
0
100
AcDbSpline
 62
7
  6
CONTINUOUS
 70
0
 71
3
 72
16
 73
12
 74
0
 42
0.0000001
 43
0.0000001
 44
0.0000000001
 40
0.0
 40
0.0
 40
0.0
 40
0.0
 40
0.1275311442
 40
0.2547081558
 40
0.3812884563
 40
0.5070959566
 40
0.5696679254
 40
0.6319941149
 40
0.7558470635
 40
0.8785442985
 40
1.0
 40
1.0
 40
1.0
 40
1.0
 10
7.2176925549
 20
9.0907695252
 30
0.0
 10
7.2204192449
 20
9.0329295171
 30
0.0
 10
7.2280213872
 20
8.9175000991
 30
0.0
 10
7.2458757921
 20
8.7452632135
 30
0.0
 10
7.270169421
 20
8.5746044699
 30
0.0
 10
7.2957359395
 20
8.4338654071
 30
0.0
 10
7.3193108097
 20
8.3224967022
 30
0.0
 10
7.3448304749
 20
8.2124685035
 30
0.0
 10
7.3804231381
 20
8.0767795722
 30
0.0
 10
7.4289020715
 20
7.9168394548
 30
0.0
 10
7.4650054388
 20
7.8119961032
 30
0.0
 10
7.4839234703
 20
7.7601968588
 30
0.0
  0
LINE
  5
3BF
100
AcDbEntity
  8
0
100
AcDbLine
 62
7
  6
CONTINUOUS
 10
8.0873539285
 20
6.6211695013
 11
8.0870653196
 21
6.6215753007
  0
LINE
  5
3C0
100
AcDbEntity
  8
0
100
AcDbLine
 62
7
  6
CONTINUOUS
 10
8.0870645736
 20
6.6215766019
 11
8.081722892
 21
6.6291542739
  0
SPLINE
  5
3C1
100
AcDbEntity
  8
0
100
AcDbSpline
 62
7
  6
CONTINUOUS
 70
0
 71
3
 72
13
 73
9
 74
0
 42
0.0000001
 43
0.0000001
 44
0.0000000001
 40
0.0
 40
0.0
 40
0.0
 40
0.0
 40
0.1275415829
 40
0.2547266032
 40
0.3813131518
 40
0.5071309017
 40
0.7558614015
 40
1.0
 40
1.0
 40
1.0
 40
1.0
 10
6.6576923426
 20
9.0907694995
 30
0.0
 10
6.6549654949
 20
9.0329324327
 30
0.0
 10
6.647363206
 20
8.9175098212
 30
0.0
 10
6.6295093183
 20
8.7452854031
 30
0.0
 10
6.60522159
 20
8.5746351555
 30
0.0
 10
6.5645665658
 20
8.3507433622
 30
0.0
 10
6.4984443089
 20
8.0774713653
 30
0.0
 10
6.4295082462
 20
7.8643521629
 30
0.0
 10
6.3914824726
 20
7.760245397
 30
0.0
  0
LINE
  5
3C2
100
AcDbEntity
  8
0
100
AcDbLine
 62
7
  6
CONTINUOUS
 10
6.0031261353
 20
6.9542590249
 11
6.0035636127
 21
6.9549913781
  0
SPLINE
  5
3C3
100
AcDbEntity
  8
0
100
AcDbSpline
 62
7
  6
CONTINUOUS
 70
0
 71
3
 72
9
 73
5
 74
0
 42
0.0000001
 43
0.0000001
 44
0.0000000001
 40
0.0
 40
0.0
 40
0.0
 40
0.0
 40
0.2415183983
 40
1.0
 40
1.0
 40
1.0
 40
1.0
 10
5.9905988751
 20
6.9019681759
 30
0.0
 10
5.9906354248
 20
6.9014340987
 30
0.0
 10
5.9906848251
 20
6.8992165274
 30
0.0
 10
5.9903518707
 20
6.896994135
 30
0.0
 10
5.9899122136
 20
6.8953714649
 30
0.0
  0
SPLINE
  5
3C4
100
AcDbEntity
  8
0
100
AcDbSpline
 62
7
  6
CONTINUOUS
 70
0
 71
3
 72
9
 73
5
 74
0
 42
0.0000001
 43
0.0000001
 44
0.0000000001
 40
0.0
 40
0.0
 40
0.0
 40
0.0
 40
0.2487736586
 40
1.0
 40
1.0
 40
1.0
 40
1.0
 10
5.9899122136
 20
6.8953714649
 30
0.0
 10
5.989769486
 20
6.8948446913
 30
0.0
 10
5.9891151161
 20
6.8927504772
 30
0.0
 10
5.9881290476
 20
6.8907551569
 30
0.0
 10
5.9872064163
 20
6.889389558
 30
0.0
  0
SPLINE
  5
3C5
100
AcDbEntity
  8
0
100
AcDbSpline
 62
7
  6
CONTINUOUS
 70
0
 71
3
 72
10
 73
6
 74
0
 42
0.0000001
 43
0.0000001
 44
0.0000000001
 40
0.0
 40
0.0
 40
0.0
 40
0.0
 40
0.5108954667
 40
0.7608176949
 40
1.0
 40
1.0
 40
1.0
 40
1.0
 10
5.9872064163
 20
6.889389558
 30
0.0
 10
5.9859108531
 20
6.8874719777
 30
0.0
 10
5.9834096451
 20
6.8849677011
 30
0.0
 10
5.9795320943
 20
6.882609391
 30
0.0
 10
5.9774663378
 20
6.8817704951
 30
0.0
 10
5.9764291982
 20
6.8814571859
 30
0.0
  0
LINE
  5
3C6
100
AcDbEntity
  8
0
100
AcDbLine
 62
7
  6
CONTINUOUS
 10
5.788319349
 20
6.6215755518
 11
5.7880307352
 21
6.6211695025
  0
LINE
  5
3C7
100
AcDbEntity
  8
0
100
AcDbLine
 62
7
  6
CONTINUOUS
 10
5.9764210454
 20
6.8814547242
 11
5.9783502656
 21
6.8814335004
  0
SPLINE
  5
3C8
100
AcDbEntity
  8
0
100
AcDbSpline
 62
7
  6
CONTINUOUS
 70
0
 71
3
 72
11
 73
7
 74
0
 42
0.0000001
 43
0.0000001
 44
0.0000000001
 40
0.0
 40
0.0
 40
0.0
 40
0.0
 40
0.1594742494
 40
0.3044920043
 40
0.5623256874
 40
1.0
 40
1.0
 40
1.0
 40
1.0
 10
5.9912461837
 20
6.8935029329
 30
0.0
 10
5.9909841117
 20
6.892807853
 30
0.0
 10
5.9904111226
 20
6.8915065157
 30
0.0
 10
5.9891006627
 20
6.8892336584
 30
0.0
 10
5.9866837616
 20
6.8861314405
 30
0.0
 10
5.984079466
 20
6.8840942069
 30
0.0
 10
5.9822981334
 20
6.8831026182
 30
0.0
  0
LINE
  5
3C9
100
AcDbEntity
  8
0
100
AcDbLine
 62
7
  6
CONTINUOUS
 10
7.8970403602
 20
6.8814322682
 11
7.8987377931
 21
6.8814507982
  0
LINE
  5
3CA
100
AcDbEntity
  8
0
100
AcDbLine
 62
7
  6
CONTINUOUS
 10
7.8987377931
 20
6.8814507982
 11
7.8989641785
 21
6.881453376
  0
SPLINE
  5
3CB
100
AcDbEntity
  8
0
100
AcDbSpline
 62
9
  6
CONTINUOUS
 70
0
 71
3
 72
14
 73
10
 74
0
 42
0.0000001
 43
0.0000001
 44
0.0000000001
 40
0.0
 40
0.0
 40
0.0
 40
0.0
 40
0.3743791813
 40
0.5341676594
 40
0.6721011186
 40
0.7869839324
 40
0.8788675623
 40
0.9490965214
 40
1.0
 40
1.0
 40
1.0
 40
1.0
 10
7.5548996152
 20
9.7216044856
 30
0.0
 10
7.5550306266
 20
9.7238217492
 30
0.0
 10
7.5551721618
 20
9.7269890332
 30
0.0
 10
7.5551923219
 20
9.7309769256
 30
0.0
 10
7.5551224925
 20
9.7334245219
 30
0.0
 10
7.5549735698
 20
9.735464819
 30
0.0
 10
7.5547517528
 20
9.7370952659
 30
0.0
 10
7.5544663192
 20
9.7383275377
 30
0.0
 10
7.554201604
 20
9.739002911
 30
0.0
 10
7.5540489462
 20
9.7392634889
 30
0.0
  0
LINE
  5
3CC
100
AcDbEntity
  8
0
100
AcDbLine
 62
9
  6
CONTINUOUS
 10
4.0567794275
 20
10.1844139902
 11
4.0536961678
 21
10.184976046
  0
SPLINE
  5
3CD
100
AcDbEntity
  8
0
100
AcDbSpline
 62
9
  6
CONTINUOUS
 70
0
 71
3
 72
13
 73
9
 74
0
 42
0.0000001
 43
0.0000001
 44
0.0000000001
 40
0.0
 40
0.0
 40
0.0
 40
0.0
 40
0.3213746195
 40
0.4588794936
 40
0.5826161145
 40
0.797959348
 40
0.8983070825
 40
1.0
 40
1.0
 40
1.0
 40
1.0
 10
4.0349436855
 20
10.169963588
 30
0.0
 10
4.0344911558
 20
10.1704517711
 30
0.0
 10
4.033882506
 20
10.1711896976
 30
0.0
 10
4.0332713623
 20
10.1722340007
 30
0.0
 10
4.0328849189
 20
10.1731431233
 30
0.0
 10
4.0327300454
 20
10.1740688316
 30
0.0
 10
4.0328933931
 20
10.1749256106
 30
0.0
 10
4.0330688232
 20
10.1753104631
 30
0.0
 10
4.0331766153
 20
10.1754914283
 30
0.0
  0
SPLINE
  5
3CE
100
AcDbEntity
  8
0
100
AcDbSpline
 62
9
  6
CONTINUOUS
 70
0
 71
3
 72
9
 73
5
 74
0
 42
0.0000001
 43
0.0000001
 44
0.0000000001
 40
0.0
 40
0.0
 40
0.0
 40
0.0
 40
0.2498369946
 40
1.0
 40
1.0
 40
1.0
 40
1.0
 10
7.4627363739
 20
9.878277836
 30
0.0
 10
7.4628472638
 20
9.8770422738
 30
0.0
 10
7.4631796682
 20
9.8720877578
 30
0.0
 10
7.4630503391
 20
9.8670996505
 30
0.0
 10
7.462667356
 20
9.8633945694
 30
0.0
  0
LINE
  5
3CF
100
AcDbEntity
  8
0
100
AcDbLine
 62
9
  6
CONTINUOUS
 10
4.0535888599
 20
10.164678051
 11
4.0349436892
 21
10.1699635839
  0
SPLINE
  5
3D0
100
AcDbEntity
  8
0
100
AcDbSpline
 62
9
  6
CONTINUOUS
 70
0
 71
3
 72
13
 73
9
 74
0
 42
0.0000001
 43
0.0000001
 44
0.0000000001
 40
0.0
 40
0.0
 40
0.0
 40
0.0
 40
0.2454278368
 40
0.3752836244
 40
0.5064349368
 40
0.6365430229
 40
0.7635296569
 40
1.0
 40
1.0
 40
1.0
 40
1.0
 10
4.0349437066
 20
10.1699635784
 30
0.0
 10
4.0355673277
 20
10.1722190536
 30
0.0
 10
4.037123522
 20
10.1755438717
 30
0.0
 10
4.0402681739
 20
10.1792338342
 30
0.0
 10
4.0431763018
 20
10.1816062675
 30
0.0
 10
4.0464720208
 20
10.1833455292
 30
0.0
 10
4.050988317
 20
10.1847386354
 30
0.0
 10
4.0545568827
 20
10.1847933191
 30
0.0
 10
4.0567794373
 20
10.1844139885
 30
0.0
  0
LINE
  5
3D1
100
AcDbEntity
  8
0
100
AcDbLine
 62
9
  6
CONTINUOUS
 10
4.0535888234
 20
10.1646780565
 11
4.0567794433
 21
10.1844140233
  0
SPLINE
  5
3D2
100
AcDbEntity
  8
0
100
AcDbSpline
 62
9
  6
CONTINUOUS
 70
0
 71
3
 72
9
 73
5
 74
0
 42
0.0000001
 43
0.0000001
 44
0.0000000001
 40
0.0
 40
0.0
 40
0.0
 40
0.0
 40
0.5005708655
 40
1.0
 40
1.0
 40
1.0
 40
1.0
 10
4.0330904003
 20
10.1480830057
 30
0.0
 10
4.0328759642
 20
10.1517496402
 30
0.0
 10
4.0329999442
 20
10.159115469
 30
0.0
 10
4.034141755
 20
10.1663878881
 30
0.0
 10
4.0349436855
 20
10.169963588
 30
0.0
  0
SPLINE
  5
3D3
100
AcDbEntity
  8
0
100
AcDbSpline
 62
9
  6
CONTINUOUS
 70
0
 71
3
 72
20
 73
16
 74
0
 42
0.0000001
 43
0.0000001
 44
0.0000000001
 40
0.0
 40
0.0
 40
0.0
 40
0.0
 40
0.0096205249
 40
0.0164504032
 40
0.0250837791
 40
0.0485057089
 40
0.0810038003
 40
0.1231374238
 40
0.1745971163
 40
0.2348451568
 40
0.303320681
 40
0.461372468
 40
0.637822793
 40
0.8208239221
 40
1.0
 40
1.0
 40
1.0
 40
1.0
 10
4.0291474066
 20
9.4369948964
 30
0.0
 10
4.0292122609
 20
9.4369941116
 30
0.0
 10
4.0293193577
 20
9.4370566334
 30
0.0
 10
4.0294259393
 20
9.4371858455
 30
0.0
 10
4.0295634995
 20
9.4374109178
 30
0.0
 10
4.029726074
 20
9.4378162086
 30
0.0
 10
4.0299115319
 20
9.4384511867
 30
0.0
 10
4.0300954371
 20
9.439281615
 30
0.0
 10
4.0302776678
 20
9.4403028027
 30
0.0
 10
4.0304538
 20
9.4415048853
 30
0.0
 10
4.0306867948
 20
9.4434243093
 30
0.0
 10
4.0309298404
 20
9.4461307712
 30
0.0
 10
4.0311518058
 20
9.4496128405
 30
0.0
 10
4.0313009967
 20
9.4532413258
 30
0.0
 10
4.0313565651
 20
9.4556825373
 30
0.0
 10
4.0313732623
 20
9.4568903797
 30
0.0
  0
LINE
  5
3D4
100
AcDbEntity
  8
0
100
AcDbLine
 62
7
  6
CONTINUOUS
 10
6.3391924176
 20
9.9372154396
 11
6.3406788489
 21
9.9571622545
  0
SPLINE
  5
3D5
100
AcDbEntity
  8
0
100
AcDbSpline
 62
9
  6
CONTINUOUS
 70
0
 71
3
 72
9
 73
5
 74
0
 42
0.0000001
 43
0.0000001
 44
0.0000000001
 40
0.0
 40
0.0
 40
0.0
 40
0.0
 40
0.2513666283
 40
1.0
 40
1.0
 40
1.0
 40
1.0
 10
7.4446642584
 20
9.8751755966
 30
0.0
 10
7.4448320058
 20
9.8741982608
 30
0.0
 10
7.4454254786
 20
9.8702982164
 30
0.0
 10
7.4457073878
 20
9.8663478857
 30
0.0
 10
7.4457073895
 20
9.8633945694
 30
0.0
  0
SPLINE
  5
3D6
100
AcDbEntity
  8
0
100
AcDbSpline
 62
9
  6
CONTINUOUS
 70
0
 71
3
 72
15
 73
11
 74
0
 42
0.0000001
 43
0.0000001
 44
0.0000000001
 40
0.0
 40
0.0
 40
0.0
 40
0.0
 40
0.1553722088
 40
0.3105437951
 40
0.4594757994
 40
0.5967449949
 40
0.7187644386
 40
0.8253853867
 40
0.9179848488
 40
1.0
 40
1.0
 40
1.0
 40
1.0
 10
6.0222121378
 20
6.954147533
 30
0.0
 10
6.0213471638
 20
6.9545268464
 30
0.0
 10
6.019588051
 20
6.9552177617
 30
0.0
 10
6.016913963
 20
6.9560348643
 30
0.0
 10
6.0142845937
 20
6.9565889741
 30
0.0
 10
6.0118067895
 20
6.9568269896
 30
0.0
 10
6.009575597
 20
6.9566841455
 30
0.0
 10
6.0076721344
 20
6.956186018
 30
0.0
 10
6.0061499539
 20
6.9553654428
 30
0.0
 10
6.0054030443
 20
6.954572928
 30
0.0
 10
6.0051431846
 20
6.9541474459
 30
0.0
  0
SPLINE
  5
3D7
100
AcDbEntity
  8
0
100
AcDbSpline
 62
9
  6
CONTINUOUS
 70
0
 71
3
 72
11
 73
7
 74
0
 42
0.0000001
 43
0.0000001
 44
0.0000000001
 40
0.0
 40
0.0
 40
0.0
 40
0.0
 40
0.2443101763
 40
0.4923389653
 40
0.7442359224
 40
1.0
 40
1.0
 40
1.0
 40
1.0
 10
6.0222616352
 20
6.9542298687
 30
0.0
 10
6.0595618463
 20
7.016277713
 30
0.0
 10
6.1320731722
 20
7.1429389883
 30
0.0
 10
6.233002005
 20
7.33911348
 30
0.0
 10
6.3259792323
 20
7.5429237172
 30
0.0
 10
6.3816428805
 20
7.6827620833
 30
0.0
 10
6.4078810799
 20
7.7538659789
 30
0.0
  0
SPLINE
  5
3D8
100
AcDbEntity
  8
0
100
AcDbSpline
 62
9
  6
CONTINUOUS
 70
0
 71
3
 72
16
 73
12
 74
0
 42
0.0000001
 43
0.0000001
 44
0.0000000001
 40
0.0
 40
0.0
 40
0.0
 40
0.0
 40
0.1214760955
 40
0.2441999347
 40
0.3680757542
 40
0.4929721842
 40
0.5557675562
 40
0.6187726265
 40
0.7453258256
 40
0.872462321
 40
1.0
 40
1.0
 40
1.0
 40
1.0
 10
6.4078810799
 20
7.7538659789
 30
0.0
 10
6.4270743725
 20
7.8058786134
 30
0.0
 10
6.4637260972
 20
7.9111634211
 30
0.0
 10
6.5129022838
 20
8.0718329474
 30
0.0
 10
6.5562983518
 20
8.235776192
 30
0.0
 10
6.5873783384
 20
8.374575004
 30
0.0
 10
6.609117036
 20
8.4869138342
 30
0.0
 10
6.628774938
 20
8.6004028975
 30
0.0
 10
6.6492670461
 20
8.7435205871
 30
0.0
 10
6.6673031202
 20
8.916612379
 30
0.0
 10
6.6749446589
 20
9.0326259726
 30
0.0
 10
6.677669433
 20
9.0907695602
 30
0.0
  0
LINE
  5
3D9
100
AcDbEntity
  8
0
100
AcDbLine
 62
9
  6
CONTINUOUS
 10
6.3377803818
 20
9.9373121854
 11
6.3383053983
 21
9.9449696072
  0
LINE
  5
3DA
100
AcDbEntity
  8
0
100
AcDbLine
 62
9
  6
CONTINUOUS
 10
6.3383053983
 20
9.9449696072
 11
6.3391923428
 21
9.9572695029
  0
SPLINE
  5
3DB
100
AcDbEntity
  8
0
100
AcDbSpline
 62
9
  6
CONTINUOUS
 70
0
 71
3
 72
16
 73
12
 74
0
 42
0.0000001
 43
0.0000001
 44
0.0000000001
 40
0.0
 40
0.0
 40
0.0
 40
0.0
 40
0.1275382617
 40
0.2546699117
 40
0.3812162831
 40
0.4442182728
 40
0.5070112614
 40
0.631905422
 40
0.7557828286
 40
0.8785127469
 40
1.0
 40
1.0
 40
1.0
 40
1.0
 10
7.1977147329
 20
9.0907695167
 30
0.0
 10
7.2004398491
 20
9.0326097072
 30
0.0
 10
7.2080830064
 20
8.9165662145
 30
0.0
 10
7.2261254065
 20
8.7434321834
 30
0.0
 10
7.2466259637
 20
8.6002824478
 30
0.0
 10
7.2662924771
 20
8.4867685282
 30
0.0
 10
7.2880411841
 20
8.3744032837
 30
0.0
 10
7.3191362999
 20
8.2355693235
 30
0.0
 10
7.3625546044
 20
8.0715813116
 30
0.0
 10
7.4117576652
 20
7.9108628454
 30
0.0
 10
7.4484297149
 20
7.8055444121
 30
0.0
 10
7.4676340723
 20
7.753514234
 30
0.0
  0
SPLINE
  5
3DC
100
AcDbEntity
  8
0
100
AcDbSpline
 62
9
  6
CONTINUOUS
 70
0
 71
3
 72
11
 73
7
 74
0
 42
0.0000001
 43
0.0000001
 44
0.0000000001
 40
0.0
 40
0.0
 40
0.0
 40
0.0
 40
0.2557512362
 40
0.507653471
 40
0.7556946573
 40
1.0
 40
1.0
 40
1.0
 40
1.0
 10
7.4676340723
 20
7.753514234
 30
0.0
 10
7.4938653943
 20
7.6824459692
 30
0.0
 10
7.5495133718
 20
7.5426722624
 30
0.0
 10
7.6424613734
 20
7.3389511377
 30
0.0
 10
7.7433553224
 20
7.1428592622
 30
0.0
 10
7.8158382439
 20
7.0162502054
 30
0.0
 10
7.8531223209
 20
6.9542300025
 30
0.0
  0
SPLINE
  5
3DD
100
AcDbEntity
  8
0
100
AcDbSpline
 62
9
  6
CONTINUOUS
 70
0
 71
3
 72
15
 73
11
 74
0
 42
0.0000001
 43
0.0000001
 44
0.0000000001
 40
0.0
 40
0.0
 40
0.0
 40
0.0
 40
0.0820158564
 40
0.1746167605
 40
0.2812391709
 40
0.4032594964
 40
0.5405285639
 40
0.6894595283
 40
0.8446295203
 40
1.0
 40
1.0
 40
1.0
 40
1.0
 10
7.8702402674
 20
6.9541473414
 30
0.0
 10
7.8699803872
 20
6.9545727841
 30
0.0
 10
7.8692334548
 20
6.9553652108
 30
0.0
 10
7.8677112991
 20
6.9561856735
 30
0.0
 10
7.8658079031
 20
6.9566837155
 30
0.0
 10
7.8635768175
 20
6.9568265072
 30
0.0
 10
7.8610991535
 20
6.9565884782
 30
0.0
 10
7.8584699478
 20
6.9560343858
 30
0.0
 10
7.8557960339
 20
6.9552173269
 30
0.0
 10
7.8540370366
 20
6.9545264554
 30
0.0
 10
7.853172119
 20
6.9541471675
 30
0.0
  0
SPLINE
  5
3DE
100
AcDbEntity
  8
0
100
AcDbSpline
 62
9
  6
CONTINUOUS
 70
0
 71
3
 72
15
 73
11
 74
0
 42
0.0000001
 43
0.0000001
 44
0.0000000001
 40
0.0
 40
0.0
 40
0.0
 40
0.0
 40
0.1292409191
 40
0.2624539928
 40
0.3958221303
 40
0.5262447756
 40
0.652337681
 40
0.774001876
 40
0.8903433653
 40
1.0
 40
1.0
 40
1.0
 40
1.0
 10
7.4626673658
 20
9.4022024952
 30
0.0
 10
7.46273155
 20
9.4011075291
 30
0.0
 10
7.4626822055
 20
9.3988707394
 30
0.0
 10
7.4621262762
 20
9.3955467307
 30
0.0
 10
7.4610846075
 20
9.392328624
 30
0.0
 10
7.4595490049
 20
9.3893753819
 30
0.0
 10
7.4575106146
 20
9.38686806
 30
0.0
 10
7.4551272522
 20
9.3848730839
 30
0.0
 10
7.4525407808
 20
9.3834202046
 30
0.0
 10
7.450703981
 20
9.3828143448
 30
0.0
 10
7.4497929684
 20
9.3826242352
 30
0.0
  0
SPLINE
  5
3DF
100
AcDbEntity
  8
0
100
AcDbSpline
 62
9
  6
CONTINUOUS
 70
0
 71
3
 72
14
 73
10
 74
0
 42
0.0000001
 43
0.0000001
 44
0.0000000001
 40
0.0
 40
0.0
 40
0.0
 40
0.0
 40
0.2596764991
 40
0.3932182864
 40
0.5250951636
 40
0.6528821141
 40
0.7751070801
 40
0.8907502755
 40
1.0
 40
1.0
 40
1.0
 40
1.0
 10
7.4713864577
 20
9.403935053
 30
0.0
 10
7.4715047993
 20
9.4017048406
 30
0.0
 10
7.4712008368
 20
9.3982692275
 30
0.0
 10
7.4697413208
 20
9.3939791892
 30
0.0
 10
7.4681227009
 20
9.3909876551
 30
0.0
 10
7.4660257934
 20
9.3884338917
 30
0.0
 10
7.4635887072
 20
9.3864128993
 30
0.0
 10
7.4609312429
 20
9.3850091346
 30
0.0
 10
7.4590622979
 20
9.3844570996
 30
0.0
 10
7.4581390247
 20
9.3842826841
 30
0.0
  0
SPLINE
  5
3E0
100
AcDbEntity
  8
0
100
AcDbSpline
 62
9
  6
CONTINUOUS
 70
0
 71
3
 72
9
 73
5
 74
0
 42
0.0000001
 43
0.0000001
 44
0.0000000001
 40
0.0
 40
0.0
 40
0.0
 40
0.0
 40
0.2515064415
 40
1.0
 40
1.0
 40
1.0
 40
1.0
 10
4.0313732567
 20
9.4568903788
 30
0.0
 10
4.0309592712
 20
9.4585527821
 30
0.0
 10
4.0295202439
 20
9.4652108131
 30
0.0
 10
4.0289482922
 20
9.4720688085
 30
0.0
 10
4.0291135032
 20
9.4771646109
 30
0.0
  0
SPLINE
  5
3E1
100
AcDbEntity
  8
0
100
AcDbSpline
 62
9
  6
CONTINUOUS
 70
0
 71
3
 72
9
 73
5
 74
0
 42
0.0000001
 43
0.0000001
 44
0.0000000001
 40
0.0
 40
0.0
 40
0.0
 40
0.0
 40
0.2485921605
 40
1.0
 40
1.0
 40
1.0
 40
1.0
 10
4.0508063229
 20
10.1474640704
 30
0.0
 10
4.0508543045
 20
10.1489102934
 30
0.0
 10
4.0512482481
 20
10.1547207457
 30
0.0
 10
4.0523944239
 20
10.1604704795
 30
0.0
 10
4.0535888597
 20
10.164678063
 30
0.0
  0
SPLINE
  5
3E2
100
AcDbEntity
  8
0
100
AcDbSpline
 62
9
  6
CONTINUOUS
 70
0
 71
3
 72
11
 73
7
 74
0
 42
0.0000001
 43
0.0000001
 44
0.0000000001
 40
0.0
 40
0.0
 40
0.0
 40
0.0
 40
0.2504154751
 40
0.500363056
 40
0.7501414571
 40
1.0
 40
1.0
 40
1.0
 40
1.0
 10
4.0535891325
 20
10.1646796584
 30
0.0
 10
4.2424941246
 20
10.1321348
 30
0.0
 10
4.6217813868
 20
10.0775209772
 30
0.0
 10
5.1930734043
 20
10.0187922178
 30
0.0
 10
5.7651914061
 20
9.9745578535
 30
0.0
 10
6.1468553669
 20
9.9498594723
 30
0.0
 10
6.3377053969
 20
9.9373187081
 30
0.0
  0
SPLINE
  5
3E3
100
AcDbEntity
  8
0
100
AcDbSpline
 62
9
  6
CONTINUOUS
 70
0
 71
3
 72
15
 73
11
 74
0
 42
0.0000001
 43
0.0000001
 44
0.0000000001
 40
0.0
 40
0.0
 40
0.0
 40
0.0
 40
0.1252891117
 40
0.2505537882
 40
0.3757407594
 40
0.500859641
 40
0.6258782023
 40
0.750773135
 40
0.8755101697
 40
1.0
 40
1.0
 40
1.0
 40
1.0
 10
6.339192503
 20
9.464397581
 30
0.0
 10
6.243330272
 20
9.4751128732
 30
0.0
 10
6.0509411789
 20
9.490689584
 30
0.0
 10
5.7617252527
 20
9.4998416835
 30
0.0
 10
5.4725326941
 20
9.4981844716
 30
0.0
 10
5.1836935361
 20
9.4893394812
 30
0.0
 10
4.8952248511
 20
9.4769343926
 30
0.0
 10
4.6070444976
 20
9.4646353381
 30
0.0
 10
4.3191237367
 20
9.4561089441
 30
0.0
 10
4.1272053725
 20
9.4553886993
 30
0.0
 10
4.0313732559
 20
9.4568901558
 30
0.0
  0
SPLINE
  5
3E4
100
AcDbEntity
  8
0
100
AcDbSpline
 62
9
  6
CONTINUOUS
 70
0
 71
3
 72
9
 73
5
 74
0
 42
0.0000001
 43
0.0000001
 44
0.0000000001
 40
0.0
 40
0.0
 40
0.0
 40
0.0
 40
0.4987261172
 40
1.0
 40
1.0
 40
1.0
 40
1.0
 10
4.0106085677
 20
9.4521989719
 30
0.0
 10
4.0097839546
 20
9.4564010623
 30
0.0
 10
4.0087745797
 20
9.4649665526
 30
0.0
 10
4.009141303
 20
9.4735897457
 30
0.0
 10
4.0096892065
 20
9.4778588425
 30
0.0
  0
SPLINE
  5
3E5
100
AcDbEntity
  8
0
100
AcDbSpline
 62
7
  6
CONTINUOUS
 70
0
 71
3
 72
16
 73
12
 74
0
 42
0.0000001
 43
0.0000001
 44
0.0000000001
 40
0.0
 40
0.0
 40
0.0
 40
0.0
 40
0.178601697
 40
0.3493356049
 40
0.5069617004
 40
0.6471980603
 40
0.7673033923
 40
0.8653099388
 40
0.9061044476
 40
0.941788569
 40
1.0
 40
1.0
 40
1.0
 40
1.0
 10
8.0707392431
 20
6.6215753299
 30
0.0
 10
8.0717123315
 20
6.6218114124
 30
0.0
 10
8.0736260143
 20
6.622231728
 30
0.0
 10
8.0764285267
 20
6.6227119809
 30
0.0
 10
8.0790397908
 20
6.6230145351
 30
0.0
 10
8.0813829385
 20
6.6231243982
 30
0.0
 10
8.0833932198
 20
6.6230444158
 30
0.0
 10
8.0848320929
 20
6.6228076418
 30
0.0
 10
8.0857643975
 20
6.6225013325
 30
0.0
 10
8.0864463406
 20
6.6221794265
 30
0.0
 10
8.086876349
 20
6.6218413828
 30
0.0
 10
8.0870653196
 20
6.6215753007
 30
0.0
  0
SPLINE
  5
3E6
100
AcDbEntity
  8
0
100
AcDbSpline
 62
9
  6
CONTINUOUS
 70
0
 71
3
 72
14
 73
10
 74
0
 42
0.0000001
 43
0.0000001
 44
0.0000000001
 40
0.0
 40
0.0
 40
0.0
 40
0.0
 40
0.052119566
 40
0.1228865727
 40
0.2146332293
 40
0.3289136668
 40
0.4661025586
 40
0.6253385838
 40
1.0
 40
1.0
 40
1.0
 40
1.0
 10
3.8966375881
 20
9.9462683346
 30
0.0
 10
3.8964904522
 20
9.9460213181
 30
0.0
 10
3.8962244096
 20
9.9453922838
 30
0.0
 10
3.895914289
 20
9.9442484038
 30
0.0
 10
3.8956456747
 20
9.9427435504
 30
0.0
 10
3.8954265652
 20
9.9408622663
 30
0.0
 10
3.8952631072
 20
9.9386019184
 30
0.0
 10
3.8951197214
 20
9.9349022021
 30
0.0
 10
3.8951227141
 20
9.9319557314
 30
0.0
 10
3.8951546144
 20
9.9298891608
 30
0.0
  0
LINE
  5
3E7
100
AcDbEntity
  8
0
100
AcDbLine
 62
9
  6
CONTINUOUS
 10
5.9924979576
 20
6.9018904049
 11
5.9905986415
 21
6.9019715969
  0
SPLINE
  5
3E8
100
AcDbEntity
  8
0
100
AcDbSpline
 62
9
  6
CONTINUOUS
 70
0
 71
3
 72
18
 73
14
 74
0
 42
0.0000001
 43
0.0000001
 44
0.0000000001
 40
0.0
 40
0.0
 40
0.0
 40
0.0
 40
0.2049431345
 40
0.3871318141
 40
0.5452258619
 40
0.678201517
 40
0.7857490363
 40
0.8304339662
 40
0.8696556441
 40
0.9043584095
 40
0.9360980959
 40
0.9671099087
 40
1.0
 40
1.0
 40
1.0
 40
1.0
 10
7.4713864557
 20
9.4039350906
 30
0.0
 10
7.4724289999
 20
9.403736228
 30
0.0
 10
7.4743915043
 20
9.403322434
 30
0.0
 10
7.4771232878
 20
9.4026034528
 30
0.0
 10
7.4794517151
 20
9.4018303247
 30
0.0
 10
7.4813495081
 20
9.4010120093
 30
0.0
 10
7.4826281664
 20
9.4002553695
 30
0.0
 10
7.4833847407
 20
9.3996104813
 30
0.0
 10
7.4837902176
 20
9.3991452142
 30
0.0
 10
7.4840648514
 20
9.3986666735
 30
0.0
 10
7.4841990211
 20
9.3981731224
 30
0.0
 10
7.4841805889
 20
9.3976706186
 30
0.0
 10
7.4840697025
 20
9.3973535794
 30
0.0
 10
7.4839949544
 20
9.3972005289
 30
0.0
  0
SPLINE
  5
3E9
100
AcDbEntity
  8
0
100
AcDbSpline
 62
9
  6
CONTINUOUS
 70
0
 71
3
 72
19
 73
15
 74
0
 42
0.0000001
 43
0.0000001
 44
0.0000000001
 40
0.0
 40
0.0
 40
0.0
 40
0.0
 40
0.180869411
 40
0.3652657394
 40
0.5427234637
 40
0.7013814079
 40
0.8303083057
 40
0.8817091391
 40
0.9236425711
 40
0.9557568145
 40
0.9785088714
 40
0.9866203552
 40
0.9927317296
 40
1.0
 40
1.0
 40
1.0
 40
1.0
 10
6.0123806501
 20
6.9019034903
 30
0.0
 10
6.011178406
 20
6.9018260402
 30
0.0
 10
6.0087495325
 20
6.9016839069
 30
0.0
 10
6.0051383336
 20
6.901516462
 30
0.0
 10
6.0016728711
 20
6.9014071539
 30
0.0
 10
5.9985754447
 20
6.9013634131
 30
0.0
 10
5.9963172261
 20
6.9013883382
 30
0.0
 10
5.9948379477
 20
6.9014523143
 30
0.0
 10
5.9940044958
 20
6.9015113892
 30
0.0
 10
5.9933631997
 20
6.9015860655
 30
0.0
 10
5.9929512375
 20
6.9016610797
 30
0.0
 10
5.9927134032
 20
6.9017351392
 30
0.0
 10
5.9925865256
 20
6.9017901798
 30
0.0
 10
5.992503243
 20
6.9018553705
 30
0.0
 10
5.9924973372
 20
6.9019034214
 30
0.0
  0
SPLINE
  5
3EA
100
AcDbEntity
  8
0
100
AcDbSpline
 62
9
  6
CONTINUOUS
 70
0
 71
3
 72
11
 73
7
 74
0
 42
0.0000001
 43
0.0000001
 44
0.0000000001
 40
0.0
 40
0.0
 40
0.0
 40
0.0
 40
0.2606831003
 40
0.5179443582
 40
0.7655740415
 40
1.0
 40
1.0
 40
1.0
 40
1.0
 10
6.0123814211
 20
6.9018907142
 30
0.0
 10
6.0121448092
 20
6.9065471278
 30
0.0
 10
6.0122489546
 20
6.9158361913
 30
0.0
 10
6.0140043853
 20
6.9294478552
 30
0.0
 10
6.0172972735
 20
6.9422871406
 30
0.0
 10
6.0204389514
 20
6.9503433076
 30
0.0
 10
6.0222104124
 20
6.9541435066
 30
0.0
  0
SPLINE
  5
3EB
100
AcDbEntity
  8
0
100
AcDbSpline
 62
9
  6
CONTINUOUS
 70
0
 71
3
 72
11
 73
7
 74
0
 42
0.0000001
 43
0.0000001
 44
0.0000000001
 40
0.0
 40
0.0
 40
0.0
 40
0.0
 40
0.2354701529
 40
0.4833323566
 40
0.739950191
 40
1.0
 40
1.0
 40
1.0
 40
1.0
 10
7.8531735373
 20
6.9541435688
 30
0.0
 10
7.8549637864
 20
6.9503314194
 30
0.0
 10
7.8581073075
 20
6.9422489408
 30
0.0
 10
7.861380156
 20
6.9293942292
 30
0.0
 10
7.863151374
 20
6.915802959
 30
0.0
 10
7.8632398539
 20
6.9065359368
 30
0.0
 10
7.8630037656
 20
6.9018907157
 30
0.0
  0
LINE
  5
3EC
100
AcDbEntity
  8
0
100
AcDbLine
 62
9
  6
CONTINUOUS
 10
7.8630037656
 20
6.9018907157
 11
6.0123803105
 21
6.9018906583
  0
SPLINE
  5
3ED
100
AcDbEntity
  8
0
100
AcDbSpline
 62
9
  6
CONTINUOUS
 70
0
 71
3
 72
19
 73
15
 74
0
 42
0.0000001
 43
0.0000001
 44
0.0000000001
 40
0.0
 40
0.0
 40
0.0
 40
0.0
 40
0.0072498668
 40
0.0133422683
 40
0.0214288108
 40
0.0441156397
 40
0.0761485238
 40
0.1179903733
 40
0.1692984157
 40
0.298075371
 40
0.4566857684
 40
0.6342235621
 40
0.8188308262
 40
1.0
 40
1.0
 40
1.0
 40
1.0
 10
7.8828864676
 20
6.9019035907
 30
0.0
 10
7.882880602
 20
6.9018556587
 30
0.0
 10
7.8827976882
 20
6.9017905273
 30
0.0
 10
7.8826712054
 20
6.9017355351
 30
0.0
 10
7.8824341349
 20
6.901661532
 30
0.0
 10
7.8820233192
 20
6.901586544
 30
0.0
 10
7.8813836343
 20
6.9015118499
 30
0.0
 10
7.8805519671
 20
6.9014527003
 30
0.0
 10
7.8790749398
 20
6.9013885408
 30
0.0
 10
7.876818676
 20
6.9013633614
 30
0.0
 10
7.8737220561
 20
6.9014068274
 30
0.0
 10
7.870254997
 20
6.9015159773
 30
0.0
 10
7.8666398941
 20
6.9016834793
 30
0.0
 10
7.8642076441
 20
6.9018257684
 30
0.0
 10
7.8630034179
 20
6.9019033399
 30
0.0
  0
SPLINE
  5
3EE
100
AcDbEntity
  8
0
100
AcDbSpline
 62
9
  6
CONTINUOUS
 70
0
 71
3
 72
16
 73
12
 74
0
 42
0.0000001
 43
0.0000001
 44
0.0000000001
 40
0.0
 40
0.0
 40
0.0
 40
0.0
 40
0.1246054333
 40
0.1870356121
 40
0.2495419913
 40
0.3748281539
 40
0.5003112801
 40
0.625737135
 40
0.7508806583
 40
0.8755669751
 40
1.0
 40
1.0
 40
1.0
 40
1.0
 10
7.4457074112
 20
9.4022025082
 30
0.0
 10
7.4291544806
 20
9.3987483216
 30
0.0
 10
7.4045504769
 20
9.3921766283
 30
0.0
 10
7.3728700998
 20
9.3801411309
 30
0.0
 10
7.3420985475
 20
9.3657195525
 30
0.0
 10
7.3059147267
 20
9.3429559064
 30
0.0
 10
7.2682615721
 20
9.3080214153
 30
0.0
 10
7.2379813087
 20
9.2665689766
 30
0.0
 10
7.2156149852
 20
9.2205578866
 30
0.0
 10
7.2005443367
 20
9.1718919408
 30
0.0
 10
7.1946386727
 20
9.1385231081
 30
0.0
 10
7.1925275005
 20
9.1217695064
 30
0.0
  0
SPLINE
  5
3EF
100
AcDbEntity
  8
0
100
AcDbSpline
 62
9
  6
CONTINUOUS
 70
0
 71
3
 72
14
 73
10
 74
0
 42
0.0000001
 43
0.0000001
 44
0.0000000001
 40
0.0
 40
0.0
 40
0.0
 40
0.0
 40
0.3746312991
 40
0.5339738302
 40
0.6712708796
 40
0.785609721
 40
0.8773494582
 40
0.9480308339
 40
1.0
 40
1.0
 40
1.0
 40
1.0
 10
3.8874732726
 20
9.7040256855
 30
0.0
 10
3.8872972994
 20
9.7019448542
 30
0.0
 10
3.8870890389
 20
9.698974449
 30
0.0
 10
3.8869753676
 20
9.6952339444
 30
0.0
 10
3.8869822121
 20
9.6929424875
 30
0.0
 10
3.887071551
 20
9.6910298843
 30
0.0
 10
3.8872369652
 20
9.6894943294
 30
0.0
 10
3.88746932
 20
9.6883209168
 30
0.0
 10
3.8876932844
 20
9.6876694952
 30
0.0
 10
3.8878242588
 20
9.6874111096
 30
0.0
  0
LINE
  5
3F0
100
AcDbEntity
  8
0
100
AcDbLine
 62
9
  6
CONTINUOUS
 10
4.0106085557
 20
9.4521990064
 11
4.0183020077
 21
9.4537633156
  0
LINE
  5
3F1
100
AcDbEntity
  8
0
100
AcDbLine
 62
9
  6
CONTINUOUS
 10
4.0183020077
 20
9.4537633156
 11
4.0313732523
 21
9.4568904089
  0
SPLINE
  5
3F2
100
AcDbEntity
  8
0
100
AcDbSpline
 62
7
  6
CONTINUOUS
 70
0
 71
3
 72
10
 73
6
 74
0
 42
0.0000001
 43
0.0000001
 44
0.0000000001
 40
0.0
 40
0.0
 40
0.0
 40
0.0
 40
0.4103491813
 40
0.680494839
 40
1.0
 40
1.0
 40
1.0
 40
1.0
 10
5.788319349
 20
6.6215755518
 30
0.0
 10
5.7885847567
 20
6.6219504786
 30
0.0
 10
5.7892674994
 20
6.62238376
 30
0.0
 10
5.7903226061
 20
6.6227394936
 30
0.0
 10
5.7909735118
 20
6.6228697906
 30
0.0
 10
5.7913270968
 20
6.622923664
 30
0.0
  0
SPLINE
  5
3F3
100
AcDbEntity
  8
0
100
AcDbSpline
 62
7
  6
CONTINUOUS
 70
0
 71
3
 72
12
 73
8
 74
0
 42
0.0000001
 43
0.0000001
 44
0.0000000001
 40
0.0
 40
0.0
 40
0.0
 40
0.0
 40
0.0911109976
 40
0.1941110506
 40
0.4322274738
 40
0.7055269512
 40
1.0
 40
1.0
 40
1.0
 40
1.0
 10
5.7913270968
 20
6.622923664
 30
0.0
 10
5.7917310057
 20
6.6229852049
 30
0.0
 10
5.7925984773
 20
6.6230715552
 30
0.0
 10
5.7945371899
 20
6.6231216712
 30
0.0
 10
5.7972921184
 20
6.6229442822
 30
0.0
 10
5.800869585
 20
6.6224157112
 30
0.0
 10
5.803361787
 20
6.6218859616
 30
0.0
 10
5.8046452964
 20
6.62157556
 30
0.0
  0
SPLINE
  5
3F4
100
AcDbEntity
  8
0
100
AcDbSpline
 62
9
  6
CONTINUOUS
 70
0
 71
3
 72
15
 73
11
 74
0
 42
0.0000001
 43
0.0000001
 44
0.0000000001
 40
0.0
 40
0.0
 40
0.0
 40
0.0
 40
0.0844724151
 40
0.1665447424
 40
0.2572186818
 40
0.3639015162
 40
0.4904687176
 40
0.6384998383
 40
0.8084037017
 40
1.0
 40
1.0
 40
1.0
 40
1.0
 10
7.4686590619
 20
9.8850159256
 30
0.0
 10
7.4687997265
 20
9.8847757828
 30
0.0
 10
7.4690022497
 20
9.8842481511
 30
0.0
 10
7.4689568584
 20
9.8833800039
 30
0.0
 10
7.4685816755
 20
9.8825235829
 30
0.0
 10
7.4679211273
 20
9.8816765916
 30
0.0
 10
7.4669916835
 20
9.8808256993
 30
0.0
 10
7.465802852
 20
9.8799666082
 30
0.0
 10
7.4643628946
 20
9.8791008495
 30
0.0
 10
7.4633040441
 20
9.8785539148
 30
0.0
 10
7.4627363739
 20
9.878277836
 30
0.0
  0
SPLINE
  5
3F5
100
AcDbEntity
  8
0
100
AcDbSpline
 62
9
  6
CONTINUOUS
 70
0
 71
3
 72
14
 73
10
 74
0
 42
0.0000001
 43
0.0000001
 44
0.0000000001
 40
0.0
 40
0.0
 40
0.0
 40
0.0
 40
0.1245277902
 40
0.2536888897
 40
0.3842965425
 40
0.5138187575
 40
0.7648043673
 40
0.8854199937
 40
1.0
 40
1.0
 40
1.0
 40
1.0
 10
7.4627362816
 20
9.8782778136
 30
0.0
 10
7.4625891741
 20
9.8793528399
 30
0.0
 10
7.4621006737
 20
9.88152004
 30
0.0
 10
7.46087519
 20
9.8846487667
 30
0.0
 10
7.4591619886
 20
9.8875939092
 30
0.0
 10
7.4562932411
 20
9.8910284372
 30
0.0
 10
7.4525412599
 20
9.8934901966
 30
0.0
 10
7.4485076244
 20
9.8948255155
 30
0.0
 10
7.4464639467
 20
9.8951197589
 30
0.0
 10
7.4454663833
 20
9.8951598061
 30
0.0
  0
LINE
  5
3F6
100
AcDbEntity
  8
0
100
AcDbLine
 62
9
  6
CONTINUOUS
 10
6.3391923427
 20
9.4643960636
 11
6.3369441611
 21
9.4445228218
  0
LINE
  5
3F7
100
AcDbEntity
  8
0
100
AcDbLine
 62
9
  6
CONTINUOUS
 10
7.8847820082
 20
6.9019716428
 11
7.882885619
 21
6.9018906027
  0
SPLINE
  5
3F8
100
AcDbEntity
  8
0
100
AcDbSpline
 62
9
  6
CONTINUOUS
 70
0
 71
3
 72
13
 73
9
 74
0
 42
0.0000001
 43
0.0000001
 44
0.0000000001
 40
0.0
 40
0.0
 40
0.0
 40
0.0
 40
0.1250196019
 40
0.2500398357
 40
0.3750574492
 40
0.5000720301
 40
0.750064823
 40
1.0
 40
1.0
 40
1.0
 40
1.0
 10
6.3369576561
 20
9.4445213057
 30
0.0
 10
6.2878160192
 20
9.4500469428
 30
0.0
 10
6.1893567428
 20
9.4595845239
 30
0.0
 10
6.0413332948
 20
9.469718763
 30
0.0
 10
5.8931053814
 20
9.4761113076
 30
0.0
 10
5.6953516182
 20
9.4802637024
 30
0.0
 10
5.4481170977
 20
9.4784764722
 30
0.0
 10
5.2504613103
 20
9.4722334175
 30
0.0
 10
5.1516686753
 20
9.4685442063
 30
0.0
  0
SPLINE
  5
3F9
100
AcDbEntity
  8
0
100
AcDbSpline
 62
9
  6
CONTINUOUS
 70
0
 71
3
 72
9
 73
5
 74
0
 42
0.0000001
 43
0.0000001
 44
0.0000000001
 40
0.0
 40
0.0
 40
0.0
 40
0.0
 40
0.484883606
 40
1.0
 40
1.0
 40
1.0
 40
1.0
 10
5.9840428161
 20
6.8814351793
 30
0.0
 10
5.9824516359
 20
6.880726797
 30
0.0
 10
5.979292423
 20
6.8789794345
 30
0.0
 10
5.976445826
 20
6.8767649464
 30
0.0
 10
5.9750661829
 20
6.8755319259
 30
0.0
  0
SPLINE
  5
3FA
100
AcDbEntity
  8
0
100
AcDbSpline
 62
9
  6
CONTINUOUS
 70
0
 71
3
 72
9
 73
5
 74
0
 42
0.0000001
 43
0.0000001
 44
0.0000000001
 40
0.0
 40
0.0
 40
0.0
 40
0.0
 40
0.4667524446
 40
1.0
 40
1.0
 40
1.0
 40
1.0
 10
5.9750661829
 20
6.8755319259
 30
0.0
 10
5.972301247
 20
6.8730608353
 30
0.0
 10
5.9670961352
 20
6.8669522959
 30
0.0
 10
5.9632925438
 20
6.8599027146
 30
0.0
 10
5.9616847646
 20
6.8559831013
 30
0.0
  0
SPLINE
  5
3FB
100
AcDbEntity
  8
0
100
AcDbSpline
 62
9
  6
CONTINUOUS
 70
0
 71
3
 72
15
 73
11
 74
0
 42
0.0000001
 43
0.0000001
 44
0.0000000001
 40
0.0
 40
0.0
 40
0.0
 40
0.0
 40
0.1605071265
 40
0.3184315331
 40
0.4681122425
 40
0.6044479575
 40
0.7242944483
 40
0.8285038033
 40
0.9192661255
 40
1.0
 40
1.0
 40
1.0
 40
1.0
 10
5.9616847646
 20
6.8559831013
 30
0.0
 10
5.9608052956
 20
6.8563779615
 30
0.0
 10
5.9590267991
 20
6.8570884009
 30
0.0
 10
5.9563348282
 20
6.8579116756
 30
0.0
 10
5.9537190046
 20
6.858450867
 30
0.0
 10
5.9512825687
 20
6.858664277
 30
0.0
 10
5.9491126426
 20
6.8584957236
 30
0.0
 10
5.9472784648
 20
6.8579784971
 30
0.0
 10
5.9458198013
 20
6.8571569761
 30
0.0
 10
5.9450973986
 20
6.8563914097
 30
0.0
 10
5.9448361354
 20
6.855982905
 30
0.0
  0
SPLINE
  5
3FC
100
AcDbEntity
  8
0
100
AcDbSpline
 62
9
  6
CONTINUOUS
 70
0
 71
3
 72
9
 73
5
 74
0
 42
0.0000001
 43
0.0000001
 44
0.0000000001
 40
0.0
 40
0.0
 40
0.0
 40
0.0
 40
0.4956577976
 40
1.0
 40
1.0
 40
1.0
 40
1.0
 10
5.9840428147
 20
6.8814347893
 30
0.0
 10
5.9831273845
 20
6.8816842029
 30
0.0
 10
5.9812108503
 20
6.8819657245
 30
0.0
 10
5.9792806885
 20
6.8817093391
 30
0.0
 10
5.9783551216
 20
6.8814348082
 30
0.0
  0
LINE
  5
3FD
100
AcDbEntity
  8
0
100
AcDbLine
 62
9
  6
CONTINUOUS
 10
6.3415013484
 20
9.4641358743
 11
6.3391941656
 21
9.444269281
  0
SPLINE
  5
3FE
100
AcDbEntity
  8
0
100
AcDbSpline
 62
9
  6
CONTINUOUS
 70
0
 71
3
 72
19
 73
15
 74
0
 42
0.0000001
 43
0.0000001
 44
0.0000000001
 40
0.0
 40
0.0
 40
0.0
 40
0.0
 40
0.1315146092
 40
0.2622561618
 40
0.3918427532
 40
0.5199397475
 40
0.583431157
 40
0.646066419
 40
0.7075217244
 40
0.7678410509
 40
0.8273064936
 40
0.8856916076
 40
0.943011945
 40
1.0
 40
1.0
 40
1.0
 40
1.0
 10
5.9840324301
 20
6.8814333122
 30
0.0
 10
5.9856853423
 20
6.8816806465
 30
0.0
 10
5.988966039
 20
6.8822869736
 30
0.0
 10
5.9937829347
 20
6.8835707384
 30
0.0
 10
5.9984294965
 20
6.8852585965
 30
0.0
 10
6.0021005222
 20
6.8870679556
 30
0.0
 10
6.0048436801
 20
6.8887795101
 30
0.0
 10
6.0067581497
 20
6.8902055527
 30
0.0
 10
6.0084889527
 20
6.8917928336
 30
0.0
 10
6.0099838911
 20
6.8935545782
 30
0.0
 10
6.0111819684
 20
6.8954866067
 30
0.0
 10
6.0120367598
 20
6.8975543226
 30
0.0
 10
6.0124881472
 20
6.8997161034
 30
0.0
 10
6.012473873
 20
6.9011837171
 30
0.0
 10
6.0123808968
 20
6.90190194
 30
0.0
  0
SPLINE
  5
3FF
100
AcDbEntity
  8
0
100
AcDbSpline
 62
9
  6
CONTINUOUS
 70
0
 71
3
 72
18
 73
14
 74
0
 42
0.0000001
 43
0.0000001
 44
0.0000000001
 40
0.0
 40
0.0
 40
0.0
 40
0.0
 40
0.0577786245
 40
0.1156355449
 40
0.1742083427
 40
0.2337145897
 40
0.2940534499
 40
0.3550499524
 40
0.4796499142
 40
0.6076940189
 40
0.7372926333
 40
0.868104955
 40
1.0
 40
1.0
 40
1.0
 40
1.0
 10
7.8630033597
 20
6.9019018443
 30
0.0
 10
7.8629290887
 20
6.9013279633
 30
0.0
 10
7.8628896062
 20
6.9001627386
 30
0.0
 10
7.8631380429
 20
6.8984280992
 30
0.0
 10
7.8636603947
 20
6.8967383195
 30
0.0
 10
7.86442503
 20
6.8951174751
 30
0.0
 10
7.8654023334
 20
6.8935870709
 30
0.0
 10
7.8669679377
 20
6.8916792349
 30
0.0
 10
7.8693285426
 20
6.889578257
 30
0.0
 10
7.8725416179
 20
6.8874812295
 30
0.0
 10
7.8760109785
 20
6.8857070863
 30
0.0
 10
7.8796622343
 20
6.8842438819
 30
0.0
 10
7.8821747581
 20
6.8834544811
 30
0.0
 10
7.8834473529
 20
6.8831003042
 30
0.0
  0
SPLINE
  5
400
100
AcDbEntity
  8
0
100
AcDbSpline
 62
9
  6
CONTINUOUS
 70
0
 71
3
 72
9
 73
5
 74
0
 42
0.0000001
 43
0.0000001
 44
0.0000000001
 40
0.0
 40
0.0
 40
0.0
 40
0.0
 40
0.2491883189
 40
1.0
 40
1.0
 40
1.0
 40
1.0
 10
7.8834473529
 20
6.8831003042
 30
0.0
 10
7.8840942601
 20
6.8829202629
 30
0.0
 10
7.8867025305
 20
6.8822419376
 30
0.0
 10
7.88935375
 20
6.8817323886
 30
0.0
 10
7.891354716
 20
6.8814330636
 30
0.0
  0
SPLINE
  5
401
100
AcDbEntity
  8
0
100
AcDbSpline
 62
9
  6
CONTINUOUS
 70
0
 71
3
 72
11
 73
7
 74
0
 42
0.0000001
 43
0.0000001
 44
0.0000000001
 40
0.0
 40
0.0
 40
0.0
 40
0.0
 40
0.2180570101
 40
0.4385519037
 40
0.693164342
 40
1.0
 40
1.0
 40
1.0
 40
1.0
 10
4.0091661936
 20
9.4480318824
 30
0.0
 10
4.0090104846
 20
9.4483390595
 30
0.0
 10
4.0088135222
 20
9.4490303216
 30
0.0
 10
4.0090138192
 20
9.4501372477
 30
0.0
 10
4.00964393
 20
9.4512178454
 30
0.0
 10
4.0102538337
 20
9.4518688184
 30
0.0
 10
4.0106085677
 20
9.4521989719
 30
0.0
  0
SPLINE
  5
402
100
AcDbEntity
  8
0
100
AcDbSpline
 62
9
  6
CONTINUOUS
 70
0
 71
3
 72
9
 73
5
 74
0
 42
0.0000001
 43
0.0000001
 44
0.0000000001
 40
0.0
 40
0.0
 40
0.0
 40
0.0
 40
0.5037248475
 40
1.0
 40
1.0
 40
1.0
 40
1.0
 10
7.8970303658
 20
6.8814348912
 30
0.0
 10
7.8964337456
 20
6.8816118814
 30
0.0
 10
7.8952111999
 20
6.8818445988
 30
0.0
 10
7.8939686163
 20
6.8818454354
 30
0.0
 10
7.8933576722
 20
6.8817938793
 30
0.0
  0
LINE
  5
403
100
AcDbEntity
  8
0
100
AcDbLine
 62
9
  6
CONTINUOUS
 10
7.8933576722
 20
6.8817938793
 11
7.8913429368
 21
6.8814349764
  0
SPLINE
  5
404
100
AcDbEntity
  8
0
100
AcDbSpline
 62
9
  6
CONTINUOUS
 70
0
 71
3
 72
14
 73
10
 74
0
 42
0.0000001
 43
0.0000001
 44
0.0000000001
 40
0.0
 40
0.0
 40
0.0
 40
0.0
 40
0.0487580945
 40
0.1185792542
 40
0.2114027439
 40
0.3279674298
 40
0.4675225277
 40
0.628126934
 40
1.0
 40
1.0
 40
1.0
 40
1.0
 10
7.5547620937
 20
9.5420377443
 30
0.0
 10
7.5548802581
 20
9.5422795918
 30
0.0
 10
7.5550718937
 20
9.5429116805
 30
0.0
 10
7.5552639948
 20
9.5440629619
 30
0.0
 10
7.5553963561
 20
9.5456003449
 30
0.0
 10
7.5554622197
 20
9.5475258799
 30
0.0
 10
7.5554580955
 20
9.5498268704
 30
0.0
 10
7.555352461
 20
9.5535356067
 30
0.0
 10
7.5551773377
 20
9.5564707012
 30
0.0
 10
7.5550322879
 20
9.5585185106
 30
0.0
  0
LINE
  5
405
100
AcDbEntity
  8
0
100
AcDbLine
 62
9
  6
CONTINUOUS
 10
7.913698089
 20
6.8559810218
 11
7.9185951877
 21
6.8482486569
  0
SPLINE
  5
406
100
AcDbEntity
  8
0
100
AcDbSpline
 62
9
  6
CONTINUOUS
 70
0
 71
3
 72
16
 73
12
 74
0
 42
0.0000001
 43
0.0000001
 44
0.0000000001
 40
0.0
 40
0.0
 40
0.0
 40
0.0
 40
0.1246100145
 40
0.2496531428
 40
0.3750875544
 40
0.5006746172
 40
0.6260840785
 40
0.7510976164
 40
0.8134342118
 40
0.8756887679
 40
1.0
 40
1.0
 40
1.0
 40
1.0
 10
6.6827058404
 20
9.1217695024
 30
0.0
 10
6.6819041233
 20
9.1440034326
 30
0.0
 10
6.6775761043
 20
9.1885315659
 30
0.0
 10
6.6604830849
 20
9.2536529062
 30
0.0
 10
6.6304147515
 20
9.3143177355
 30
0.0
 10
6.5868909137
 20
9.366389153
 30
0.0
 10
6.5326161817
 20
9.4068200021
 30
0.0
 10
6.4818074465
 20
9.4307171671
 30
0.0
 10
6.439526914
 20
9.4448873602
 30
0.0
 10
6.396486233
 20
9.4560715316
 30
0.0
 10
6.3635396184
 20
9.4615025893
 30
0.0
 10
6.3415013622
 20
9.4641359897
 30
0.0
  0
SPLINE
  5
407
100
AcDbEntity
  8
0
100
AcDbSpline
 62
9
  6
CONTINUOUS
 70
0
 71
3
 72
15
 73
11
 74
0
 42
0.0000001
 43
0.0000001
 44
0.0000000001
 40
0.0
 40
0.0
 40
0.0
 40
0.0
 40
0.0807335596
 40
0.1714966947
 40
0.2757073573
 40
0.3955550154
 40
0.5318912295
 40
0.6815715862
 40
0.839494808
 40
1.0
 40
1.0
 40
1.0
 40
1.0
 10
7.9305492173
 20
6.8559831759
 30
0.0
 10
7.9302879202
 20
6.8563916585
 30
0.0
 10
7.9295654503
 20
6.8571571686
 30
0.0
 10
7.928106719
 20
6.8579785973
 30
0.0
 10
7.9262724913
 20
6.8584957354
 30
0.0
 10
7.9241025355
 20
6.8586642076
 30
0.0
 10
7.9216660908
 20
6.8584507271
 30
0.0
 10
7.9190502777
 20
6.8579114748
 30
0.0
 10
7.9163583346
 20
6.8570881509
 30
0.0
 10
7.9145798621
 20
6.8563776858
 30
0.0
 10
7.9137004072
 20
6.8559828149
 30
0.0
  0
LINE
  5
408
100
AcDbEntity
  8
0
100
AcDbLine
 62
9
  6
CONTINUOUS
 10
5.9840363485
 20
6.8814323244
 11
7.8913484019
 21
6.8814322174
  0
SPLINE
  5
409
100
AcDbEntity
  8
0
100
AcDbSpline
 62
9
  6
CONTINUOUS
 70
0
 71
3
 72
9
 73
5
 74
0
 42
0.0000001
 43
0.0000001
 44
0.0000000001
 40
0.0
 40
0.0
 40
0.0
 40
0.0
 40
0.4841184932
 40
1.0
 40
1.0
 40
1.0
 40
1.0
 10
7.8913489618
 20
6.8814323187
 30
0.0
 10
7.8929284277
 20
6.8807247954
 30
0.0
 10
7.8960722715
 20
6.8789870398
 30
0.0
 10
7.8989102564
 20
6.8767895752
 30
0.0
 10
7.900287961
 20
6.8755635372
 30
0.0
  0
SPLINE
  5
40A
100
AcDbEntity
  8
0
100
AcDbSpline
 62
9
  6
CONTINUOUS
 70
0
 71
3
 72
9
 73
5
 74
0
 42
0.0000001
 43
0.0000001
 44
0.0000000001
 40
0.0
 40
0.0
 40
0.0
 40
0.0
 40
0.4652865294
 40
1.0
 40
1.0
 40
1.0
 40
1.0
 10
7.900287961
 20
6.8755635372
 30
0.0
 10
7.9030558533
 20
6.8731003523
 30
0.0
 10
7.90828689
 20
6.8669816469
 30
0.0
 10
7.9120545892
 20
6.8598980801
 30
0.0
 10
7.9137048814
 20
6.8559728214
 30
0.0
  0
LINE
  5
40B
100
AcDbEntity
  8
0
100
AcDbLine
 62
7
  6
CONTINUOUS
 10
13.9764206459
 20
6.8814533743
 11
13.978347094
 21
6.881432228
  0
SPLINE
  5
40C
100
AcDbEntity
  8
0
100
AcDbSpline
 62
7
  6
CONTINUOUS
 70
0
 71
3
 72
11
 73
7
 74
0
 42
0.0000001
 43
0.0000001
 44
0.0000000001
 40
0.0
 40
0.0
 40
0.0
 40
0.0
 40
0.255804993
 40
0.5077055658
 40
0.7557403043
 40
1.0
 40
1.0
 40
1.0
 40
1.0
 10
15.4838978554
 20
7.7602642583
 30
0.0
 10
15.5098401538
 20
7.689228178
 30
0.0
 10
15.5649411532
 20
7.5495315832
 30
0.0
 10
15.6570618358
 20
7.3458938413
 30
0.0
 10
15.7570800096
 20
7.149848041
 30
0.0
 10
15.8289945778
 20
7.0232551488
 30
0.0
 10
15.8659978618
 20
6.9612447514
 30
0.0
  0
LINE
  5
40D
100
AcDbEntity
  8
0
100
AcDbLine
 62
7
  6
CONTINUOUS
 10
15.8659978618
 20
6.9612447514
 11
15.8702409509
 21
6.9541473202
  0
SPLINE
  5
40E
100
AcDbEntity
  8
0
100
AcDbSpline
 62
7
  6
CONTINUOUS
 70
0
 71
3
 72
12
 73
8
 74
0
 42
0.0000001
 43
0.0000001
 44
0.0000000001
 40
0.0
 40
0.0
 40
0.0
 40
0.0
 40
0.1283850457
 40
0.2558011785
 40
0.5076862355
 40
0.7557122907
 40
1.0
 40
1.0
 40
1.0
 40
1.0
 10
14.3914554349
 20
7.7601787775
 30
0.0
 10
14.3784343237
 20
7.7245282073
 30
0.0
 10
14.351583319
 20
7.653823189
 30
0.0
 10
14.2947754454
 20
7.5148907579
 30
0.0
 10
14.2182988361
 20
7.3458513247
 30
0.0
 10
14.1182785013
 20
7.1498164533
 30
0.0
 10
14.0463680831
 20
7.0232182693
 30
0.0
 10
14.0093614198
 20
6.9612025291
 30
0.0
  0
LINE
  5
40F
100
AcDbEntity
  8
0
100
AcDbLine
 62
7
  6
CONTINUOUS
 10
14.0093614198
 20
6.9612025291
 11
14.0051930549
 21
6.9542299215
  0
SPLINE
  5
410
100
AcDbEntity
  8
0
100
AcDbSpline
 62
7
  6
CONTINUOUS
 70
0
 71
3
 72
9
 73
5
 74
0
 42
0.0000001
 43
0.0000001
 44
0.0000000001
 40
0.0
 40
0.0
 40
0.0
 40
0.0
 40
0.7942238531
 40
1.0
 40
1.0
 40
1.0
 40
1.0
 10
15.2126923411
 20
9.1217695341
 30
0.0
 10
15.2134920295
 20
9.1431311695
 30
0.0
 10
15.2161380605
 20
9.1698863422
 30
0.0
 10
15.2214154456
 20
9.1960424882
 30
0.0
 10
15.2226184528
 20
9.2013916804
 30
0.0
  0
SPLINE
  5
411
100
AcDbEntity
  8
0
100
AcDbSpline
 62
7
  6
CONTINUOUS
 70
0
 71
3
 72
9
 73
5
 74
0
 42
0.0000001
 43
0.0000001
 44
0.0000000001
 40
0.0
 40
0.0
 40
0.0
 40
0.0
 40
0.4850671301
 40
1.0
 40
1.0
 40
1.0
 40
1.0
 10
15.2290392762
 20
9.2258728777
 30
0.0
 10
15.2311176403
 20
9.2327621909
 30
0.0
 10
15.2358523092
 20
9.2468036651
 30
0.0
 10
15.2415693273
 20
9.2604371645
 30
0.0
 10
15.2447768387
 20
9.2673229259
 30
0.0
  0
SPLINE
  5
412
100
AcDbEntity
  8
0
100
AcDbSpline
 62
7
  6
CONTINUOUS
 70
0
 71
3
 72
9
 73
5
 74
0
 42
0.0000001
 43
0.0000001
 44
0.0000000001
 40
0.0
 40
0.0
 40
0.0
 40
0.0
 40
0.9782099695
 40
1.0
 40
1.0
 40
1.0
 40
1.0
 10
15.3223419367
 20
9.3657557139
 30
0.0
 10
15.3325100543
 20
9.3738045412
 30
0.0
 10
15.343491551
 20
9.3813406717
 30
0.0
 10
15.3549350749
 20
9.3881661203
 30
0.0
 10
15.3551846477
 20
9.3883145102
 30
0.0
  0
SPLINE
  5
413
100
AcDbEntity
  8
0
100
AcDbSpline
 62
7
  6
CONTINUOUS
 70
0
 71
3
 72
9
 73
5
 74
0
 42
0.0000001
 43
0.0000001
 44
0.0000000001
 40
0.0
 40
0.0
 40
0.0
 40
0.0
 40
0.6600683911
 40
1.0
 40
1.0
 40
1.0
 40
1.0
 10
15.3797150509
 20
9.4015206342
 30
0.0
 10
15.3900764382
 20
9.4065627629
 30
0.0
 10
15.4061880466
 20
9.4134541826
 30
0.0
 10
15.422735899
 20
9.4193068284
 30
0.0
 10
15.4284057181
 20
9.4211825539
 30
0.0
  0
SPLINE
  5
414
100
AcDbEntity
  8
0
100
AcDbSpline
 62
7
  6
CONTINUOUS
 70
0
 71
3
 72
8
 73
4
 74
0
 42
0.0000001
 43
0.0000001
 44
0.0000000001
 40
0.0
 40
0.0
 40
0.0
 40
0.0
 40
1.0
 40
1.0
 40
1.0
 40
1.0
 10
14.4255917444
 20
9.382624238
 30
0.0
 10
14.4486266251
 20
9.3778173991
 30
0.0
 10
14.4712169719
 20
9.3711579862
 30
0.0
 10
14.4926971907
 20
9.3622231911
 30
0.0
  0
SPLINE
  5
415
100
AcDbEntity
  8
0
100
AcDbSpline
 62
7
  6
CONTINUOUS
 70
0
 71
3
 72
9
 73
5
 74
0
 42
0.0000001
 43
0.0000001
 44
0.0000000001
 40
0.0
 40
0.0
 40
0.0
 40
0.0
 40
0.0681306096
 40
1.0
 40
1.0
 40
1.0
 40
1.0
 10
14.5132709164
 20
9.3527736451
 30
0.0
 10
14.5140618167
 20
9.3523738064
 30
0.0
 10
14.5256419505
 20
9.3464533383
 30
0.0
 10
14.5367964107
 20
9.3397680779
 30
0.0
 10
14.5466952051
 20
9.3328699804
 30
0.0
  0
SPLINE
  5
416
100
AcDbEntity
  8
0
100
AcDbSpline
 62
7
  6
CONTINUOUS
 70
0
 71
3
 72
8
 73
4
 74
0
 42
0.0000001
 43
0.0000001
 44
0.0000000001
 40
0.0
 40
0.0
 40
0.0
 40
0.0
 40
1.0
 40
1.0
 40
1.0
 40
1.0
 10
14.647483535
 20
9.1915957545
 30
0.0
 10
14.6546701744
 20
9.1690080431
 30
0.0
 10
14.6595712006
 20
9.1455325771
 30
0.0
 10
14.6626923598
 20
9.1217695042
 30
0.0
  0
SPLINE
  5
417
100
AcDbEntity
  8
0
100
AcDbSpline
 62
7
  6
CONTINUOUS
 70
0
 71
3
 72
11
 73
7
 74
0
 42
0.0000001
 43
0.0000001
 44
0.0000000001
 40
0.0
 40
0.0
 40
0.0
 40
0.0
 40
0.2498033278
 40
0.4997076936
 40
0.749776632
 40
1.0
 40
1.0
 40
1.0
 40
1.0
 10
16.7236826063
 20
10.0459449796
 30
0.0
 10
16.8152204645
 20
10.0543210984
 30
0.0
 10
16.9982320901
 20
10.0722189369
 30
0.0
 10
17.272365669
 20
10.1034817227
 30
0.0
 10
17.5459875287
 20
10.1401667175
 30
0.0
 10
17.7278526379
 20
10.1688659579
 30
0.0
 10
17.8186052436
 20
10.1844140171
 30
0.0
  0
SPLINE
  5
418
100
AcDbEntity
  8
0
100
AcDbSpline
 62
7
  6
CONTINUOUS
 70
0
 71
3
 72
14
 73
10
 74
0
 42
0.0000001
 43
0.0000001
 44
0.0000000001
 40
0.0
 40
0.0
 40
0.0
 40
0.0
 40
0.25
 40
0.375
 40
0.5
 40
0.625
 40
0.75
 40
0.875
 40
1.0
 40
1.0
 40
1.0
 40
1.0
 10
15.5361839778
 20
9.4442687245
 30
0.0
 10
15.4934540481
 20
9.439159109
 30
0.0
 10
15.4300953502
 20
9.4257564798
 30
0.0
 10
15.3532748348
 20
9.3896342833
 30
0.0
 10
15.3025778642
 20
9.3519158064
 30
0.0
 10
15.262118817
 20
9.3036466241
 30
0.0
 10
15.2339580697
 20
9.2471093167
 30
0.0
 10
15.2176944931
 20
9.185627079
 30
0.0
 10
15.2134919262
 20
9.1431296545
 30
0.0
 10
15.2126923372
 20
9.1217695343
 30
0.0
  0
SPLINE
  5
419
100
AcDbEntity
  8
0
100
AcDbSpline
 62
7
  6
CONTINUOUS
 70
0
 71
3
 72
13
 73
9
 74
0
 42
0.0000001
 43
0.0000001
 44
0.0000000001
 40
0.0
 40
0.0
 40
0.0
 40
0.0
 40
0.25
 40
0.375
 40
0.5
 40
0.625
 40
0.75
 40
1.0
 40
1.0
 40
1.0
 40
1.0
 10
14.6626923567
 20
9.1217695038
 30
0.0
 10
14.6585045153
 20
9.153654041
 30
0.0
 10
14.6474150045
 20
9.2007077017
 30
0.0
 10
14.6193517382
 20
9.2575380032
 30
0.0
 10
14.591245495
 20
9.2955609311
 30
0.0
 10
14.5564778871
 20
9.3275402352
 30
0.0
 10
14.5028602262
 20
9.3610768529
 30
0.0
 10
14.4569965432
 20
9.3760708125
 30
0.0
 10
14.4255917469
 20
9.3826242502
 30
0.0
  0
SPLINE
  5
41A
100
AcDbEntity
  8
0
100
AcDbSpline
 62
7
  6
CONTINUOUS
 70
0
 71
3
 72
11
 73
7
 74
0
 42
0.0000001
 43
0.0000001
 44
0.0000000001
 40
0.0
 40
0.0
 40
0.0
 40
0.0
 40
0.2502274704
 40
0.5003157769
 40
0.7502168637
 40
1.0
 40
1.0
 40
1.0
 40
1.0
 10
15.536192343
 20
9.9572695025
 30
0.0
 10
15.635289008
 20
9.9640099989
 30
0.0
 10
15.8334410773
 20
9.977281275
 30
0.0
 10
16.130522686
 20
9.9978524308
 30
0.0
 10
16.4273031763
 20
10.0201655299
 30
0.0
 10
16.6249458409
 20
10.036910129
 30
0.0
 10
16.7236826063
 20
10.0459449796
 30
0.0
  0
SPLINE
  5
41B
100
AcDbEntity
  8
0
100
AcDbSpline
 62
7
  6
CONTINUOUS
 70
0
 71
3
 72
10
 73
6
 74
0
 42
0.0000001
 43
0.0000001
 44
0.0000000001
 40
0.0
 40
0.0
 40
0.0
 40
0.0
 40
0.5005024403
 40
0.7505992403
 40
1.0
 40
1.0
 40
1.0
 40
1.0
 10
15.5361923532
 20
9.9572695029
 30
0.0
 10
15.734346957
 20
9.9715707391
 30
0.0
 10
16.0316210542
 20
9.9915633819
 30
0.0
 10
16.4274890283
 20
10.0207585052
 30
0.0
 10
16.6250902203
 20
10.0371079249
 30
0.0
 10
16.7236923427
 20
10.0459459641
 30
0.0
  0
SPLINE
  5
41C
100
AcDbEntity
  8
0
100
AcDbSpline
 62
7
  6
CONTINUOUS
 70
0
 71
3
 72
13
 73
9
 74
0
 42
0.0000001
 43
0.0000001
 44
0.0000000001
 40
0.0
 40
0.0
 40
0.0
 40
0.0
 40
0.1205137831
 40
0.2452936991
 40
0.4997836512
 40
0.7543953148
 40
0.8793095396
 40
1.0
 40
1.0
 40
1.0
 40
1.0
 10
17.8422080807
 20
10.1754914106
 30
0.0
 10
17.8417156846
 20
10.176318052
 30
0.0
 10
17.8405774492
 20
10.1779231567
 30
0.0
 10
17.8378209631
 20
10.1808201991
 30
0.0
 10
17.8335623288
 20
10.1837152592
 30
0.0
 10
17.8285973213
 20
10.1850855344
 30
0.0
 10
17.8246012475
 20
10.1853097247
 30
0.0
 10
17.8226385962
 20
10.1851368155
 30
0.0
 10
17.8216885124
 20
10.1849760451
 30
0.0
  0
LINE
  5
41D
100
AcDbEntity
  8
0
100
AcDbLine
 62
7
  6
CONTINUOUS
 10
17.8080829138
 20
10.1825294402
 11
17.8186157089
 21
10.1843616006
  0
SPLINE
  5
41E
100
AcDbEntity
  8
0
100
AcDbSpline
 62
7
  6
CONTINUOUS
 70
0
 71
3
 72
16
 73
12
 74
0
 42
0.0000001
 43
0.0000001
 44
0.0000000001
 40
0.0
 40
0.0
 40
0.0
 40
0.0
 40
0.1275449128
 40
0.2546831531
 40
0.3812320852
 40
0.444232568
 40
0.5070218426
 40
0.6319054748
 40
0.7557747833
 40
0.87850696
 40
1.0
 40
1.0
 40
1.0
 40
1.0
 10
14.6576920016
 20
9.0907695288
 30
0.0
 10
14.654964759
 20
9.0329225508
 30
0.0
 10
14.6473602401
 20
8.917502763
 30
0.0
 10
14.6295015103
 20
8.7452915281
 30
0.0
 10
14.6092556765
 20
8.6028942851
 30
0.0
 10
14.5898524439
 20
8.4899696253
 30
0.0
 10
14.5684040735
 20
8.3781853422
 30
0.0
 10
14.5377516123
 20
8.2400536599
 30
0.0
 10
14.4949674573
 20
8.0768576211
 30
0.0
 10
14.4465007641
 20
7.916867888
 30
0.0
 10
14.4103806397
 20
7.8119941975
 30
0.0
 10
14.3914554349
 20
7.7601787775
 30
0.0
  0
SPLINE
  5
41F
100
AcDbEntity
  8
0
100
AcDbSpline
 62
7
  6
CONTINUOUS
 70
0
 71
3
 72
16
 73
12
 74
0
 42
0.0000001
 43
0.0000001
 44
0.0000000001
 40
0.0
 40
0.0
 40
0.0
 40
0.0
 40
0.127530887
 40
0.2547076215
 40
0.381287644
 40
0.5070949708
 40
0.5696669054
 40
0.6319931037
 40
0.7558462191
 40
0.8785438456
 40
1.0
 40
1.0
 40
1.0
 40
1.0
 10
15.217692619
 20
9.0907695259
 30
0.0
 10
15.2204193751
 20
9.0329327135
 30
0.0
 10
15.2280210626
 20
8.917509671
 30
0.0
 10
15.2458737848
 20
8.7452822186
 30
0.0
 10
15.2701656735
 20
8.5746327962
 30
0.0
 10
15.2957303689
 20
8.4339013463
 30
0.0
 10
15.3193032284
 20
8.3225384845
 30
0.0
 10
15.3448204211
 20
8.2125158004
 30
0.0
 10
15.3804092092
 20
8.0768332939
 30
0.0
 10
15.4288823548
 20
7.9169002183
 30
0.0
 10
15.4649816433
 20
7.8120612711
 30
0.0
 10
15.4838978554
 20
7.7602642583
 30
0.0
  0
LINE
  5
420
100
AcDbEntity
  8
0
100
AcDbLine
 62
7
  6
CONTINUOUS
 10
15.87225855
 20
6.9542590252
 11
15.8718202751
 21
6.9549927136
  0
LINE
  5
421
100
AcDbEntity
  8
0
100
AcDbLine
 62
7
  6
CONTINUOUS
 10
16.0873539489
 20
6.6211695021
 11
16.0870653374
 21
6.6215755579
  0
LINE
  5
422
100
AcDbEntity
  8
0
100
AcDbLine
 62
7
  6
CONTINUOUS
 10
16.0870644812
 20
6.6215767627
 11
16.0817228794
 21
6.6291543292
  0
SPLINE
  5
423
100
AcDbEntity
  8
0
100
AcDbSpline
 62
7
  6
CONTINUOUS
 70
0
 71
3
 72
9
 73
5
 74
0
 42
0.0000001
 43
0.0000001
 44
0.0000000001
 40
0.0
 40
0.0
 40
0.0
 40
0.0
 40
0.2415183984
 40
1.0
 40
1.0
 40
1.0
 40
1.0
 10
15.8847858104
 20
6.9019681759
 30
0.0
 10
15.8847492607
 20
6.9014340987
 30
0.0
 10
15.8846998604
 20
6.8992165274
 30
0.0
 10
15.8850328147
 20
6.896994135
 30
0.0
 10
15.8854724719
 20
6.8953714649
 30
0.0
  0
SPLINE
  5
424
100
AcDbEntity
  8
0
100
AcDbSpline
 62
7
  6
CONTINUOUS
 70
0
 71
3
 72
9
 73
5
 74
0
 42
0.0000001
 43
0.0000001
 44
0.0000000001
 40
0.0
 40
0.0
 40
0.0
 40
0.0
 40
0.2487736586
 40
1.0
 40
1.0
 40
1.0
 40
1.0
 10
15.8854724719
 20
6.8953714649
 30
0.0
 10
15.8856151994
 20
6.8948446913
 30
0.0
 10
15.8862695694
 20
6.8927504772
 30
0.0
 10
15.8872556378
 20
6.8907551569
 30
0.0
 10
15.8881782692
 20
6.889389558
 30
0.0
  0
SPLINE
  5
425
100
AcDbEntity
  8
0
100
AcDbSpline
 62
7
  6
CONTINUOUS
 70
0
 71
3
 72
10
 73
6
 74
0
 42
0.0000001
 43
0.0000001
 44
0.0000000001
 40
0.0
 40
0.0
 40
0.0
 40
0.0
 40
0.2547716241
 40
0.633668284
 40
1.0
 40
1.0
 40
1.0
 40
1.0
 10
15.8881782692
 20
6.889389558
 30
0.0
 10
15.8887442283
 20
6.8885518744
 30
0.0
 10
15.890330625
 20
6.8865853844
 30
0.0
 10
15.8933794584
 20
6.8839994208
 30
0.0
 10
15.896000043
 20
6.8825754927
 30
0.0
 10
15.8973464676
 20
6.8820276047
 30
0.0
  0
LINE
  5
426
100
AcDbEntity
  8
0
100
AcDbLine
 62
7
  6
CONTINUOUS
 10
15.8970253265
 20
6.8814362172
 11
15.8987190845
 21
6.8814547798
  0
LINE
  5
427
100
AcDbEntity
  8
0
100
AcDbLine
 62
7
  6
CONTINUOUS
 10
15.8987190845
 20
6.8814547798
 11
15.8989545299
 21
6.8814574743
  0
LINE
  5
428
100
AcDbEntity
  8
0
100
AcDbLine
 62
7
  6
CONTINUOUS
 10
13.788319341
 20
6.6215753194
 11
13.7880307556
 21
6.6211695017
  0
SPLINE
  5
429
100
AcDbEntity
  8
0
100
AcDbSpline
 62
7
  6
CONTINUOUS
 70
0
 71
3
 72
9
 73
5
 74
0
 42
0.0000001
 43
0.0000001
 44
0.0000000001
 40
0.0
 40
0.0
 40
0.0
 40
0.0
 40
0.5123930319
 40
1.0
 40
1.0
 40
1.0
 40
1.0
 10
13.992497404
 20
6.9019018925
 30
0.0
 10
13.9925916947
 20
6.9004423306
 30
0.0
 10
13.9924340539
 20
6.897566479
 30
0.0
 10
13.991720894
 20
6.8947822658
 30
0.0
 10
13.9912376005
 20
6.8934770133
 30
0.0
  0
SPLINE
  5
42A
100
AcDbEntity
  8
0
100
AcDbSpline
 62
7
  6
CONTINUOUS
 70
0
 71
3
 72
11
 73
7
 74
0
 42
0.0000001
 43
0.0000001
 44
0.0000000001
 40
0.0
 40
0.0
 40
0.0
 40
0.0
 40
0.2868762994
 40
0.5449345918
 40
0.7804157236
 40
1.0
 40
1.0
 40
1.0
 40
1.0
 10
13.9912376005
 20
6.8934770133
 30
0.0
 10
13.9907733018
 20
6.8922230614
 30
0.0
 10
13.9896371058
 20
6.889925776
 30
0.0
 10
13.9873998297
 20
6.8870344609
 30
0.0
 10
13.9849517566
 20
6.884765253
 30
0.0
 10
13.9831740285
 20
6.8835895997
 30
0.0
 10
13.9822797113
 20
6.8830918622
 30
0.0
  0
SPLINE
  5
42B
100
AcDbEntity
  8
0
100
AcDbSpline
 62
9
  6
CONTINUOUS
 70
0
 71
3
 72
14
 73
10
 74
0
 42
0.0000001
 43
0.0000001
 44
0.0000000001
 40
0.0
 40
0.0
 40
0.0
 40
0.0
 40
0.374631299
 40
0.5339738301
 40
0.6712708796
 40
0.7856097209
 40
0.8773494581
 40
0.948030834
 40
1.0
 40
1.0
 40
1.0
 40
1.0
 10
17.9802273159
 20
9.9297161058
 30
0.0
 10
17.9802613534
 20
9.9318040874
 30
0.0
 10
17.9802670986
 20
9.9347817788
 30
0.0
 10
17.9801260951
 20
9.9385213528
 30
0.0
 10
17.9799634124
 20
9.9408070378
 30
0.0
 10
17.9797441941
 20
9.9427091355
 30
0.0
 10
17.9794747217
 20
9.9442298839
 30
0.0
 10
17.979163095
 20
9.9453847755
 30
0.0
 10
17.9788953426
 20
9.9460194556
 30
0.0
 10
17.9787470973
 20
9.9462683346
 30
0.0
  0
LINE
  5
42C
100
AcDbEntity
  8
0
100
AcDbLine
 62
7
  6
CONTINUOUS
 10
15.5361924165
 20
9.9372154501
 11
15.5347535318
 21
9.9571656955
  0
SPLINE
  5
42D
100
AcDbEntity
  8
0
100
AcDbSpline
 62
9
  6
CONTINUOUS
 70
0
 71
3
 72
18
 73
14
 74
0
 42
0.0000001
 43
0.0000001
 44
0.0000000001
 40
0.0
 40
0.0
 40
0.0
 40
0.0
 40
0.0328799577
 40
0.0638921098
 40
0.0956387602
 40
0.1303512999
 40
0.1695832951
 40
0.2142776054
 40
0.3218359115
 40
0.4548090886
 40
0.6128879817
 40
0.79506114
 40
1.0
 40
1.0
 40
1.0
 40
1.0
 10
14.391389731
 20
9.3972005289
 30
0.0
 10
14.3913150023
 20
9.3973535382
 30
0.0
 10
14.3912041517
 20
9.3976705517
 30
0.0
 10
14.3911857343
 20
9.398173055
 30
0.0
 10
14.3913198484
 20
9.3986667258
 30
0.0
 10
14.3915943979
 20
9.399145498
 30
0.0
 10
14.3919997973
 20
9.3996110686
 30
0.0
 10
14.3927562608
 20
9.4002563962
 30
0.0
 10
14.394034838
 20
9.4010135084
 30
0.0
 10
14.3959326522
 20
9.4018319546
 30
0.0
 10
14.3982612196
 20
9.4026044732
 30
0.0
 10
14.400993145
 20
9.4033226395
 30
0.0
 10
14.4029556709
 20
9.4037361902
 30
0.0
 10
14.4039982298
 20
9.4039350906
 30
0.0
  0
SPLINE
  5
42E
100
AcDbEntity
  8
0
100
AcDbSpline
 62
9
  6
CONTINUOUS
 70
0
 71
3
 72
9
 73
5
 74
0
 42
0.0000001
 43
0.0000001
 44
0.0000000001
 40
0.0
 40
0.0
 40
0.0
 40
0.0
 40
0.2488020139
 40
1.0
 40
1.0
 40
1.0
 40
1.0
 10
17.8462711876
 20
9.4771646111
 30
0.0
 10
17.8463261146
 20
9.4754705417
 30
0.0
 10
17.8462839643
 20
9.4686541104
 30
0.0
 10
17.8452480708
 20
9.4618562385
 30
0.0
 10
17.844011434
 20
9.456890377
 30
0.0
  0
SPLINE
  5
42F
100
AcDbEntity
  8
0
100
AcDbSpline
 62
9
  6
CONTINUOUS
 70
0
 71
3
 72
14
 73
10
 74
0
 42
0.0000001
 43
0.0000001
 44
0.0000000001
 40
0.0
 40
0.0
 40
0.0
 40
0.0
 40
0.0521195661
 40
0.1228865728
 40
0.2146332292
 40
0.3289136666
 40
0.4661025586
 40
0.6253385838
 40
1.0
 40
1.0
 40
1.0
 40
1.0
 10
17.9875604266
 20
9.6874111096
 30
0.0
 10
17.987690421
 20
9.6876675616
 30
0.0
 10
17.9879130635
 20
9.6883132342
 30
0.0
 10
17.9881446646
 20
9.6894755581
 30
0.0
 10
17.9883103038
 20
9.6909951966
 30
0.0
 10
17.9884009499
 20
9.692887027
 30
0.0
 10
17.9884102911
 20
9.6951532582
 30
0.0
 10
17.9883017076
 20
9.6988541594
 30
0.0
 10
17.9880983168
 20
9.7017936033
 30
0.0
 10
17.987925932
 20
9.7038532187
 30
0.0
  0
SPLINE
  5
430
100
AcDbEntity
  8
0
100
AcDbSpline
 62
9
  6
CONTINUOUS
 70
0
 71
3
 72
15
 73
11
 74
0
 42
0.0000001
 43
0.0000001
 44
0.0000000001
 40
0.0
 40
0.0
 40
0.0
 40
0.0
 40
0.1244898791
 40
0.2492270088
 40
0.3741220167
 40
0.4991406562
 40
0.6242596271
 40
0.7494465558
 40
0.8747109855
 40
1.0
 40
1.0
 40
1.0
 40
1.0
 10
17.8440114299
 20
9.456890141
 30
0.0
 10
17.7481792744
 20
9.455388643
 30
0.0
 10
17.5562607939
 20
9.4561088854
 30
0.0
 10
17.2683398604
 20
9.4646353426
 30
0.0
 10
16.9801593086
 20
9.4769343805
 30
0.0
 10
16.6916904289
 20
9.4893394363
 30
0.0
 10
16.4028511692
 20
9.4981844404
 30
0.0
 10
16.1136587583
 20
9.4998416807
 30
0.0
 10
15.8244431236
 20
9.4906895394
 30
0.0
 10
15.6320542956
 20
9.4751128126
 30
0.0
 10
15.5361921333
 20
9.4643975598
 30
0.0
  0
SPLINE
  5
431
100
AcDbEntity
  8
0
100
AcDbSpline
 62
9
  6
CONTINUOUS
 70
0
 71
3
 72
14
 73
10
 74
0
 42
0.0000001
 43
0.0000001
 44
0.0000000001
 40
0.0
 40
0.0
 40
0.0
 40
0.0
 40
0.051026902
 40
0.1213183371
 40
0.2132003675
 40
0.3280283188
 40
0.4658706524
 40
0.6255761146
 40
1.0
 40
1.0
 40
1.0
 40
1.0
 10
14.3213357393
 20
9.7392634889
 30
0.0
 10
14.321184049
 20
9.7390045641
 30
0.0
 10
14.3209206744
 20
9.7383343528
 30
0.0
 10
14.3206361955
 20
9.7371120825
 30
0.0
 10
14.3204145042
 20
9.7354961168
 30
0.0
 10
14.3202648408
 20
9.7334746773
 30
0.0
 10
14.3201933119
 20
9.7310499014
 30
0.0
 10
14.3202097621
 20
9.7270976284
 30
0.0
 10
14.3203476247
 20
9.7239581544
 30
0.0
 10
14.32047592
 20
9.7217599271
 30
0.0
  0
SPLINE
  5
432
100
AcDbEntity
  8
0
100
AcDbSpline
 62
9
  6
CONTINUOUS
 70
0
 71
3
 72
14
 73
10
 74
0
 42
0.0000001
 43
0.0000001
 44
0.0000000001
 40
0.0
 40
0.0
 40
0.0
 40
0.0
 40
0.3718130061
 40
0.532444165
 40
0.6720516992
 40
0.7886645415
 40
0.8815056107
 40
0.9513066692
 40
1.0
 40
1.0
 40
1.0
 40
1.0
 10
14.3203583454
 20
9.5586020173
 30
0.0
 10
14.3202120054
 20
9.5565442331
 30
0.0
 10
14.3200350682
 20
9.5535945543
 30
0.0
 10
14.3199271369
 20
9.5498670222
 30
0.0
 10
14.3199219428
 20
9.5475536971
 30
0.0
 10
14.3199872659
 20
9.5456177511
 30
0.0
 10
14.3201194497
 20
9.5440722654
 30
0.0
 10
14.3203118609
 20
9.5429154505
 30
0.0
 10
14.3205039905
 20
9.5422804924
 30
0.0
 10
14.3206225918
 20
9.5420377444
 30
0.0
  0
SPLINE
  5
433
100
AcDbEntity
  8
0
100
AcDbSpline
 62
9
  6
CONTINUOUS
 70
0
 71
3
 72
11
 73
7
 74
0
 42
0.0000001
 43
0.0000001
 44
0.0000000001
 40
0.0
 40
0.0
 40
0.0
 40
0.0
 40
0.2498586575
 40
0.4996366343
 40
0.749583937
 40
1.0
 40
1.0
 40
1.0
 40
1.0
 10
15.5377898749
 20
9.9373259491
 30
0.0
 10
15.72863079
 20
9.9498660107
 30
0.0
 10
16.110276073
 20
9.9745635875
 30
0.0
 10
16.6823659083
 20
10.0187972607
 30
0.0
 10
17.2536301176
 20
10.0775246257
 30
0.0
 10
17.632899244
 20
10.1321362326
 30
0.0
 10
17.8217955589
 20
10.1646796275
 30
0.0
  0
SPLINE
  5
434
100
AcDbEntity
  8
0
100
AcDbSpline
 62
9
  6
CONTINUOUS
 70
0
 71
3
 72
9
 73
5
 74
0
 42
0.0000001
 43
0.0000001
 44
0.0000000001
 40
0.0
 40
0.0
 40
0.0
 40
0.0
 40
0.2516400957
 40
1.0
 40
1.0
 40
1.0
 40
1.0
 10
17.8217958302
 20
10.1646780567
 30
0.0
 10
17.8221957999
 20
10.1632691328
 30
0.0
 10
17.8236343703
 20
10.1576296885
 30
0.0
 10
17.8244339155
 20
10.1518172808
 30
0.0
 10
17.8245783651
 20
10.1474640705
 30
0.0
  0
SPLINE
  5
435
100
AcDbEntity
  8
0
100
AcDbSpline
 62
9
  6
CONTINUOUS
 70
0
 71
3
 72
9
 73
5
 74
0
 42
0.0000001
 43
0.0000001
 44
0.0000000001
 40
0.0
 40
0.0
 40
0.0
 40
0.0
 40
0.5012733808
 40
1.0
 40
1.0
 40
1.0
 40
1.0
 10
17.865695479
 20
9.4778588425
 30
0.0
 10
17.866243487
 20
9.4735897627
 30
0.0
 10
17.8666100898
 20
9.4649665508
 30
0.0
 10
17.8656007576
 20
9.4564010617
 30
0.0
 10
17.8647761177
 20
9.4521989713
 30
0.0
  0
SPLINE
  5
436
100
AcDbEntity
  8
0
100
AcDbSpline
 62
9
  6
CONTINUOUS
 70
0
 71
3
 72
9
 73
5
 74
0
 42
0.0000001
 43
0.0000001
 44
0.0000000001
 40
0.0
 40
0.0
 40
0.0
 40
0.0
 40
0.4994307484
 40
1.0
 40
1.0
 40
1.0
 40
1.0
 10
17.8404409984
 20
10.169963578
 30
0.0
 10
17.8412428959
 20
10.1663878583
 30
0.0
 10
17.8423849718
 20
10.1591154661
 30
0.0
 10
17.8425086083
 20
10.1517496351
 30
0.0
 10
17.8422942852
 20
10.1480830057
 30
0.0
  0
SPLINE
  5
437
100
AcDbEntity
  8
0
100
AcDbSpline
 62
9
  6
CONTINUOUS
 70
0
 71
3
 72
13
 73
9
 74
0
 42
0.0000001
 43
0.0000001
 44
0.0000000001
 40
0.0
 40
0.0
 40
0.0
 40
0.0
 40
0.2364702975
 40
0.3634568886
 40
0.4935649363
 40
0.6247162235
 40
0.75457202
 40
1.0
 40
1.0
 40
1.0
 40
1.0
 10
17.8186052645
 20
10.1844139914
 30
0.0
 10
17.820827814
 20
10.1847933205
 30
0.0
 10
17.8243963705
 20
10.184738638
 30
0.0
 10
17.8289126571
 20
10.1833455399
 30
0.0
 10
17.8322083707
 20
10.1816062878
 30
0.0
 10
17.8351164967
 20
10.179233866
 30
0.0
 10
17.8382611513
 20
10.1755439182
 30
0.0
 10
17.8398173522
 20
10.1722191107
 30
0.0
 10
17.8404409795
 20
10.169963641
 30
0.0
  0
LINE
  5
438
100
AcDbEntity
  8
0
100
AcDbLine
 62
9
  6
CONTINUOUS
 10
17.8404409889
 20
10.1699636436
 11
17.8217958173
 21
10.1646781
  0
SPLINE
  5
439
100
AcDbEntity
  8
0
100
AcDbSpline
 62
7
  6
CONTINUOUS
 70
0
 71
3
 72
10
 73
6
 74
0
 42
0.0000001
 43
0.0000001
 44
0.0000000001
 40
0.0
 40
0.0
 40
0.0
 40
0.0
 40
0.4103421955
 40
0.680489137
 40
1.0
 40
1.0
 40
1.0
 40
1.0
 10
13.788319341
 20
6.6215753194
 30
0.0
 10
13.7885847335
 20
6.6219502222
 30
0.0
 10
13.7892674761
 20
6.6223834436
 30
0.0
 10
13.7903225554
 20
6.6227390917
 30
0.0
 10
13.7909734463
 20
6.6228693518
 30
0.0
 10
13.7913270239
 20
6.6229232095
 30
0.0
  0
SPLINE
  5
43A
100
AcDbEntity
  8
0
100
AcDbSpline
 62
7
  6
CONTINUOUS
 70
0
 71
3
 72
12
 73
8
 74
0
 42
0.0000001
 43
0.0000001
 44
0.0000000001
 40
0.0
 40
0.0
 40
0.0
 40
0.0
 40
0.0911101086
 40
0.1941097054
 40
0.4322261246
 40
0.705526158
 40
1.0
 40
1.0
 40
1.0
 40
1.0
 10
13.7913270239
 20
6.6229232095
 30
0.0
 10
13.7917309327
 20
6.6229847336
 30
0.0
 10
13.7925984033
 20
6.6230710572
 30
0.0
 10
13.7945371163
 20
6.6231211474
 30
0.0
 10
13.7972920529
 20
6.6229437913
 30
0.0
 10
13.800869558
 20
6.6224153631
 30
0.0
 10
13.8033617907
 20
6.6218856784
 30
0.0
 10
13.8046453093
 20
6.6215752813
 30
0.0
  0
LINE
  5
43B
100
AcDbEntity
  8
0
100
AcDbLine
 62
9
  6
CONTINUOUS
 10
17.8186052439
 20
10.1844140172
 11
17.8217958615
 21
10.164678062
  0
LINE
  5
43C
100
AcDbEntity
  8
0
100
AcDbLine
 62
9
  6
CONTINUOUS
 10
15.5371298448
 20
9.9449740074
 11
15.5361923636
 21
9.9572695036
  0
SPLINE
  5
43D
100
AcDbEntity
  8
0
100
AcDbSpline
 62
7
  6
CONTINUOUS
 70
0
 71
3
 72
16
 73
12
 74
0
 42
0.0000001
 43
0.0000001
 44
0.0000000001
 40
0.0
 40
0.0
 40
0.0
 40
0.0
 40
0.1786011225
 40
0.3493343651
 40
0.5069597028
 40
0.6471953355
 40
0.7673000711
 40
0.8653066473
 40
0.9061016906
 40
0.9417866844
 40
1.0
 40
1.0
 40
1.0
 40
1.0
 10
16.0707393972
 20
6.6215755625
 30
0.0
 10
16.071712479
 20
6.6218116546
 30
0.0
 10
16.0736261433
 20
6.6222320104
 30
0.0
 10
16.076428626
 20
6.6227123534
 30
0.0
 10
16.0790398669
 20
6.6230149873
 30
0.0
 10
16.0813829999
 20
6.6231248868
 30
0.0
 10
16.0833932737
 20
6.6230448973
 30
0.0
 10
16.0848321385
 20
6.622808062
 30
0.0
 10
16.0857644294
 20
6.6225016876
 30
0.0
 10
16.086446366
 20
6.6221797241
 30
0.0
 10
16.0868763638
 20
6.6218416504
 30
0.0
 10
16.0870653374
 20
6.6215755579
 30
0.0
  0
SPLINE
  5
43E
100
AcDbEntity
  8
0
100
AcDbSpline
 62
9
  6
CONTINUOUS
 70
0
 71
3
 72
13
 73
9
 74
0
 42
0.0000001
 43
0.0000001
 44
0.0000000001
 40
0.0
 40
0.0
 40
0.0
 40
0.0
 40
0.1250194967
 40
0.2500395609
 40
0.3750571427
 40
0.5000717349
 40
0.7500646546
 40
1.0
 40
1.0
 40
1.0
 40
1.0
 10
15.5384406851
 20
9.4445228397
 30
0.0
 10
15.5875807458
 20
9.4500481424
 30
0.0
 10
15.6860368086
 20
9.4595853407
 30
0.0
 10
15.8340554769
 20
9.4697190369
 30
0.0
 10
15.9822786411
 20
9.4761111408
 30
0.0
 10
16.1800261933
 20
9.4802636028
 30
0.0
 10
16.4272530298
 20
9.4784767613
 30
0.0
 10
16.6249026938
 20
9.4722340228
 30
0.0
 10
16.7236922812
 20
9.468545097
 30
0.0
  0
SPLINE
  5
43F
100
AcDbEntity
  8
0
100
AcDbSpline
 62
9
  6
CONTINUOUS
 70
0
 71
3
 72
16
 73
12
 74
0
 42
0.0000001
 43
0.0000001
 44
0.0000000001
 40
0.0
 40
0.0
 40
0.0
 40
0.0
 40
0.127521381
 40
0.2546888388
 40
0.3812613216
 40
0.5070649188
 40
0.5696367316
 40
0.6319640508
 40
0.7558227966
 40
0.8785299768
 40
1.0
 40
1.0
 40
1.0
 40
1.0
 10
14.6776701072
 20
9.0907695276
 30
0.0
 10
14.6749435629
 20
9.0326487791
 30
0.0
 10
14.6673088004
 20
8.9166592841
 30
0.0
 10
14.6492950638
 20
8.7435937957
 30
0.0
 10
14.6247170645
 20
8.5721275788
 30
0.0
 10
14.5988159374
 20
8.430738733
 30
0.0
 10
14.5749212192
 20
8.3188666937
 30
0.0
 10
14.5490507247
 20
8.2083463623
 30
0.0
 10
14.5129642138
 20
8.0720651415
 30
0.0
 10
14.4638124126
 20
7.9114554148
 30
0.0
 10
14.4272136778
 20
7.8061940021
 30
0.0
 10
14.4080386106
 20
7.7541931252
 30
0.0
  0
SPLINE
  5
440
100
AcDbEntity
  8
0
100
AcDbSpline
 62
9
  6
CONTINUOUS
 70
0
 71
3
 72
11
 73
7
 74
0
 42
0.0000001
 43
0.0000001
 44
0.0000000001
 40
0.0
 40
0.0
 40
0.0
 40
0.0
 40
0.2557823252
 40
0.5076782511
 40
0.7557216958
 40
1.0
 40
1.0
 40
1.0
 40
1.0
 10
14.4080386106
 20
7.7541931252
 30
0.0
 10
14.3818016992
 20
7.6830412286
 30
0.0
 10
14.3260942064
 20
7.5431298721
 30
0.0
 10
14.2330378404
 20
7.3392189413
 30
0.0
 10
14.1320750945
 20
7.1429400653
 30
0.0
 10
14.0595294073
 20
7.016217008
 30
0.0
 10
14.0222112782
 20
6.9541472948
 30
0.0
  0
SPLINE
  5
441
100
AcDbEntity
  8
0
100
AcDbSpline
 62
9
  6
CONTINUOUS
 70
0
 71
3
 72
15
 73
11
 74
0
 42
0.0000001
 43
0.0000001
 44
0.0000000001
 40
0.0
 40
0.0
 40
0.0
 40
0.0
 40
0.167815367
 40
0.3309510205
 40
0.4835960263
 40
0.6204040171
 40
0.738147462
 40
0.8384961182
 40
0.9245056537
 40
1.0
 40
1.0
 40
1.0
 40
1.0
 10
14.0222112782
 20
6.9541472948
 30
0.0
 10
14.0212767014
 20
6.954557117
 30
0.0
 10
14.0193977498
 20
6.9552859962
 30
0.0
 10
14.016572305
 20
6.9561145656
 30
0.0
 10
14.013866066
 20
6.9566394316
 30
0.0
 10
14.0113891284
 20
6.9568299393
 30
0.0
 10
14.0092273703
 20
6.9566375884
 30
0.0
 10
14.0074410406
 20
6.9561034239
 30
0.0
 10
14.0060548338
 20
6.955283818
 30
0.0
 10
14.0053827449
 20
6.9545388877
 30
0.0
 10
14.0051434534
 20
6.9541471037
 30
0.0
  0
SPLINE
  5
442
100
AcDbEntity
  8
0
100
AcDbSpline
 62
9
  6
CONTINUOUS
 70
0
 71
3
 72
16
 73
12
 74
0
 42
0.0000001
 43
0.0000001
 44
0.0000000001
 40
0.0
 40
0.0
 40
0.0
 40
0.0
 40
0.1275381628
 40
0.2546699146
 40
0.3812163856
 40
0.4442183776
 40
0.5070113272
 40
0.6319053541
 40
0.7557826597
 40
0.8785126008
 40
1.0
 40
1.0
 40
1.0
 40
1.0
 10
15.1977148062
 20
9.0907695241
 30
0.0
 10
15.2004400237
 20
9.0326127265
 30
0.0
 10
15.2080826897
 20
8.9165751373
 30
0.0
 10
15.226122925
 20
8.743449736
 30
0.0
 10
15.2466210757
 20
8.6003069852
 30
0.0
 10
15.2662856618
 20
8.4867986426
 30
0.0
 10
15.2880325313
 20
8.3744390442
 30
0.0
 10
15.3191253751
 20
8.2356121096
 30
0.0
 10
15.3625406009
 20
8.0716323046
 30
0.0
 10
15.4117397744
 20
7.9109215591
 30
0.0
 10
15.4484085102
 20
7.8056078988
 30
0.0
 10
15.4676111004
 20
7.7535800015
 30
0.0
  0
SPLINE
  5
443
100
AcDbEntity
  8
0
100
AcDbSpline
 62
9
  6
CONTINUOUS
 70
0
 71
3
 72
11
 73
7
 74
0
 42
0.0000001
 43
0.0000001
 44
0.0000000001
 40
0.0
 40
0.0
 40
0.0
 40
0.0
 40
0.2557517277
 40
0.5076538138
 40
0.7556945868
 40
1.0
 40
1.0
 40
1.0
 40
1.0
 10
15.4676111004
 20
7.7535800015
 30
0.0
 10
15.4938462772
 20
7.6824978678
 30
0.0
 10
15.5495030422
 20
7.5426971699
 30
0.0
 10
15.6424679688
 20
7.3389376141
 30
0.0
 10
15.7433822605
 20
7.1428098474
 30
0.0
 10
15.8158806223
 20
7.0161782194
 30
0.0
 10
15.8531727763
 20
6.9541470208
 30
0.0
  0
LINE
  5
444
100
AcDbEntity
  8
0
100
AcDbLine
 62
9
  6
CONTINUOUS
 10
17.8216885203
 20
10.1849760464
 11
17.8186052561
 21
10.1844139898
  0
SPLINE
  5
445
100
AcDbEntity
  8
0
100
AcDbSpline
 62
9
  6
CONTINUOUS
 70
0
 71
3
 72
14
 73
10
 74
0
 42
0.0000001
 43
0.0000001
 44
0.0000000001
 40
0.0
 40
0.0
 40
0.0
 40
0.0
 40
0.2596764233
 40
0.3932182209
 40
0.5250951227
 40
0.6528820994
 40
0.7751070836
 40
0.8907502832
 40
1.0
 40
1.0
 40
1.0
 40
1.0
 10
14.4039982479
 20
9.403935094
 30
0.0
 10
14.4038799018
 20
9.4017048787
 30
0.0
 10
14.4041838586
 20
9.3982692597
 30
0.0
 10
14.40564337
 20
9.3939792122
 30
0.0
 10
14.4072619885
 20
9.3909876702
 30
0.0
 10
14.4093588969
 20
9.3884338996
 30
0.0
 10
14.4117959857
 20
9.3864129013
 30
0.0
 10
14.414453454
 20
9.3850091329
 30
0.0
 10
14.4163224021
 20
9.3844570967
 30
0.0
 10
14.4172456768
 20
9.384282681
 30
0.0
  0
SPLINE
  5
446
100
AcDbEntity
  8
0
100
AcDbSpline
 62
9
  6
CONTINUOUS
 70
0
 71
3
 72
15
 73
11
 74
0
 42
0.0000001
 43
0.0000001
 44
0.0000000001
 40
0.0
 40
0.0
 40
0.0
 40
0.0
 40
0.0820156004
 40
0.1746160181
 40
0.2812379471
 40
0.4032579834
 40
0.5405270824
 40
0.6894583762
 40
0.8446288998
 40
1.0
 40
1.0
 40
1.0
 40
1.0
 10
15.8702409509
 20
6.9541473202
 30
0.0
 10
15.8699810787
 20
6.9545727725
 30
0.0
 10
15.8692341579
 20
6.9553652214
 30
0.0
 10
15.8677120037
 20
6.9561857134
 30
0.0
 10
15.8658085985
 20
6.9566837782
 30
0.0
 10
15.8635774932
 20
6.9568265852
 30
0.0
 10
15.8610998003
 20
6.9565885624
 30
0.0
 10
15.8584705588
 20
6.9560344691
 30
0.0
 10
15.8557966052
 20
6.955217403
 30
0.0
 10
15.8540375811
 20
6.9545265233
 30
0.0
 10
15.8531726502
 20
6.9541472305
 30
0.0
  0
SPLINE
  5
447
100
AcDbEntity
  8
0
100
AcDbSpline
 62
9
  6
CONTINUOUS
 70
0
 71
3
 72
13
 73
9
 74
0
 42
0.0000001
 43
0.0000001
 44
0.0000000001
 40
0.0
 40
0.0
 40
0.0
 40
0.0
 40
0.1016954995
 40
0.2020433737
 40
0.417388947
 40
0.5411277491
 40
0.6786345959
 40
1.0
 40
1.0
 40
1.0
 40
1.0
 10
17.8422080701
 20
10.1754914283
 30
0.0
 10
17.8423158658
 20
10.1753104573
 30
0.0
 10
17.8424913021
 20
10.1749255983
 30
0.0
 10
17.8426546518
 20
10.1740688029
 30
0.0
 10
17.8424997843
 20
10.1731430798
 30
0.0
 10
17.8421133536
 20
10.1722339301
 30
0.0
 10
17.8415022314
 20
10.1711896173
 30
0.0
 10
17.8408935663
 20
10.1704517056
 30
0.0
 10
17.8404409984
 20
10.169963578
 30
0.0
  0
LINE
  5
448
100
AcDbEntity
  8
0
100
AcDbLine
 62
9
  6
CONTINUOUS
 10
15.5338833371
 20
9.4641358743
 11
15.5361839952
 21
9.4442685788
  0
SPLINE
  5
449
100
AcDbEntity
  8
0
100
AcDbSpline
 62
9
  6
CONTINUOUS
 70
0
 71
3
 72
9
 73
5
 74
0
 42
0.0000001
 43
0.0000001
 44
0.0000000001
 40
0.0
 40
0.0
 40
0.0
 40
0.0
 40
0.2487379599
 40
1.0
 40
1.0
 40
1.0
 40
1.0
 10
14.4296772959
 20
9.8633945694
 30
0.0
 10
14.4296772965
 20
9.8643759055
 30
0.0
 10
14.4297709351
 20
9.868320963
 30
0.0
 10
14.4302190887
 20
9.872254767
 30
0.0
 10
14.4307204917
 20
9.875175973
 30
0.0
  0
SPLINE
  5
44A
100
AcDbEntity
  8
0
100
AcDbSpline
 62
9
  6
CONTINUOUS
 70
0
 71
3
 72
16
 73
12
 74
0
 42
0.0000001
 43
0.0000001
 44
0.0000000001
 40
0.0
 40
0.0
 40
0.0
 40
0.0
 40
0.1243145826
 40
0.186570348
 40
0.2489090739
 40
0.3739281421
 40
0.4993348447
 40
0.624919096
 40
0.7503503825
 40
0.8753939231
 40
1.0
 40
1.0
 40
1.0
 40
1.0
 10
15.5338833045
 20
9.4641361468
 30
0.0
 10
15.5118443987
 20
9.461503101
 30
0.0
 10
15.4788969055
 20
9.4560720752
 30
0.0
 10
15.4358551856
 20
9.4448870674
 30
0.0
 10
15.3935734391
 20
9.430715519
 30
0.0
 10
15.3427640234
 20
9.4068176068
 30
0.0
 10
15.2884903349
 20
9.3663853923
 30
0.0
 10
15.2449678434
 20
9.3143149068
 30
0.0
 10
15.2149009732
 20
9.2536504486
 30
0.0
 10
15.1978083668
 20
9.1885302674
 30
0.0
 10
15.1934804627
 20
9.1440027374
 30
0.0
 10
15.1926788415
 20
9.1217695025
 30
0.0
  0
SPLINE
  5
44B
100
AcDbEntity
  8
0
100
AcDbSpline
 62
9
  6
CONTINUOUS
 70
0
 71
3
 72
16
 73
12
 74
0
 42
0.0000001
 43
0.0000001
 44
0.0000000001
 40
0.0
 40
0.0
 40
0.0
 40
0.0
 40
0.1244345051
 40
0.2491236123
 40
0.3742664675
 40
0.4996921073
 40
0.6251745908
 40
0.7504606932
 40
0.812965883
 40
0.8753945332
 40
1.0
 40
1.0
 40
1.0
 40
1.0
 10
14.6828571786
 20
9.1217695056
 30
0.0
 10
14.6807460035
 20
9.1385233109
 30
0.0
 10
14.6748400298
 20
9.1718926812
 30
0.0
 10
14.6597692845
 20
9.2205591133
 30
0.0
 10
14.6374026592
 20
9.2665703585
 30
0.0
 10
14.6071223353
 20
9.3080225077
 30
0.0
 10
14.5694689954
 20
9.3429566357
 30
0.0
 10
14.5332852516
 20
9.3657198902
 30
0.0
 10
14.5025140819
 20
9.3801413937
 30
0.0
 10
14.4708340552
 20
9.3921768072
 30
0.0
 10
14.4462302168
 20
9.3987483456
 30
0.0
 10
14.4296772795
 20
9.4022025296
 30
0.0
  0
SPLINE
  5
44C
100
AcDbEntity
  8
0
100
AcDbSpline
 62
9
  6
CONTINUOUS
 70
0
 71
3
 72
9
 73
5
 74
0
 42
0.0000001
 43
0.0000001
 44
0.0000000001
 40
0.0
 40
0.0
 40
0.0
 40
0.0
 40
0.2504636434
 40
1.0
 40
1.0
 40
1.0
 40
1.0
 10
14.4127173295
 20
9.8633945694
 30
0.0
 10
14.4125894542
 20
9.8646316673
 30
0.0
 10
14.4122060269
 20
9.8695835575
 30
0.0
 10
14.4123156173
 20
9.874570877
 30
0.0
 10
14.4126483116
 20
9.8782778367
 30
0.0
  0
SPLINE
  5
44D
100
AcDbEntity
  8
0
100
AcDbSpline
 62
9
  6
CONTINUOUS
 70
0
 71
3
 72
15
 73
11
 74
0
 42
0.0000001
 43
0.0000001
 44
0.0000000001
 40
0.0
 40
0.0
 40
0.0
 40
0.0
 40
0.109656619
 40
0.2259981108
 40
0.3476623173
 40
0.4737552305
 40
0.6041778758
 40
0.7375460165
 40
0.8707590928
 40
1.0
 40
1.0
 40
1.0
 40
1.0
 10
14.4255917479
 20
9.3826242287
 30
0.0
 10
14.4246807336
 20
9.3828143378
 30
0.0
 10
14.4228439301
 20
9.3834201974
 30
0.0
 10
14.4202574535
 20
9.3848730785
 30
0.0
 10
14.4178740864
 20
9.386868058
 30
0.0
 10
14.4158356922
 20
9.3893753846
 30
0.0
 10
14.4143000879
 20
9.3923286328
 30
0.0
 10
14.4132584197
 20
9.3955467461
 30
0.0
 10
14.4127024923
 20
9.3988707614
 30
0.0
 10
14.4126531498
 20
9.401107555
 30
0.0
 10
14.4127173351
 20
9.402202523
 30
0.0
  0
LINE
  5
44E
100
AcDbEntity
  8
0
100
AcDbLine
 62
9
  6
CONTINUOUS
 10
13.9924962902
 20
6.9018907274
 11
13.9906025412
 21
6.9019716488
  0
SPLINE
  5
44F
100
AcDbEntity
  8
0
100
AcDbSpline
 62
9
  6
CONTINUOUS
 70
0
 71
3
 72
19
 73
15
 74
0
 42
0.0000001
 43
0.0000001
 44
0.0000000001
 40
0.0
 40
0.0
 40
0.0
 40
0.0
 40
0.1808689909
 40
0.3652657119
 40
0.5427244087
 40
0.7013833937
 40
0.8303108744
 40
0.8817117265
 40
0.9236449532
 40
0.9557587512
 40
0.9785101617
 40
0.9866212722
 40
0.9927322659
 40
1.0
 40
1.0
 40
1.0
 40
1.0
 10
14.0123797436
 20
6.9019035511
 30
0.0
 10
14.0111774677
 20
6.901826091
 30
0.0
 10
14.0087485245
 20
6.9016839381
 30
0.0
 10
14.0051372149
 20
6.9015164663
 30
0.0
 10
14.0016716359
 20
6.9014071351
 30
0.0
 10
13.9985741021
 20
6.9013633768
 30
0.0
 10
13.9963158065
 20
6.9013882929
 30
0.0
 10
13.9948364822
 20
6.9014522667
 30
0.0
 10
13.9940030099
 20
6.9015113414
 30
0.0
 10
13.9933617039
 20
6.9015860201
 30
0.0
 10
13.9929497394
 20
6.9016610364
 30
0.0
 10
13.9927119086
 20
6.9017351012
 30
0.0
 10
13.9925850368
 20
6.9017901427
 30
0.0
 10
13.9925017622
 20
6.9018553432
 30
0.0
 10
13.9924958659
 20
6.9019033932
 30
0.0
  0
SPLINE
  5
450
100
AcDbEntity
  8
0
100
AcDbSpline
 62
9
  6
CONTINUOUS
 70
0
 71
3
 72
11
 73
7
 74
0
 42
0.0000001
 43
0.0000001
 44
0.0000000001
 40
0.0
 40
0.0
 40
0.0
 40
0.0
 40
0.2354711607
 40
0.4833332467
 40
0.7399505835
 40
1.0
 40
1.0
 40
1.0
 40
1.0
 10
15.8531744123
 20
6.9541433072
 30
0.0
 10
15.8549648566
 20
6.9503312502
 30
0.0
 10
15.8581087397
 20
6.9422489281
 30
0.0
 10
15.8613818291
 20
6.9293943142
 30
0.0
 10
15.8631528353
 20
6.9158030761
 30
0.0
 10
15.8632408884
 20
6.9065360982
 30
0.0
 10
15.8630045704
 20
6.9018909165
 30
0.0
  0
LINE
  5
451
100
AcDbEntity
  8
0
100
AcDbLine
 62
9
  6
CONTINUOUS
 10
15.8630045704
 20
6.9018909165
 11
14.0123794157
 21
6.9018908133
  0
SPLINE
  5
452
100
AcDbEntity
  8
0
100
AcDbSpline
 62
9
  6
CONTINUOUS
 70
0
 71
3
 72
11
 73
7
 74
0
 42
0.0000001
 43
0.0000001
 44
0.0000000001
 40
0.0
 40
0.0
 40
0.0
 40
0.0
 40
0.2606833103
 40
0.5179437477
 40
0.7655730033
 40
1.0
 40
1.0
 40
1.0
 40
1.0
 10
14.0123797538
 20
6.9018908303
 30
0.0
 10
14.0121430808
 20
6.9065472457
 30
0.0
 10
14.0122468925
 20
6.9158362914
 30
0.0
 10
14.0140018677
 20
6.9294480219
 30
0.0
 10
14.017295051
 20
6.9422872564
 30
0.0
 10
14.0204369587
 20
6.9503433342
 30
0.0
 10
14.0222084316
 20
6.9541435493
 30
0.0
  0
SPLINE
  5
453
100
AcDbEntity
  8
0
100
AcDbSpline
 62
9
  6
CONTINUOUS
 70
0
 71
3
 72
19
 73
15
 74
0
 42
0.0000001
 43
0.0000001
 44
0.0000000001
 40
0.0
 40
0.0
 40
0.0
 40
0.0
 40
0.0072501464
 40
0.0133428591
 40
0.0214297537
 40
0.0441173287
 40
0.0761509418
 40
0.1179934494
 40
0.1693020395
 40
0.2980796245
 40
0.4566898755
 40
0.6342267971
 40
0.8188326061
 40
1.0
 40
1.0
 40
1.0
 40
1.0
 10
15.8828875823
 20
6.9019035334
 30
0.0
 10
15.8828817088
 20
6.9018555998
 30
0.0
 10
15.8827987828
 20
6.9017904773
 30
0.0
 10
15.8826722902
 20
6.9017354876
 30
0.0
 10
15.8824352041
 20
6.9016614911
 30
0.0
 10
15.8820243693
 20
6.9015865095
 30
0.0
 10
15.8813846596
 20
6.9015118244
 30
0.0
 10
15.880552967
 20
6.9014526842
 30
0.0
 10
15.8790759058
 20
6.9013885398
 30
0.0
 10
15.876819603
 20
6.9013633789
 30
0.0
 10
15.8737229419
 20
6.901406866
 30
0.0
 10
15.8702558506
 20
6.9015160358
 30
0.0
 10
15.8666407243
 20
6.9016835552
 30
0.0
 10
15.8642084617
 20
6.9018258542
 30
0.0
 10
15.8630042306
 20
6.9019034302
 30
0.0
  0
LINE
  5
454
100
AcDbEntity
  8
0
100
AcDbLine
 62
9
  6
CONTINUOUS
 10
15.8847861164
 20
6.9019726576
 11
15.8828867938
 21
6.9018914657
  0
SPLINE
  5
455
100
AcDbEntity
  8
0
100
AcDbSpline
 62
9
  6
CONTINUOUS
 70
0
 71
3
 72
9
 73
5
 74
0
 42
0.0000001
 43
0.0000001
 44
0.0000000001
 40
0.0
 40
0.0
 40
0.0
 40
0.0
 40
0.5037251356
 40
1.0
 40
1.0
 40
1.0
 40
1.0
 10
15.8970301965
 20
6.8814348614
 30
0.0
 10
15.896433572
 20
6.8816118505
 30
0.0
 10
15.8952110209
 20
6.8818445715
 30
0.0
 10
15.8939684311
 20
6.8818454237
 30
0.0
 10
15.8933574831
 20
6.8817938776
 30
0.0
  0
LINE
  5
456
100
AcDbEntity
  8
0
100
AcDbLine
 62
9
  6
CONTINUOUS
 10
15.8933574831
 20
6.8817938776
 11
15.8913424652
 21
6.881434943
  0
SPLINE
  5
457
100
AcDbEntity
  8
0
100
AcDbSpline
 62
9
  6
CONTINUOUS
 70
0
 71
3
 72
18
 73
14
 74
0
 42
0.0000001
 43
0.0000001
 44
0.0000000001
 40
0.0
 40
0.0
 40
0.0
 40
0.0
 40
0.0577754774
 40
0.115629675
 40
0.1742008013
 40
0.2337061376
 40
0.2940440074
 40
0.355040684
 40
0.4796471515
 40
0.607695681
 40
0.7372939018
 40
0.868106677
 40
1.0
 40
1.0
 40
1.0
 40
1.0
 10
15.8630038731
 20
6.9019020332
 30
0.0
 10
15.8629295025
 20
6.9013275976
 30
0.0
 10
15.862890029
 20
6.9001612197
 30
0.0
 10
15.863139052
 20
6.8984249104
 30
0.0
 10
15.8636624664
 20
6.8967336039
 30
0.0
 10
15.8644285524
 20
6.8951114404
 30
0.0
 10
15.8654076387
 20
6.8935799752
 30
0.0
 10
15.8669760111
 20
6.8916710526
 30
0.0
 10
15.8693404077
 20
6.8895692922
 30
0.0
 10
15.8725580075
 20
6.8874718155
 30
0.0
 10
15.8760318948
 20
6.8856976336
 30
0.0
 10
15.8796876678
 20
6.884234891
 30
0.0
 10
15.8822031567
 20
6.8834459525
 30
0.0
 10
15.8834772236
 20
6.8830920704
 30
0.0
  0
SPLINE
  5
458
100
AcDbEntity
  8
0
100
AcDbSpline
 62
9
  6
CONTINUOUS
 70
0
 71
3
 72
9
 73
5
 74
0
 42
0.0000001
 43
0.0000001
 44
0.0000000001
 40
0.0
 40
0.0
 40
0.0
 40
0.0
 40
0.2491949851
 40
1.0
 40
1.0
 40
1.0
 40
1.0
 10
15.8834772236
 20
6.8830920704
 30
0.0
 10
15.88412165
 20
6.8829130759
 30
0.0
 10
15.8867197655
 20
6.882238587
 30
0.0
 10
15.8893603968
 20
6.8817314412
 30
0.0
 10
15.8913533265
 20
6.8814332681
 30
0.0
  0
SPLINE
  5
459
100
AcDbEntity
  8
0
100
AcDbSpline
 62
9
  6
CONTINUOUS
 70
0
 71
3
 72
9
 73
5
 74
0
 42
0.0000001
 43
0.0000001
 44
0.0000000001
 40
0.0
 40
0.0
 40
0.0
 40
0.0
 40
0.4841185656
 40
1.0
 40
1.0
 40
1.0
 40
1.0
 10
15.891347692
 20
6.8814322426
 30
0.0
 10
15.8929271381
 20
6.8807247183
 30
0.0
 10
15.8960709241
 20
6.8789869291
 30
0.0
 10
15.8989088447
 20
6.8767894467
 30
0.0
 10
15.9002865282
 20
6.8755634142
 30
0.0
  0
SPLINE
  5
45A
100
AcDbEntity
  8
0
100
AcDbSpline
 62
9
  6
CONTINUOUS
 70
0
 71
3
 72
9
 73
5
 74
0
 42
0.0000001
 43
0.0000001
 44
0.0000000001
 40
0.0
 40
0.0
 40
0.0
 40
0.0
 40
0.4652886286
 40
1.0
 40
1.0
 40
1.0
 40
1.0
 10
15.9002865282
 20
6.8755634142
 30
0.0
 10
15.9030544503
 20
6.8731001762
 30
0.0
 10
15.9082856516
 20
6.8669815275
 30
0.0
 10
15.9120535932
 20
6.8598979706
 30
0.0
 10
15.9137039151
 20
6.8559726916
 30
0.0
  0
LINE
  5
45B
100
AcDbEntity
  8
0
100
AcDbLine
 62
9
  6
CONTINUOUS
 10
13.9840361714
 20
6.8814321908
 11
15.8913474553
 21
6.8814322
  0
SPLINE
  5
45C
100
AcDbEntity
  8
0
100
AcDbSpline
 62
9
  6
CONTINUOUS
 70
0
 71
3
 72
15
 73
11
 74
0
 42
0.0000001
 43
0.0000001
 44
0.0000000001
 40
0.0
 40
0.0
 40
0.0
 40
0.0
 40
0.0807339927
 40
0.1714972814
 40
0.2757078083
 40
0.3955551107
 40
0.5318908546
 40
0.6815708502
 40
0.8394941001
 40
1.0
 40
1.0
 40
1.0
 40
1.0
 10
15.9305479852
 20
6.8559833385
 30
0.0
 10
15.9302866932
 20
6.8563918092
 30
0.0
 10
15.9295642449
 20
6.8571572975
 30
0.0
 10
15.9281055625
 20
6.8579787095
 30
0.0
 10
15.9262713989
 20
6.8584958441
 30
0.0
 10
15.9241015193
 20
6.8586643284
 30
0.0
 10
15.9216651573
 20
6.8584508772
 30
0.0
 10
15.9190494271
 20
6.8579116663
 30
0.0
 10
15.91635756
 20
6.8570883914
 30
0.0
 10
15.9145791337
 20
6.8563779627
 30
0.0
 10
15.9136996993
 20
6.8559831106
 30
0.0
  0
SPLINE
  5
45D
100
AcDbEntity
  8
0
100
AcDbSpline
 62
9
  6
CONTINUOUS
 70
0
 71
3
 72
15
 73
11
 74
0
 42
0.0000001
 43
0.0000001
 44
0.0000000001
 40
0.0
 40
0.0
 40
0.0
 40
0.0
 40
0.1915901998
 40
0.361496811
 40
0.5095340725
 40
0.636106326
 40
0.7427899799
 40
0.8334513089
 40
0.9155054229
 40
1.0
 40
1.0
 40
1.0
 40
1.0
 10
14.4126483116
 20
9.8782778367
 30
0.0
 10
14.4120806091
 20
9.8785538063
 30
0.0
 10
14.4110217066
 20
9.87910063
 30
0.0
 10
14.409581752
 20
9.879966428
 30
0.0
 10
14.4083929746
 20
9.8808256815
 30
0.0
 10
14.4074636111
 20
9.8816767284
 30
0.0
 10
14.4068031455
 20
9.8825237366
 30
0.0
 10
14.4064278145
 20
9.8833799658
 30
0.0
 10
14.4063822684
 20
9.8842481068
 30
0.0
 10
14.4065849118
 20
9.8847757251
 30
0.0
 10
14.4067256235
 20
9.8850159256
 30
0.0
  0
LINE
  5
45E
100
AcDbEntity
  8
0
100
AcDbLine
 62
9
  6
CONTINUOUS
 10
15.9136976649
 20
6.8559813401
 11
15.9185958574
 21
6.8482472674
  0
SPLINE
  5
45F
100
AcDbEntity
  8
0
100
AcDbSpline
 62
9
  6
CONTINUOUS
 70
0
 71
3
 72
14
 73
10
 74
0
 42
0.0000001
 43
0.0000001
 44
0.0000000001
 40
0.0
 40
0.0
 40
0.0
 40
0.0
 40
0.1245277708
 40
0.2536888469
 40
0.3842964829
 40
0.5138186923
 40
0.7648043166
 40
0.8854199634
 40
1.0
 40
1.0
 40
1.0
 40
1.0
 10
14.4126483352
 20
9.8782778328
 30
0.0
 10
14.4127954437
 20
9.8793528583
 30
0.0
 10
14.4132839462
 20
9.8815200566
 30
0.0
 10
14.4145094331
 20
9.88464878
 30
0.0
 10
14.4162226371
 20
9.8875939187
 30
0.0
 10
14.4190913869
 20
9.8910284421
 30
0.0
 10
14.4228433685
 20
9.8934901975
 30
0.0
 10
14.4268770035
 20
9.8948255138
 30
0.0
 10
14.4289206807
 20
9.8951197566
 30
0.0
 10
14.429918244
 20
9.8951598038
 30
0.0
  0
SPLINE
  5
460
100
AcDbEntity
  8
0
100
AcDbSpline
 62
9
  6
CONTINUOUS
 70
0
 71
3
 72
19
 73
15
 74
0
 42
0.0000001
 43
0.0000001
 44
0.0000000001
 40
0.0
 40
0.0
 40
0.0
 40
0.0
 40
0.0668466105
 40
0.1335761941
 40
0.1665485397
 40
0.1992688433
 40
0.2642298448
 40
0.3283634894
 40
0.3914236504
 40
0.5155122467
 40
0.6379872668
 40
0.7593362533
 40
0.8799005525
 40
1.0
 40
1.0
 40
1.0
 40
1.0
 10
14.0123797646
 20
6.9019035935
 30
0.0
 10
14.0124327835
 20
6.9012351906
 30
0.0
 10
14.0124468544
 20
6.8998904346
 30
0.0
 10
14.0122047772
 20
6.8982281008
 30
0.0
 10
14.0118226321
 20
6.8969537604
 30
0.0
 10
14.0113226975
 20
6.8957403481
 30
0.0
 10
14.0105120742
 20
6.8943262469
 30
0.0
 10
14.0093440979
 20
6.8927882603
 30
0.0
 10
14.0076184092
 20
6.8909460469
 30
0.0
 10
14.005197513
 20
6.888978168
 30
0.0
 10
14.0020488605
 20
6.8870400716
 30
0.0
 10
13.9987557677
 20
6.8854428339
 30
0.0
 10
13.9953681425
 20
6.8841266177
 30
0.0
 10
13.9930604916
 20
6.883411247
 30
0.0
 10
13.9918994121
 20
6.8830901815
 30
0.0
  0
SPLINE
  5
461
100
AcDbEntity
  8
0
100
AcDbSpline
 62
9
  6
CONTINUOUS
 70
0
 71
3
 72
9
 73
5
 74
0
 42
0.0000001
 43
0.0000001
 44
0.0000000001
 40
0.0
 40
0.0
 40
0.0
 40
0.0
 40
0.2508547039
 40
1.0
 40
1.0
 40
1.0
 40
1.0
 10
13.9918994121
 20
6.8830901815
 30
0.0
 10
13.9912521259
 20
6.8829111918
 30
0.0
 10
13.988659635
 20
6.8822418353
 30
0.0
 10
13.9860258425
 20
6.8817373385
 30
0.0
 10
13.984043198
 20
6.8814348903
 30
0.0
  0
SPLINE
  5
462
100
AcDbEntity
  8
0
100
AcDbSpline
 62
9
  6
CONTINUOUS
 70
0
 71
3
 72
9
 73
5
 74
0
 42
0.0000001
 43
0.0000001
 44
0.0000000001
 40
0.0
 40
0.0
 40
0.0
 40
0.0
 40
0.5247764151
 40
1.0
 40
1.0
 40
1.0
 40
1.0
 10
13.9840432962
 20
6.8814349196
 30
0.0
 10
13.983074048
 20
6.8816990082
 30
0.0
 10
13.9811512106
 20
6.8819671881
 30
0.0
 10
13.9792276586
 20
6.8816936987
 30
0.0
 10
13.9783554879
 20
6.881435022
 30
0.0
  0
SPLINE
  5
463
100
AcDbEntity
  8
0
100
AcDbSpline
 62
9
  6
CONTINUOUS
 70
0
 71
3
 72
9
 73
5
 74
0
 42
0.0000001
 43
0.0000001
 44
0.0000000001
 40
0.0
 40
0.0
 40
0.0
 40
0.0
 40
0.4848775705
 40
1.0
 40
1.0
 40
1.0
 40
1.0
 10
13.9840432034
 20
6.8814351666
 30
0.0
 10
13.9824520132
 20
6.8807267304
 30
0.0
 10
13.9792927681
 20
6.8789791916
 30
0.0
 10
13.9764461879
 20
6.8767645057
 30
0.0
 10
13.9750665335
 20
6.8755313812
 30
0.0
  0
SPLINE
  5
464
100
AcDbEntity
  8
0
100
AcDbSpline
 62
9
  6
CONTINUOUS
 70
0
 71
3
 72
9
 73
5
 74
0
 42
0.0000001
 43
0.0000001
 44
0.0000000001
 40
0.0
 40
0.0
 40
0.0
 40
0.0
 40
0.4667484897
 40
1.0
 40
1.0
 40
1.0
 40
1.0
 10
13.9750665335
 20
6.8755313812
 30
0.0
 10
13.9723017818
 20
6.8730602673
 30
0.0
 10
13.9670968921
 20
6.8669518554
 30
0.0
 10
13.963293076
 20
6.8599026283
 30
0.0
 10
13.9616851987
 20
6.8559831329
 30
0.0
  0
SPLINE
  5
465
100
AcDbEntity
  8
0
100
AcDbSpline
 62
9
  6
CONTINUOUS
 70
0
 71
3
 72
15
 73
11
 74
0
 42
0.0000001
 43
0.0000001
 44
0.0000000001
 40
0.0
 40
0.0
 40
0.0
 40
0.0
 40
0.1605082646
 40
0.3184332556
 40
0.4681140549
 40
0.6044494413
 40
0.7242953236
 40
0.8285040507
 40
0.9192660065
 40
1.0
 40
1.0
 40
1.0
 40
1.0
 10
13.9616851987
 20
6.8559831329
 30
0.0
 10
13.9608057367
 20
6.8563779789
 30
0.0
 10
13.9590272581
 20
6.857088389
 30
0.0
 10
13.9563353202
 20
6.8579116183
 30
0.0
 10
13.9537195389
 20
6.8584507643
 30
0.0
 10
13.9512831527
 20
6.8586641319
 30
0.0
 10
13.9491132817
 20
6.8584955412
 30
0.0
 10
13.9472791612
 20
6.8579782837
 30
0.0
 10
13.9458205546
 20
6.8571567386
 30
0.0
 10
13.9450981921
 20
6.8563911649
 30
0.0
 10
13.9448369462
 20
6.8559826597
 30
0.0
  0
SPLINE
  5
466
100
AcDbEntity
  8
0
100
AcDbSpline
 62
9
  6
CONTINUOUS
 70
0
 71
3
 72
11
 73
7
 74
0
 42
0.0000001
 43
0.0000001
 44
0.0000000001
 40
0.0
 40
0.0
 40
0.0
 40
0.0
 40
0.3068285385
 40
0.5614137367
 40
0.7819273222
 40
1.0
 40
1.0
 40
1.0
 40
1.0
 10
17.8647761177
 20
9.4521989713
 30
0.0
 10
17.8651307994
 20
9.4518687683
 30
0.0
 10
17.8657407115
 20
9.4512178971
 30
0.0
 10
17.8663710244
 20
9.4501373929
 30
0.0
 10
17.8665711783
 20
9.4490303982
 30
0.0
 10
17.8663742094
 20
9.4483390882
 30
0.0
 10
17.8662184918
 20
9.4480318824
 30
0.0
  0
LINE
  5
467
100
AcDbEntity
  8
0
100
AcDbLine
 62
9
  6
CONTINUOUS
 10
17.844011426
 20
9.4568904183
 11
17.8570831817
 21
9.4537632104
  0
LINE
  5
468
100
AcDbEntity
  8
0
100
AcDbLine
 62
9
  6
CONTINUOUS
 10
17.8570831817
 20
9.4537632104
 11
17.8647761125
 21
9.4521990176
  0
SPLINE
  5
469
100
AcDbEntity
  8
0
100
AcDbSpline
 62
9
  6
CONTINUOUS
 70
0
 71
3
 72
14
 73
10
 74
0
 42
0.0000001
 43
0.0000001
 44
0.0000000001
 40
0.0
 40
0.0
 40
0.0
 40
0.0
 40
0.1214295347
 40
0.2475263751
 40
0.3758384263
 40
0.5043975346
 40
0.757862084
 40
0.8814313755
 40
1.0
 40
1.0
 40
1.0
 40
1.0
 10
17.8647761109
 20
9.4521990211
 30
0.0
 10
17.8645377942
 20
9.451195233
 30
0.0
 10
17.8638766467
 20
9.4491877873
 30
0.0
 10
17.8624270762
 20
9.4463301852
 30
0.0
 10
17.8605268855
 20
9.4436720293
 30
0.0
 10
17.8574560486
 20
9.4405842153
 30
0.0
 10
17.8536255372
 20
9.4384253074
 30
0.0
 10
17.8495653379
 20
9.4372732079
 30
0.0
 10
17.8475102649
 20
9.4370292818
 30
0.0
 10
17.8465032928
 20
9.4370004861
 30
0.0
  0
SPLINE
  5
46A
100
AcDbEntity
  8
0
100
AcDbSpline
 62
9
  6
CONTINUOUS
 70
0
 71
3
 72
20
 73
16
 74
0
 42
0.0000001
 43
0.0000001
 44
0.0000000001
 40
0.0
 40
0.0
 40
0.0
 40
0.0
 40
0.1791759481
 40
0.3621770345
 40
0.5386273761
 40
0.6966792249
 40
0.7651547835
 40
0.8254028512
 40
0.876862565
 40
0.9189962052
 40
0.951494306
 40
0.9749162362
 40
0.9835496097
 40
0.9903794841
 40
1.0
 40
1.0
 40
1.0
 40
1.0
 10
17.8440114272
 20
9.4568904182
 30
0.0
 10
17.8440281242
 20
9.4556825744
 30
0.0
 10
17.8440836923
 20
9.4532413593
 30
0.0
 10
17.8442328828
 20
9.4496128681
 30
0.0
 10
17.844454848
 20
9.4461307917
 30
0.0
 10
17.8446978937
 20
9.4434243238
 30
0.0
 10
17.8449308886
 20
9.4415048951
 30
0.0
 10
17.8451070211
 20
9.4403028097
 30
0.0
 10
17.845289252
 20
9.4392816195
 30
0.0
 10
17.8454731575
 20
9.4384511892
 30
0.0
 10
17.8456586155
 20
9.4378162097
 30
0.0
 10
17.8458211902
 20
9.437410918
 30
0.0
 10
17.8459587506
 20
9.4371858453
 30
0.0
 10
17.8460653324
 20
9.437056633
 30
0.0
 10
17.8461724293
 20
9.4369941112
 30
0.0
 10
17.8462372837
 20
9.436994896
 30
0.0
  0
SPLINE
  5
46B
100
AcDbEntity
  8
0
100
AcDbSpline
 62
7
  6
CONTINUOUS
 70
0
 71
3
 72
8
 73
4
 74
0
 42
0.0000001
 43
0.0000001
 44
0.0000000001
 40
0.0
 40
0.0
 40
0.0
 40
0.0
 40
1.0
 40
1.0
 40
1.0
 40
1.0
 10
15.4512424529
 20
9.4280750651
 30
0.0
 10
15.4789159477
 20
9.4356622372
 30
0.0
 10
15.5074395298
 20
9.4408308859
 30
0.0
 10
15.5361839926
 20
9.4442686009
 30
0.0
  0
ENDSEC
  0
SECTION
  2
OBJECTS
  0
DICTIONARY
  5
C
100
AcDbDictionary
280
0
281
1
  3
ACAD_GROUP
350
D
  3
ACAD_MLINESTYLE
350
17
  3
ACAD_LAYOUT
350
1A
  3
ACAD_PLOTSETTINGS
350
19
  3
ACAD_PLOTSTYLENAME
350
E
  0
DICTIONARY
  5
D
102
{ACAD_REACTORS
330
C
102
}
100
AcDbDictionary
280
0
281
1
  0
ACDBDICTIONARYWDFLT
  5
E
102
{ACAD_REACTORS
330
C
102
}
100
AcDbDictionary
281
1
  3
Normal
350
F
100
AcDbDictionaryWithDefault
340
F
  0
DICTIONARY
  5
17
102
{ACAD_REACTORS
330
C
102
}
100
AcDbDictionary
280
0
281
1
  3
Standard
350
18
  0
DICTIONARY
  5
19
102
{ACAD_REACTORS
330
C
102
}
100
AcDbDictionary
281
1
  0
DICTIONARY
  5
1A
102
{ACAD_REACTORS
330
C
102
}
100
AcDbDictionary
281
1
  3
Model
350
46C
  3
Layout1
350
46D
  0
ACDBPLACEHOLDER
  5
F
102
{ACAD_REACTORS
330
E
102
}
  0
MLINESTYLE
  5
18
102
{ACAD_REACTORS
330
17
102
}
100
AcDbMlineStyle
  2
STANDARD
 70
0
  3

 62
256
 51
90.0
 52
90.0
 71
2
 49
0.5
 62
256
  6
BYLAYER
 49
-0.5
 62
256
  6
BYLAYER
  0
LAYOUT
  5
46C
102
{ACAD_REACTORS
330
1A
102
}
100
AcDbPlotSettings
  1

  2
none_device
  4
ANSI_C_(22.00_x_17.00_Inches)
  6

 40
0.0
 41
0.0
 42
0.0
 43
0.0
 44
558.8
 45
431.8
 46
0.0
 47
0.0
 48
0.0
 49
0.0
140
0.0
141
0.0
142
1.0
143
1.0
 70
1024
 72
0
 73
0
 74
0
  7

 75
0
147
1.0
148
0.0
149
0.0
100
AcDbLayout
  1
Model
 70
0
 71
0
 10
0.0
 20
0.0
 11
22.0
 21
17.0
 12
0.0
 22
0.0
 32
0.0
 14
0.0
 24
0.0
 34
0.0
 15
0.0
 25
0.0
 35
0.0
146
0.0
 13
0.0
 23
0.0
 33
0.0
 16
1.0
 26
0.0
 36
0.0
 17
0.0
 27
1.0
 37
0.0
 76
0
330
202
345
0
346
0
  0
LAYOUT
  5
46D
102
{ACAD_REACTORS
330
1A
102
}
100
AcDbPlotSettings
  1

  2
none_device
  4
ANSI_C_(22.00_x_17.00_Inches)
  6

 40
0.0
 41
0.0
 42
0.0
 43
0.0
 44
558.8
 45
431.8
 46
0.0
 47
0.0
 48
0.0
 49
0.0
140
0.0
141
0.0
142
1.0
143
1.0
 70
0
 72
0
 73
0
 74
0
  7

 75
0
147
1.0
148
0.0
149
0.0
100
AcDbLayout
  1
Layout1
 70
0
 71
1
 10
0.0
 20
0.0
 11
22.0
 21
17.0
 12
0.0
 22
0.0
 32
0.0
 14
0.0
 24
0.0
 34
0.0
 15
0.0
 25
0.0
 35
0.0
146
0.0
 13
0.0
 23
0.0
 33
0.0
 16
1.0
 26
0.0
 36
0.0
 17
0.0
 27
1.0
 37
0.0
 76
0
330
203
345
0
346
0
  0
ENDSEC
  0
EOF
