999
DXF file: E:\BT Custom\CADOUTPUT\_RIGHT.dxf
999
Pro/ENGINEER 2018400 by Parametric Technology Corporation
  0
SECTION
  2
HEADER
  9
$ACADVER
  1
AC1018
  9
$DWGCODEPAGE
  3
ANSI_1252
  9
$EXTMAX
 10
22.0
 20
17.0
 30
0.0
  9
$EXTMIN
 10
0.0
 20
0.0
 30
0.0
  9
$LIMMIN
 10
0.0
 20
0.0
  9
$LIMMAX
 10
22.0
 20
17.0
  9
$VIEWCTR
 10
11.0
 20
8.5
  9
$VIEWSIZE
 40
17.0
  9
$CLAYER
  8
0
  9
$LTSCALE
 40
1.21
  9
$CELTYPE
  6
BYLAYER
  9
$DIMSCALE
 40
1.0
  9
$DIMASZ
 40
0.1
  9
$DIMEXO
 40
0.0625
  9
$DIMDLI
 40
0.836
  9
$DIMEXE
 40
0.125
  9
$DIMCEN
 40
0.198
  9
$DIMLFAC
 40
1.0
  9
$DIMBLK
  1
_FILLED
  9
$DIMALT
 70
1
  9
$DIMALTD
 70
2
  9
$DIMALTTD
 70
2
  9
$DIMALTF
 40
25.4
  9
$DIMTXT
 40
0.08
  9
$DIMTOL
 70
1
  9
$DIMLIM
 70
0
  9
$DIMTFAC
 40
1.0
  9
$DIMTP
 40
0.001
  9
$DIMTM
 40
0.001
  9
$DIMGAP
 40
0.09
  9
$DIMDSEP
 70
46
  9
$AUNITS
 70
0
  9
$PDMODE
 70
3
  9
$PDSIZE
 40
0.06
  9
$HANDSEED
  5
391
  9
$TILEMODE
 70
1
  9
$MEASUREMENT
 70
0
  9
$INSUNITS
 70
1
  0
ENDSEC
  0
SECTION
  2
CLASSES
  0
CLASS
  1
ACDBDICTIONARYWDFLT
  2
AcDbDictionaryWithDefault
  3
AutoCAD 2000
 90
0
 91
1
280
0
281
0
  0
CLASS
  1
ACDBPLACEHOLDER
  2
AcDbPlaceHolder
  3
AutoCAD 2000
 90
0
 91
1
280
0
281
0
  0
CLASS
  1
LAYOUT
  2
AcDbLayout
  3
AutoCAD 2000
 90
0
 91
0
280
0
281
0
  0
ENDSEC
  0
SECTION
  2
TABLES
  0
TABLE
  2
VPORT
  5
8
100
AcDbSymbolTable
 70
2
  0
VPORT
  5
1F4
100
AcDbSymbolTableRecord
100
AcDbViewportTableRecord
  2
*ACTIVE
 70
0
 10
0.0
 20
0.0
 11
1.0
 21
1.0
 12
11.0
 22
8.5
 13
0.0
 23
0.0
 14
1.0
 24
1.0
 15
0.0
 25
0.0
 16
0.0
 26
0.0
 36
1.0
 17
0.0
 27
0.0
 37
0.0
 40
17.0
 41
1.2941176471
 42
50.0
 43
0.0
 44
0.0
 50
0.0
 51
0.0
 71
0
 72
100
 73
1
 74
1
 75
0
 76
0
 77
0
 78
0
  0
ENDTAB
  0
TABLE
  2
LTYPE
  5
5
100
AcDbSymbolTable
 70
6
  0
LTYPE
  5
14
100
AcDbSymbolTableRecord
100
AcDbLinetypeTableRecord
  2
BYBLOCK
 70
0
  3

 72
65
 73
0
 40
0.0
  0
LTYPE
  5
15
100
AcDbSymbolTableRecord
100
AcDbLinetypeTableRecord
  2
BYLAYER
 70
0
  3

 72
65
 73
0
 40
0.0
  0
LTYPE
  5
16
100
AcDbSymbolTableRecord
100
AcDbLinetypeTableRecord
  2
CONTINUOUS
 70
64
  3
Solid line
 72
65
 73
0
 40
0.0
  0
LTYPE
  5
1F5
100
AcDbSymbolTableRecord
100
AcDbLinetypeTableRecord
  2
CENTER
 70
64
  3
____ _ ____ _ ____ _ ____ _ ____ _ ____ _ ____
 72
65
 73
4
 40
0.6
 49
0.375
 74
0
 49
-0.075
 74
0
 49
0.075
 74
0
 49
-0.075
 74
0
  0
LTYPE
  5
1F6
100
AcDbSymbolTableRecord
100
AcDbLinetypeTableRecord
  2
HIDDEN
 70
64
  3
- - - - - - - - - - - - - - - - - - - -
 72
65
 73
2
 40
0.2
 49
0.1
 74
0
 49
-0.1
 74
0
  0
LTYPE
  5
1F7
100
AcDbSymbolTableRecord
100
AcDbLinetypeTableRecord
  2
PHANTOM
 70
64
  3
_____ _ _ _____ _ _ _____ _ _ _____
 72
65
 73
6
 40
0.8
 49
0.45
 74
0
 49
-0.05
 74
0
 49
0.1
 74
0
 49
-0.05
 74
0
 49
0.1
 74
0
 49
-0.05
 74
0
  0
LTYPE
  5
1F8
100
AcDbSymbolTableRecord
100
AcDbLinetypeTableRecord
  2
DOT
 70
64
  3
. . . . . . . . . . . . . . . . . . . .
 72
65
 73
2
 40
0.2
 49
0.1
 74
0
 49
-0.1
 74
0
  0
LTYPE
  5
1F9
100
AcDbSymbolTableRecord
100
AcDbLinetypeTableRecord
  2
DASHED
 70
64
  3
- - - - - - - - - - - - - - - - - - - -
 72
65
 73
2
 40
0.2
 49
0.1
 74
0
 49
-0.1
 74
0
  0
ENDTAB
  0
TABLE
  2
LAYER
  5
2
100
AcDbSymbolTable
 70
36
  0
LAYER
  5
10
100
AcDbSymbolTableRecord
100
AcDbLayerTableRecord
  2
0
 70
0
 62
7
  6
CONTINUOUS
370
-3
390
F
  0
LAYER
  5
1FA
100
AcDbSymbolTableRecord
100
AcDbLayerTableRecord
  2
DEFAULT_1
 70
0
 62
7
  6
CENTER
370
-3
390
F
  0
LAYER
  5
1FB
100
AcDbSymbolTableRecord
100
AcDbLayerTableRecord
  2
DEFAULT_2
 70
0
 62
8
  6
HIDDEN
370
-3
390
F
  0
LAYER
  5
1FC
100
AcDbSymbolTableRecord
100
AcDbLayerTableRecord
  2
DEFAULT_3
 70
0
 62
7
  6
PHANTOM
370
-3
390
F
  0
LAYER
  5
1FD
100
AcDbSymbolTableRecord
100
AcDbLayerTableRecord
  2
ALL_FEATURES
 70
0
 62
7
  6
CONTINUOUS
370
-3
390
F
  0
LAYER
  5
1FE
100
AcDbSymbolTableRecord
100
AcDbLayerTableRecord
  2
AXES_FEATURES
 70
0
 62
7
  6
CONTINUOUS
370
-3
390
F
  0
LAYER
  5
1FF
100
AcDbSymbolTableRecord
100
AcDbLayerTableRecord
  2
DIMENSIONS
 70
0
 62
7
  6
CONTINUOUS
370
-3
390
F
  0
ENDTAB
  0
TABLE
  2
STYLE
  5
3
100
AcDbSymbolTable
 70
1
  0
STYLE
  5
11
100
AcDbSymbolTableRecord
100
AcDbTextStyleTableRecord
  2
STANDARD
 70
0
 40
0.0
 41
0.8
 50
0.0
 71
0
 42
0.2
  3
txt
  4

  0
STYLE
  5
200
100
AcDbSymbolTableRecord
100
AcDbTextStyleTableRecord
  2
TEXTSTYLE_1
 70
0
 40
0.0
 41
0.8
 50
0.0
 71
0
 42
0.2
  3
gdt
  4

  0
ENDTAB
  0
TABLE
  2
VIEW
  5
6
100
AcDbSymbolTable
 70
0
  0
ENDTAB
  0
TABLE
  2
UCS
  5
7
100
AcDbSymbolTable
 70
0
  0
ENDTAB
  0
TABLE
  2
APPID
  5
9
100
AcDbSymbolTable
 70
1
  0
APPID
  5
201
100
AcDbSymbolTableRecord
100
AcDbRegAppTableRecord
  2
ACAD
 70
0
  0
ENDTAB
  0
TABLE
  2
BLOCK_RECORD
  5
1
100
AcDbSymbolTable
 70
0
  0
BLOCK_RECORD
  5
202
100
AcDbSymbolTableRecord
100
AcDbBlockTableRecord
  2
*Model_Space
  0
BLOCK_RECORD
  5
203
100
AcDbSymbolTableRecord
100
AcDbBlockTableRecord
  2
*Paper_Space
  0
BLOCK_RECORD
  5
204
100
AcDbSymbolTableRecord
100
AcDbBlockTableRecord
  2
_FILLED
  0
ENDTAB
  0
TABLE
  2
DIMSTYLE
  5
A
100
AcDbSymbolTable
 70
1
100
AcDbDimStyleTable
 71
0
  0
DIMSTYLE
105
205
100
AcDbSymbolTableRecord
100
AcDbDimStyleTableRecord
  2
STANDARD
 70
0
  3

  4

 40
1.0
 41
0.1
 42
0.0625
 43
0.38
 44
0.125
 45
0.0
 46
0.0
 47
0.001
 48
0.001
140
0.08
141
0.09
142
0.0
143
25.4
144
1.0
145
0.0
146
1.0
147
0.09
 71
1.0
 72
0.0
 73
1
 74
1
 75
0
 76
0
 77
0
 78
4
 79
1
170
1
171
2
172
0
173
0
174
0
175
0
176
0
177
0
178
0
270
2
179
3
271
3
272
3
273
2
274
2
275
0
280
0
281
0
282
0
283
1
284
4
285
0
286
0
287
3
288
0
340
11
278
46
341
204
342
204
343
204
344
204
  0
ENDTAB
  0
ENDSEC
  0
SECTION
  2
BLOCKS
  0
BLOCK
  5
20
100
AcDbEntity
  8
0
100
AcDbBlockBegin
  2
*Model_Space
 70
0
 10
0.0
 20
0.0
 30
0.0
  3
*Model_Space
  1

  0
ENDBLK
  5
21
100
AcDbEntity
  8
0
100
AcDbBlockEnd
  0
BLOCK
  5
1C
100
AcDbEntity
  8
0
100
AcDbBlockBegin
  2
*Paper_Space
 70
0
 10
0.0
 20
0.0
 30
0.0
  3
*Paper_Space
  1

  0
ENDBLK
  5
1D
100
AcDbEntity
  8
0
100
AcDbBlockEnd
  0
BLOCK
  5
206
100
AcDbEntity
  8
0
100
AcDbBlockBegin
  2
_FILLED
 70
64
 10
0.0
 20
0.0
  3
_FILLED
  1

  0
SOLID
  5
207
100
AcDbEntity
  8
0
  6
BYBLOCK
 62
0
100
AcDbTrace
 10
0.0
 20
0.0
 11
-1.0
 21
0.2
 12
-1.0
 22
-0.2
 13
-1.0
 23
-0.2
  0
ENDBLK
  5
208
100
AcDbEntity
  8
0
  6
BYBLOCK
 62
0
100
AcDbBlockEnd
  0
ENDSEC
  0
SECTION
  2
ENTITIES
  0
LINE
  5
209
100
AcDbEntity
  8
0
100
AcDbLine
 62
7
  6
CONTINUOUS
 10
-0.3902053198
 20
6.833391804
 11
-0.3902053198
 21
6.913391804
  0
LINE
  5
20A
100
AcDbEntity
  8
0
100
AcDbLine
 62
7
  6
CONTINUOUS
 10
0.5347946802
 20
6.833391804
 11
0.5347946802
 21
6.913391804
  0
LINE
  5
20B
100
AcDbEntity
  8
0
100
AcDbLine
 62
7
  6
CONTINUOUS
 10
2.6927843264
 20
7.1999124474
 11
2.6927843264
 21
7.2545884105
  0
LINE
  5
20C
100
AcDbEntity
  8
0
100
AcDbLine
 62
9
  6
CONTINUOUS
 10
2.7327843263
 20
7.2739131093
 11
2.7327842268
 21
7.1860253014
  0
LINE
  5
20D
100
AcDbEntity
  8
0
100
AcDbLine
 62
9
  6
CONTINUOUS
 10
2.9139092908
 20
6.6046890341
 11
2.9139092908
 21
6.583391804
  0
LINE
  5
20E
100
AcDbEntity
  8
0
100
AcDbLine
 62
9
  6
CONTINUOUS
 10
2.9204051998
 20
7.3299539767
 11
2.9204051998
 21
7.3292786756
  0
LINE
  5
20F
100
AcDbEntity
  8
0
100
AcDbLine
 62
9
  6
CONTINUOUS
 10
3.2241841606
 20
7.3292786756
 11
3.2241841606
 21
7.3299539767
  0
LINE
  5
210
100
AcDbEntity
  8
0
100
AcDbLine
 62
9
  6
CONTINUOUS
 10
3.2306800488
 20
6.583391804
 11
3.2306800488
 21
6.6046890341
  0
LINE
  5
211
100
AcDbEntity
  8
0
100
AcDbLine
 62
9
  6
CONTINUOUS
 10
3.4118050341
 20
7.1860253014
 11
3.4118050341
 21
7.2739131093
  0
LINE
  5
212
100
AcDbEntity
  8
0
100
AcDbLine
 62
7
  6
CONTINUOUS
 10
3.4518050341
 20
7.2545884105
 11
3.4518050341
 21
7.1999124473
  0
LINE
  5
213
100
AcDbEntity
  8
0
100
AcDbLine
 62
9
  6
CONTINUOUS
 10
3.2241841607
 20
7.3292786755
 11
3.4259471697
 21
7.2754752064
  0
LINE
  5
214
100
AcDbEntity
  8
0
100
AcDbLine
 62
7
  6
CONTINUOUS
 10
3.4369582871
 20
7.2739131093
 11
3.2293374134
 21
7.3292786756
  0
LINE
  5
215
100
AcDbEntity
  8
0
100
AcDbLine
 62
9
  6
CONTINUOUS
 10
11.0775228587
 20
6.5980938491
 11
11.0794388085
 21
6.5982055056
  0
LINE
  5
216
100
AcDbEntity
  8
0
100
AcDbLine
 62
7
  6
CONTINUOUS
 10
-0.7177053198
 20
6.333391804
 11
0.8622946802
 21
6.333391804
  0
LINE
  5
217
100
AcDbEntity
  8
0
100
AcDbLine
 62
7
  6
CONTINUOUS
 10
2.4163003103
 20
6.333391804
 11
3.7282890502
 21
6.333391804
  0
LINE
  5
218
100
AcDbEntity
  8
0
100
AcDbLine
 62
7
  6
CONTINUOUS
 10
10.9226330968
 20
6.333391804
 11
13.2219562636
 21
6.333391804
  0
LINE
  5
219
100
AcDbEntity
  8
0
100
AcDbLine
 62
7
  6
CONTINUOUS
 10
20.0598116017
 20
6.333391804
 11
22.0847777587
 21
6.333391804
  0
LINE
  5
21A
100
AcDbEntity
  8
0
100
AcDbLine
 62
7
  6
CONTINUOUS
 10
10.9426230897
 20
6.363391804
 11
13.2019662707
 21
6.363391804
  0
LINE
  5
21B
100
AcDbEntity
  8
0
100
AcDbLine
 62
7
  6
CONTINUOUS
 10
3.5518656301
 20
6.458391804
 11
2.5927237303
 21
6.458391804
  0
LINE
  5
21C
100
AcDbEntity
  8
0
100
AcDbLine
 62
9
  6
CONTINUOUS
 10
22.0847946802
 20
6.5823592717
 11
20.0597946802
 21
6.5823592717
  0
LINE
  5
21D
100
AcDbEntity
  8
0
100
AcDbLine
 62
7
  6
CONTINUOUS
 10
3.3646171947
 20
6.583391804
 11
2.7799721658
 21
6.583391804
  0
LINE
  5
21E
100
AcDbEntity
  8
0
100
AcDbLine
 62
9
  6
CONTINUOUS
 10
12.0722946802
 20
6.5980917846
 11
13.0483010903
 21
6.5982108785
  0
LINE
  5
21F
100
AcDbEntity
  8
0
100
AcDbLine
 62
9
  6
CONTINUOUS
 10
3.2306800488
 20
6.6046890341
 11
2.9139092908
 21
6.6046890341
  0
LINE
  5
220
100
AcDbEntity
  8
0
100
AcDbLine
 62
7
  6
CONTINUOUS
 10
22.0472946802
 20
6.653391804
 11
20.0972946802
 21
6.653391804
  0
LINE
  5
221
100
AcDbEntity
  8
0
100
AcDbLine
 62
9
  6
CONTINUOUS
 10
12.0722946802
 20
6.6964872132
 11
11.1568168804
 21
6.6963744749
  0
LINE
  5
222
100
AcDbEntity
  8
0
100
AcDbLine
 62
9
  6
CONTINUOUS
 10
13.0068778349
 20
6.696452108
 11
13.0047940148
 21
6.6964521728
  0
LINE
  5
223
100
AcDbEntity
  8
0
100
AcDbLine
 62
9
  6
CONTINUOUS
 10
11.0962852658
 20
6.598204266
 11
12.0722946802
 21
6.5980850276
  0
LINE
  5
224
100
AcDbEntity
  8
0
100
AcDbLine
 62
9
  6
CONTINUOUS
 10
12.9877749642
 20
6.6963684289
 11
12.0722946802
 21
6.6964813271
  0
LINE
  5
225
100
AcDbEntity
  8
0
100
AcDbLine
 62
9
  6
CONTINUOUS
 10
13.0670631571
 20
6.5980940211
 11
13.067066627
 21
6.5980938421
  0
LINE
  5
226
100
AcDbEntity
  8
0
100
AcDbLine
 62
9
  6
CONTINUOUS
 10
11.1397457192
 20
6.6963693146
 11
11.1377302471
 21
6.6964836701
  0
LINE
  5
227
100
AcDbEntity
  8
0
100
AcDbLine
 62
9
  6
CONTINUOUS
 10
13.0651505876
 20
6.5982054509
 11
13.0670632544
 21
6.5980938818
  0
LINE
  5
228
100
AcDbEntity
  8
0
100
AcDbLine
 62
7
  6
CONTINUOUS
 10
0.5672942109
 20
6.833391804
 11
-0.4227048505
 21
6.833391804
  0
LINE
  5
229
100
AcDbEntity
  8
0
100
AcDbLine
 62
9
  6
CONTINUOUS
 10
0.5347946802
 20
6.913391804
 11
-0.3902053198
 21
6.913391804
  0
LINE
  5
22A
100
AcDbEntity
  8
0
100
AcDbLine
 62
9
  6
CONTINUOUS
 10
-0.3549934068
 20
7.0774943681
 11
0.4995827673
 21
7.0774943681
  0
LINE
  5
22B
100
AcDbEntity
  8
0
100
AcDbLine
 62
7
  6
CONTINUOUS
 10
-0.3458737046
 20
7.083391804
 11
0.4904627385
 21
7.083391804
  0
LINE
  5
22C
100
AcDbEntity
  8
0
100
AcDbLine
 62
9
  6
CONTINUOUS
 10
2.7327842268
 20
7.1860253014
 11
3.4118050341
 21
7.1860253014
  0
LINE
  5
22D
100
AcDbEntity
  8
0
100
AcDbLine
 62
9
  6
CONTINUOUS
 10
2.7327843261
 20
7.1999124473
 11
3.411805034
 21
7.1999124474
  0
LINE
  5
22E
100
AcDbEntity
  8
0
100
AcDbLine
 62
9
  6
CONTINUOUS
 10
3.4118050341
 20
7.2545884105
 11
2.7327843264
 21
7.2545884105
  0
LINE
  5
22F
100
AcDbEntity
  8
0
100
AcDbLine
 62
9
  6
CONTINUOUS
 10
2.7327843264
 20
7.2739131093
 11
3.4118050341
 21
7.2739131093
  0
LINE
  5
230
100
AcDbEntity
  8
0
100
AcDbLine
 62
9
  6
CONTINUOUS
 10
3.2241841607
 20
7.3292786755
 11
2.9204052012
 21
7.3292786756
  0
LINE
  5
231
100
AcDbEntity
  8
0
100
AcDbLine
 62
7
  6
CONTINUOUS
 10
2.9204051997
 20
7.3299539767
 11
3.2241841606
 21
7.3299539767
  0
LINE
  5
232
100
AcDbEntity
  8
0
100
AcDbLine
 62
9
  6
CONTINUOUS
 10
20.3641024827
 20
7.4941369442
 11
21.7804868778
 21
7.4941369442
  0
LWPOLYLINE
  5
233
100
AcDbEntity
  8
0
100
AcDbPolyline
 62
7
  6
CONTINUOUS
 90
3
 70
0
 10
13.033570541
 20
6.6236755458
 10
13.0326403447
 20
6.6239808841
 10
13.0317336616
 20
6.6243283088
  0
LINE
  5
234
100
AcDbEntity
  8
0
100
AcDbLine
 62
9
  6
CONTINUOUS
 10
20.4154240768
 20
7.6367325769
 11
21.7291652836
 21
7.6367325769
  0
LINE
  5
235
100
AcDbEntity
  8
0
100
AcDbLine
 62
7
  6
CONTINUOUS
 10
13.0398210981
 20
6.6214010336
 11
13.0315063686
 21
6.6244234333
  0
LWPOLYLINE
  5
236
100
AcDbEntity
  8
0
100
AcDbPolyline
 62
7
  6
CONTINUOUS
 90
8
 70
0
 10
13.0317336616
 20
6.6243283088
 10
13.0308315587
 20
6.6247255999
 10
13.0299374947
 20
6.6251735792
 10
13.029054791
 20
6.625672969
 10
13.0281868601
 20
6.6262243037
 10
13.0273371979
 20
6.6268279258
 10
13.0265093774
 20
6.6274839828
 10
13.0257070448
 20
6.6281924228
  0
LINE
  5
237
100
AcDbEntity
  8
0
100
AcDbLine
 62
7
  6
CONTINUOUS
 10
12.428759384
 20
9.179399289
 11
12.4287621705
 21
9.1793996697
  0
LINE
  5
238
100
AcDbEntity
  8
0
100
AcDbLine
 62
9
  6
CONTINUOUS
 10
12.4259884413
 20
9.1792173895
 11
12.428759384
 21
9.179399289
  0
LINE
  5
239
100
AcDbEntity
  8
0
100
AcDbLine
 62
7
  6
CONTINUOUS
 10
12.4135034661
 20
9.1785489927
 11
12.4287593838
 21
9.1793992889
  0
LINE
  5
23A
100
AcDbEntity
  8
0
100
AcDbLine
 62
9
  6
CONTINUOUS
 10
12.4135034661
 20
9.1785489927
 11
12.4259884564
 21
9.1792173894
  0
LINE
  5
23B
100
AcDbEntity
  8
0
100
AcDbLine
 62
7
  6
CONTINUOUS
 10
11.7922945637
 20
8.832991804
 11
12.3522949703
 21
8.832991804
  0
LINE
  5
23C
100
AcDbEntity
  8
0
100
AcDbLine
 62
7
  6
CONTINUOUS
 10
11.7922946785
 20
8.863991804
 11
12.3522946811
 21
8.863991804
  0
LINE
  5
23D
100
AcDbEntity
  8
0
100
AcDbLine
 62
7
  6
CONTINUOUS
 10
13.0315063686
 20
6.6244234333
 11
13.0249632972
 21
6.6289240852
  0
LINE
  5
23E
100
AcDbEntity
  8
0
100
AcDbLine
 62
7
  6
CONTINUOUS
 10
13.0257070448
 20
6.6281924228
 11
13.0249632972
 21
6.6289240852
  0
LWPOLYLINE
  5
23F
100
AcDbEntity
  8
0
100
AcDbPolyline
 62
7
  6
CONTINUOUS
 90
3
 70
0
 10
13.0636155078
 20
6.6030286657
 10
13.052872476
 20
6.6137408779
 10
13.0398210981
 20
6.6214010336
  0
LWPOLYLINE
  5
240
100
AcDbEntity
  8
0
100
AcDbPolyline
 62
7
  6
CONTINUOUS
 90
5
 70
0
 10
11.1252015456
 20
6.6441904024
 10
11.1252464214
 20
6.6430924896
 10
11.1252208143
 20
6.6417784898
 10
11.1251115118
 20
6.640490596
 10
11.1249231378
 20
6.6392336891
  0
LINE
  5
241
100
AcDbEntity
  8
0
100
AcDbLine
 62
7
  6
CONTINUOUS
 10
10.9226330968
 20
6.3633918101
 11
10.9226330968
 21
6.333391804
  0
LINE
  5
242
100
AcDbEntity
  8
0
100
AcDbLine
 62
9
  6
CONTINUOUS
 10
10.9426230897
 20
6.333391804
 11
10.9426230897
 21
6.363391804
  0
LINE
  5
243
100
AcDbEntity
  8
0
100
AcDbLine
 62
7
  6
CONTINUOUS
 10
11.1252015456
 20
6.6441904024
 11
11.1239124698
 21
6.6356421881
  0
LINE
  5
244
100
AcDbEntity
  8
0
100
AcDbLine
 62
9
  6
CONTINUOUS
 10
11.9427910725
 20
9.4585499214
 11
11.7085736329
 21
9.2200811444
  0
LINE
  5
245
100
AcDbEntity
  8
0
100
AcDbLine
 62
9
  6
CONTINUOUS
 10
11.7366126789
 20
9.1902541843
 11
11.9717243375
 21
9.4296334115
  0
LINE
  5
246
100
AcDbEntity
  8
0
100
AcDbLine
 62
9
  6
CONTINUOUS
 10
12.4065970048
 20
9.9177093852
 11
12.1728650229
 21
9.6884906365
  0
LINE
  5
247
100
AcDbEntity
  8
0
100
AcDbLine
 62
9
  6
CONTINUOUS
 10
12.201798288
 20
9.6595741266
 11
12.4370724814
 21
9.8903053076
  0
LINE
  5
248
100
AcDbEntity
  8
0
100
AcDbLine
 62
9
  6
CONTINUOUS
 10
2.7186421907
 20
7.2754752064
 11
2.9204052012
 21
7.3292786756
  0
LINE
  5
249
100
AcDbEntity
  8
0
100
AcDbLine
 62
7
  6
CONTINUOUS
 10
2.9152519468
 20
7.3292786755
 11
2.7076310733
 21
7.2739131093
  0
LWPOLYLINE
  5
24A
100
AcDbEntity
  8
0
100
AcDbPolyline
 62
7
  6
CONTINUOUS
 90
4
 70
0
 10
11.7310805274
 20
9.1785488528
 10
11.7450394912
 20
9.1788940041
 10
11.7685459371
 20
9.1792868947
 10
11.7880869834
 20
9.1794212944
  0
LINE
  5
24B
100
AcDbEntity
  8
0
100
AcDbLine
 62
7
  6
CONTINUOUS
 10
11.7366645533
 20
9.1792979081
 11
11.7880869834
 21
9.1794212944
  0
LINE
  5
24C
100
AcDbEntity
  8
0
100
AcDbLine
 62
9
  6
CONTINUOUS
 10
12.1728650229
 20
9.4296334115
 11
11.9717243375
 21
9.4296334115
  0
LINE
  5
24D
100
AcDbEntity
  8
0
100
AcDbLine
 62
9
  6
CONTINUOUS
 10
11.9717243375
 20
9.4393566022
 11
12.1728650229
 21
9.4393566022
  0
LINE
  5
24E
100
AcDbEntity
  8
0
100
AcDbLine
 62
9
  6
CONTINUOUS
 10
12.1728650229
 20
9.678936154
 11
11.9717243375
 21
9.678936154
  0
LINE
  5
24F
100
AcDbEntity
  8
0
100
AcDbLine
 62
9
  6
CONTINUOUS
 10
11.9717243375
 20
9.6884906365
 11
12.1728650229
 21
9.6884906365
  0
LINE
  5
250
100
AcDbEntity
  8
0
100
AcDbLine
 62
7
  6
CONTINUOUS
 10
20.3322956821
 20
9.801391804
 11
21.8122936783
 21
9.801391804
  0
LINE
  5
251
100
AcDbEntity
  8
0
100
AcDbLine
 62
9
  6
CONTINUOUS
 10
20.3122946802
 20
9.8762249518
 11
21.8322946802
 21
9.8762249518
  0
LINE
  5
252
100
AcDbEntity
  8
0
100
AcDbLine
 62
7
  6
CONTINUOUS
 10
12.3565019319
 20
9.1794212954
 11
12.4079248038
 21
9.1792979081
  0
LWPOLYLINE
  5
253
100
AcDbEntity
  8
0
100
AcDbPolyline
 62
7
  6
CONTINUOUS
 90
3
 70
0
 10
12.3565019319
 20
9.1794212954
 10
12.3762872994
 20
9.1792840882
 10
12.4000709731
 20
9.1788825706
  0
LINE
  5
254
100
AcDbEntity
  8
0
100
AcDbLine
 62
7
  6
CONTINUOUS
 10
12.4000709731
 20
9.1788825706
 11
12.413465112
 21
9.178550046
  0
LINE
  5
255
100
AcDbEntity
  8
0
100
AcDbLine
 62
9
  6
CONTINUOUS
 10
11.7310805274
 20
9.1785488528
 11
11.7186009041
 21
9.179217394
  0
LINE
  5
256
100
AcDbEntity
  8
0
100
AcDbLine
 62
7
  6
CONTINUOUS
 10
11.7158299767
 20
9.1793992889
 11
11.7310865523
 21
9.1785490105
  0
LINE
  5
257
100
AcDbEntity
  8
0
100
AcDbLine
 62
9
  6
CONTINUOUS
 10
11.715830566
 20
9.1793992079
 11
11.7186009041
 21
9.179217389
  0
LINE
  5
258
100
AcDbEntity
  8
0
100
AcDbLine
 62
7
  6
CONTINUOUS
 10
11.7158270076
 20
9.1793996941
 11
11.715830566
 21
9.1793992079
  0
LWPOLYLINE
  5
259
100
AcDbEntity
  8
0
100
AcDbPolyline
 62
7
  6
CONTINUOUS
 90
8
 70
0
 10
13.0249339177
 20
6.6289529874
 10
13.0241937838
 20
6.6297652025
 10
13.0234905017
 20
6.6306283656
 10
13.0228280408
 20
6.631541468
 10
13.0222105229
 20
6.6325030617
 10
13.0216416674
 20
6.6335121576
 10
13.021125313
 20
6.6345676447
 10
13.0206809406
 20
6.6356311834
  0
LINE
  5
25A
100
AcDbEntity
  8
0
100
AcDbLine
 62
7
  6
CONTINUOUS
 10
13.0670670119
 20
6.5980885036
 11
13.0636155078
 21
6.6030286657
  0
LINE
  5
25B
100
AcDbEntity
  8
0
100
AcDbLine
 62
7
  6
CONTINUOUS
 10
13.2222694342
 20
6.3633918036
 11
13.1699682272
 21
6.439757349
  0
LINE
  5
25C
100
AcDbEntity
  8
0
100
AcDbLine
 62
7
  6
CONTINUOUS
 10
13.1699682272
 20
6.439757349
 11
13.1148066437
 21
6.5232076117
  0
LINE
  5
25D
100
AcDbEntity
  8
0
100
AcDbLine
 62
7
  6
CONTINUOUS
 10
13.0249632972
 20
6.6289240852
 11
13.0206809406
 21
6.6356311834
  0
LINE
  5
25E
100
AcDbEntity
  8
0
100
AcDbLine
 62
7
  6
CONTINUOUS
 10
13.1148066313
 20
6.5232076311
 11
13.0670667147
 21
6.5980937021
  0
LINE
  5
25F
100
AcDbEntity
  8
0
100
AcDbLine
 62
7
  6
CONTINUOUS
 10
13.0068779749
 20
6.6964521077
 11
12.859236462
 21
6.9605860015
  0
LWPOLYLINE
  5
260
100
AcDbEntity
  8
0
100
AcDbPolyline
 62
7
  6
CONTINUOUS
 90
3
 70
0
 10
11.6982325106
 20
9.215907864
 10
11.6984147613
 20
9.2035847684
 10
11.6985446248
 20
9.1986259064
  0
LINE
  5
261
100
AcDbEntity
  8
0
100
AcDbLine
 62
9
  6
CONTINUOUS
 10
11.7366126797
 20
9.1902541841
 11
11.7366645572
 21
9.1792979081
  0
LINE
  5
262
100
AcDbEntity
  8
0
100
AcDbLine
 62
9
  6
CONTINUOUS
 10
11.7379879252
 20
9.9177137125
 11
11.7379629277
 21
9.9274786847
  0
LINE
  5
263
100
AcDbEntity
  8
0
100
AcDbLine
 62
7
  6
CONTINUOUS
 10
11.6982325106
 20
9.215907864
 11
11.6971088004
 21
9.8896923291
  0
LINE
  5
264
100
AcDbEntity
  8
0
100
AcDbLine
 62
7
  6
CONTINUOUS
 10
11.7085736329
 20
9.2200811444
 11
11.707516879
 21
9.8903053077
  0
LINE
  5
265
100
AcDbEntity
  8
0
100
AcDbLine
 62
7
  6
CONTINUOUS
 10
11.7922946802
 20
9.1794212944
 11
11.7922946802
 21
8.863991804
  0
LINE
  5
266
100
AcDbEntity
  8
0
100
AcDbLine
 62
9
  6
CONTINUOUS
 10
11.8122946886
 20
9.1794599369
 11
11.8122946886
 21
8.8639918362
  0
LINE
  5
267
100
AcDbEntity
  8
0
100
AcDbLine
 62
7
  6
CONTINUOUS
 10
11.8192946802
 20
8.832991804
 11
11.8192946802
 21
8.863991804
  0
LINE
  5
268
100
AcDbEntity
  8
0
100
AcDbLine
 62
9
  6
CONTINUOUS
 10
11.9427910725
 20
9.4585499214
 11
11.9427910725
 21
9.6595741266
  0
LINE
  5
269
100
AcDbEntity
  8
0
100
AcDbLine
 62
9
  6
CONTINUOUS
 10
11.9524354942
 20
9.6596584807
 11
11.9524354942
 21
9.4586342755
  0
LINE
  5
26A
100
AcDbEntity
  8
0
100
AcDbLine
 62
9
  6
CONTINUOUS
 10
11.9717243375
 20
9.6884906365
 11
11.9717243375
 21
9.678936154
  0
LINE
  5
26B
100
AcDbEntity
  8
0
100
AcDbLine
 62
9
  6
CONTINUOUS
 10
11.9717243375
 20
9.4393566022
 11
11.9717243375
 21
9.4296334115
  0
LINE
  5
26C
100
AcDbEntity
  8
0
100
AcDbLine
 62
9
  6
CONTINUOUS
 10
12.0722946802
 20
6.333391804
 11
12.0722946802
 21
8.8329918014
  0
LINE
  5
26D
100
AcDbEntity
  8
0
100
AcDbLine
 62
9
  6
CONTINUOUS
 10
12.0722946802
 20
9.9176264706
 11
12.0722946802
 21
9.927408066
  0
LINE
  5
26E
100
AcDbEntity
  8
0
100
AcDbLine
 62
9
  6
CONTINUOUS
 10
12.172865023
 20
9.4296334115
 11
12.172865023
 21
9.4393566022
  0
LINE
  5
26F
100
AcDbEntity
  8
0
100
AcDbLine
 62
9
  6
CONTINUOUS
 10
12.1728650229
 20
9.678936154
 11
12.1728650229
 21
9.6884906365
  0
LINE
  5
270
100
AcDbEntity
  8
0
100
AcDbLine
 62
9
  6
CONTINUOUS
 10
12.1921538663
 20
9.4586342755
 11
12.1921538663
 21
9.6596584807
  0
LINE
  5
271
100
AcDbEntity
  8
0
100
AcDbLine
 62
9
  6
CONTINUOUS
 10
12.201798288
 20
9.6595741266
 11
12.201798288
 21
9.4585499214
  0
LINE
  5
272
100
AcDbEntity
  8
0
100
AcDbLine
 62
7
  6
CONTINUOUS
 10
12.3252946802
 20
8.832991804
 11
12.3252946802
 21
8.863991804
  0
LINE
  5
273
100
AcDbEntity
  8
0
100
AcDbLine
 62
9
  6
CONTINUOUS
 10
12.3322946784
 20
8.863991836
 11
12.3322946784
 21
9.1794599371
  0
LINE
  5
274
100
AcDbEntity
  8
0
100
AcDbLine
 62
7
  6
CONTINUOUS
 10
12.3522946802
 20
8.863991804
 11
12.3522946802
 21
9.1794280114
  0
LINE
  5
275
100
AcDbEntity
  8
0
100
AcDbLine
 62
7
  6
CONTINUOUS
 10
11.1249231378
 20
6.6392336891
 11
11.1246603878
 21
6.6380117119
  0
LWPOLYLINE
  5
276
100
AcDbEntity
  8
0
100
AcDbPolyline
 62
7
  6
CONTINUOUS
 90
3
 70
0
 10
11.1312126468
 20
6.6831938414
 10
11.1254915966
 20
6.6597589686
 10
11.125204774
 20
6.6441939466
  0
LWPOLYLINE
  5
277
100
AcDbEntity
  8
0
100
AcDbPolyline
 62
7
  6
CONTINUOUS
 90
3
 70
0
 10
11.1246603878
 20
6.6380117119
 10
11.1243279311
 20
6.6368279407
 10
11.1239303388
 20
6.635685068
  0
LINE
  5
278
100
AcDbEntity
  8
0
100
AcDbLine
 62
7
  6
CONTINUOUS
 10
11.5260603653
 20
7.5023998237
 11
11.5260578244
 21
7.5023929035
  0
LINE
  5
279
100
AcDbEntity
  8
0
100
AcDbLine
 62
7
  6
CONTINUOUS
 10
11.5260609316
 20
7.5024013118
 11
11.4162913167
 21
7.2321997832
  0
LWPOLYLINE
  5
27A
100
AcDbEntity
  8
0
100
AcDbPolyline
 62
7
  6
CONTINUOUS
 90
7
 70
0
 10
11.1239303388
 20
6.635685068
 10
11.1234720324
 20
6.6345852824
 10
11.1229572507
 20
6.6335303451
 10
11.1223900305
 20
6.6325216607
 10
11.1217741998
 20
6.6315603409
 10
11.1211134611
 20
6.6306473662
 10
11.1204119157
 20
6.6297841774
  0
LINE
  5
27B
100
AcDbEntity
  8
0
100
AcDbLine
 62
7
  6
CONTINUOUS
 10
11.4162969249
 20
7.232213588
 11
11.2853242379
 21
6.9605309603
  0
LINE
  5
27C
100
AcDbEntity
  8
0
100
AcDbLine
 62
7
  6
CONTINUOUS
 10
11.1377330914
 20
6.6964816566
 11
11.1312126468
 21
6.6831938414
  0
LINE
  5
27D
100
AcDbEntity
  8
0
100
AcDbLine
 62
7
  6
CONTINUOUS
 10
11.2853374407
 20
6.9605583474
 11
11.1377302434
 21
6.6964836706
  0
LINE
  5
27E
100
AcDbEntity
  8
0
100
AcDbLine
 62
7
  6
CONTINUOUS
 10
11.0775227334
 20
6.5980938421
 11
11.0297827405
 21
6.5232076482
  0
LINE
  5
27F
100
AcDbEntity
  8
0
100
AcDbLine
 62
7
  6
CONTINUOUS
 10
11.1239115431
 20
6.6356360897
 11
11.1196343666
 21
6.6289331671
  0
LINE
  5
280
100
AcDbEntity
  8
0
100
AcDbLine
 62
7
  6
CONTINUOUS
 10
11.0297827291
 20
6.523207631
 11
10.9746211398
 21
6.4397573585
  0
LWPOLYLINE
  5
281
100
AcDbEntity
  8
0
100
AcDbPolyline
 62
7
  6
CONTINUOUS
 90
4
 70
0
 10
11.7379629254
 20
9.9274786851
 10
11.7339744628
 20
9.9274546214
 10
11.7212465543
 20
9.9271313901
 10
11.7161320324
 20
9.9268967127
  0
LINE
  5
282
100
AcDbEntity
  8
0
100
AcDbLine
 62
7
  6
CONTINUOUS
 10
12.3088751538
 20
9.927525268
 11
12.0722946802
 21
9.927408065
  0
LINE
  5
283
100
AcDbEntity
  8
0
100
AcDbLine
 62
9
  6
CONTINUOUS
 10
21.8322946802
 20
10.4356525729
 11
20.3122946802
 21
10.4356525729
  0
LINE
  5
284
100
AcDbEntity
  8
0
100
AcDbLine
 62
9
  6
CONTINUOUS
 10
20.2838259015
 20
10.5055330736
 11
21.860763459
 21
10.5055330736
  0
LWPOLYLINE
  5
285
100
AcDbEntity
  8
0
100
AcDbPolyline
 62
7
  6
CONTINUOUS
 90
3
 70
0
 10
12.0722946802
 20
9.927408066
 10
11.8349129986
 20
9.9275253909
 10
11.7379629249
 20
9.9274786851
  0
LINE
  5
286
100
AcDbEntity
  8
0
100
AcDbLine
 62
7
  6
CONTINUOUS
 10
12.4066264355
 20
9.9274786851
 11
12.3088751538
 21
9.927525268
  0
LWPOLYLINE
  5
287
100
AcDbEntity
  8
0
100
AcDbPolyline
 62
7
  6
CONTINUOUS
 90
4
 70
0
 10
12.4284573663
 20
9.9268967106
 10
12.4226364066
 20
9.9271590357
 10
12.4098951471
 20
9.9274617564
 10
12.4066264381
 20
9.9274786851
  0
LINE
  5
288
100
AcDbEntity
  8
0
100
AcDbLine
 62
9
  6
CONTINUOUS
 10
11.707516879
 20
9.8903053077
 11
11.9427910725
 21
9.6595741266
  0
LINE
  5
289
100
AcDbEntity
  8
0
100
AcDbLine
 62
9
  6
CONTINUOUS
 10
11.9717243375
 20
9.6884906365
 11
11.737987925
 21
9.9177137302
  0
LINE
  5
28A
100
AcDbEntity
  8
0
100
AcDbLine
 62
9
  6
CONTINUOUS
 10
12.1728650229
 20
9.4296334115
 11
12.4079766816
 21
9.1902541843
  0
LINE
  5
28B
100
AcDbEntity
  8
0
100
AcDbLine
 62
9
  6
CONTINUOUS
 10
12.4360157276
 20
9.2200811444
 11
12.201798288
 21
9.4585499214
  0
LWPOLYLINE
  5
28C
100
AcDbEntity
  8
0
100
AcDbPolyline
 62
7
  6
CONTINUOUS
 90
3
 70
0
 10
12.8592519197
 20
6.9605583474
 10
12.7282859104
 20
7.2322271236
 10
12.6185283928
 20
7.5024014096
  0
LWPOLYLINE
  5
28D
100
AcDbEntity
  8
0
100
AcDbPolyline
 62
7
  6
CONTINUOUS
 90
8
 70
0
 10
13.0206655082
 20
6.6356681185
 10
13.0202665046
 20
6.6368118174
 10
13.0199327381
 20
6.6379965511
 10
13.0196687952
 20
6.6392196241
 10
13.0194793619
 20
6.6404777553
 10
13.0193691517
 20
6.6417669951
 10
13.0193428073
 20
6.6430824506
 10
13.019387809
 20
6.6441903175
  0
LWPOLYLINE
  5
28E
100
AcDbEntity
  8
0
100
AcDbPolyline
 62
7
  6
CONTINUOUS
 90
4
 70
0
 10
13.0193845865
 20
6.6441939466
 10
13.0190977638
 20
6.6597589686
 10
13.0133767136
 20
6.6831938414
 10
13.0068562691
 20
6.6964816566
  0
LINE
  5
28F
100
AcDbEntity
  8
0
100
AcDbLine
 62
7
  6
CONTINUOUS
 10
12.4370724814
 20
9.8903053076
 11
12.4360157276
 21
9.2200811444
  0
LINE
  5
290
100
AcDbEntity
  8
0
100
AcDbLine
 62
9
  6
CONTINUOUS
 10
12.4066014391
 20
9.9177137296
 11
12.4066264381
 21
9.9274786851
  0
LINE
  5
291
100
AcDbEntity
  8
0
100
AcDbLine
 62
9
  6
CONTINUOUS
 10
12.4079766816
 20
9.1902541843
 11
12.4079248038
 21
9.179297908
  0
LWPOLYLINE
  5
292
100
AcDbEntity
  8
0
100
AcDbPolyline
 62
7
  6
CONTINUOUS
 90
4
 70
0
 10
12.4460447359
 20
9.1986259153
 10
12.4461899842
 20
9.2042695201
 10
12.4463610465
 20
9.2166003694
 10
12.447480591
 20
9.8896923285
  0
LINE
  5
293
100
AcDbEntity
  8
0
100
AcDbLine
 62
7
  6
CONTINUOUS
 10
10.9746211333
 20
6.439757349
 11
10.9223199262
 21
6.3633918036
  0
LINE
  5
294
100
AcDbEntity
  8
0
100
AcDbLine
 62
7
  6
CONTINUOUS
 10
11.0809738526
 20
6.6030286657
 11
11.0775223485
 21
6.5980885036
  0
LINE
  5
295
100
AcDbEntity
  8
0
100
AcDbLine
 62
7
  6
CONTINUOUS
 10
11.1204119157
 20
6.6297841774
 11
11.1196735233
 21
6.6289717901
  0
LINE
  5
296
100
AcDbEntity
  8
0
100
AcDbLine
 62
7
  6
CONTINUOUS
 10
11.0917813472
 20
6.6137850449
 11
11.0810140093
 21
6.603071438
  0
LWPOLYLINE
  5
297
100
AcDbEntity
  8
0
100
AcDbPolyline
 62
7
  6
CONTINUOUS
 90
8
 70
0
 10
11.1196735233
 20
6.6289717901
 10
11.1189021295
 20
6.6282109098
 10
11.1181015094
 20
6.627502014
 10
11.1172753684
 20
6.6268453654
 10
11.1164273408
 20
6.6262410215
 10
11.1155609884
 20
6.6256888406
 10
11.114679796
 20
6.6251884872
 10
11.113787166
 20
6.6247394349
  0
LINE
  5
298
100
AcDbEntity
  8
0
100
AcDbLine
 62
7
  6
CONTINUOUS
 10
11.1196305302
 20
6.6289271633
 11
11.1130830032
 21
6.6244234381
  0
LINE
  5
299
100
AcDbEntity
  8
0
100
AcDbLine
 62
7
  6
CONTINUOUS
 10
11.1047682624
 20
6.6214010336
 11
11.0917658301
 21
6.6137696052
  0
LWPOLYLINE
  5
29A
100
AcDbEntity
  8
0
100
AcDbPolyline
 62
7
  6
CONTINUOUS
 90
3
 70
0
 10
11.113787166
 20
6.6247394349
 10
11.1128864103
 20
6.62434097
 10
11.1119809461
 20
6.6239922688
  0
LINE
  5
29B
100
AcDbEntity
  8
0
100
AcDbLine
 62
7
  6
CONTINUOUS
 10
11.1130830032
 20
6.6244234381
 11
11.1048247628
 21
6.6214215818
  0
LINE
  5
29C
100
AcDbEntity
  8
0
100
AcDbLine
 62
7
  6
CONTINUOUS
 10
11.1119809461
 20
6.6239922688
 11
11.1110190159
 21
6.623675605
  0
LINE
  5
29D
100
AcDbEntity
  8
0
100
AcDbLine
 62
7
  6
CONTINUOUS
 10
20.0069170761
 20
10.801391804
 11
20.2049922669
 21
10.801391804
  0
LINE
  5
29E
100
AcDbEntity
  8
0
100
AcDbLine
 62
7
  6
CONTINUOUS
 10
20.4329256367
 20
10.801391804
 11
20.9111214488
 21
10.801391804
  0
LINE
  5
29F
100
AcDbEntity
  8
0
100
AcDbLine
 62
7
  6
CONTINUOUS
 10
21.2334679117
 20
10.801391804
 11
21.7116637237
 21
10.801391804
  0
LINE
  5
2A0
100
AcDbEntity
  8
0
100
AcDbLine
 62
7
  6
CONTINUOUS
 10
21.9395970936
 20
10.801391804
 11
22.1376722844
 21
10.801391804
  0
LINE
  5
2A1
100
AcDbEntity
  8
0
100
AcDbLine
 62
9
  6
CONTINUOUS
 10
22.1376722844
 20
11.411391804
 11
21.9395970936
 21
11.411391804
  0
LINE
  5
2A2
100
AcDbEntity
  8
0
100
AcDbLine
 62
9
  6
CONTINUOUS
 10
21.7116637237
 20
11.411391804
 11
21.2334679117
 21
11.411391804
  0
LINE
  5
2A3
100
AcDbEntity
  8
0
100
AcDbLine
 62
9
  6
CONTINUOUS
 10
20.9111214488
 20
11.411391804
 11
20.4329256367
 21
11.411391804
  0
LINE
  5
2A4
100
AcDbEntity
  8
0
100
AcDbLine
 62
9
  6
CONTINUOUS
 10
20.2049922669
 20
11.411391804
 11
20.0069170761
 21
11.411391804
  0
LINE
  5
2A5
100
AcDbEntity
  8
0
100
AcDbLine
 62
7
  6
CONTINUOUS
 10
13.0206778173
 20
6.6356360897
 11
13.019387809
 21
6.6441903175
  0
LINE
  5
2A6
100
AcDbEntity
  8
0
100
AcDbLine
 62
9
  6
CONTINUOUS
 10
13.2019662707
 20
6.363391804
 11
13.2019662707
 21
6.333391804
  0
LINE
  5
2A7
100
AcDbEntity
  8
0
100
AcDbLine
 62
7
  6
CONTINUOUS
 10
13.2219562636
 20
6.333391804
 11
13.2219562636
 21
6.3633918101
  0
LINE
  5
2A8
100
AcDbEntity
  8
0
100
AcDbLine
 62
7
  6
CONTINUOUS
 10
21.9997796386
 20
11.561391804
 11
20.1448097219
 21
11.561391804
  0
LINE
  5
2A9
100
AcDbEntity
  8
0
100
AcDbLine
 62
9
  6
CONTINUOUS
 10
20.1631582472
 20
11.621391804
 11
21.9814311133
 21
11.621391804
  0
LINE
  5
2AA
100
AcDbEntity
  8
0
100
AcDbLine
 62
7
  6
CONTINUOUS
 10
21.860763459
 20
10.5055330736
 11
22.0622946802
 21
10.7118248749
  0
LINE
  5
2AB
100
AcDbEntity
  8
0
100
AcDbLine
 62
7
  6
CONTINUOUS
 10
20.2838259015
 20
10.5055330736
 11
20.0822946802
 21
10.7118248749
  0
LINE
  5
2AC
100
AcDbEntity
  8
0
100
AcDbLine
 62
7
  6
CONTINUOUS
 10
20.0069170761
 20
10.801391804
 11
20.0069170761
 21
11.411391804
  0
LINE
  5
2AD
100
AcDbEntity
  8
0
100
AcDbLine
 62
7
  6
CONTINUOUS
 10
20.0597946802
 20
6.5823592717
 11
20.0597946802
 21
6.333391804
  0
LINE
  5
2AE
100
AcDbEntity
  8
0
100
AcDbLine
 62
7
  6
CONTINUOUS
 10
20.4337665428
 20
10.7854668398
 11
20.4329256367
 21
10.801391804
  0
LINE
  5
2AF
100
AcDbEntity
  8
0
100
AcDbLine
 62
7
  6
CONTINUOUS
 10
20.2049922669
 20
10.801391804
 11
20.2049922669
 21
11.411391804
  0
LINE
  5
2B0
100
AcDbEntity
  8
0
100
AcDbLine
 62
7
  6
CONTINUOUS
 10
20.3122946802
 20
10.4356525729
 11
20.3122946802
 21
9.8762249518
  0
LINE
  5
2B1
100
AcDbEntity
  8
0
100
AcDbLine
 62
7
  6
CONTINUOUS
 10
20.4329256367
 20
10.801391804
 11
20.4329256367
 21
11.411391804
  0
LINE
  5
2B2
100
AcDbEntity
  8
0
100
AcDbLine
 62
7
  6
CONTINUOUS
 10
20.9111214488
 20
10.801391804
 11
20.9111214488
 21
11.411391804
  0
LINE
  5
2B3
100
AcDbEntity
  8
0
100
AcDbLine
 62
7
  6
CONTINUOUS
 10
20.4967057474
 20
9.801391804
 11
20.4154240768
 21
7.6367325769
  0
LINE
  5
2B4
100
AcDbEntity
  8
0
100
AcDbLine
 62
7
  6
CONTINUOUS
 10
21.647883613
 20
9.801391804
 11
21.7291652836
 21
7.6367325769
  0
LINE
  5
2B5
100
AcDbEntity
  8
0
100
AcDbLine
 62
7
  6
CONTINUOUS
 10
21.2334679117
 20
10.801391804
 11
21.2334679117
 21
11.411391804
  0
LINE
  5
2B6
100
AcDbEntity
  8
0
100
AcDbLine
 62
7
  6
CONTINUOUS
 10
21.7116637237
 20
10.801391804
 11
21.7116637237
 21
11.411391804
  0
LINE
  5
2B7
100
AcDbEntity
  8
0
100
AcDbLine
 62
7
  6
CONTINUOUS
 10
21.8322946802
 20
10.4356525729
 11
21.8322946802
 21
9.8762249518
  0
LINE
  5
2B8
100
AcDbEntity
  8
0
100
AcDbLine
 62
7
  6
CONTINUOUS
 10
21.9395970936
 20
10.801391804
 11
21.9395970936
 21
11.411391804
  0
LINE
  5
2B9
100
AcDbEntity
  8
0
100
AcDbLine
 62
7
  6
CONTINUOUS
 10
22.0847946802
 20
6.5823592717
 11
22.0847946802
 21
6.333391804
  0
LINE
  5
2BA
100
AcDbEntity
  8
0
100
AcDbLine
 62
7
  6
CONTINUOUS
 10
22.1376722844
 20
10.801391804
 11
22.1376722844
 21
11.411391804
  0
LINE
  5
2BB
100
AcDbEntity
  8
0
100
AcDbLine
 62
7
  6
CONTINUOUS
 10
21.7116637237
 20
10.801391804
 11
21.7108228177
 21
10.7854665963
  0
ARC
  5
2BC
100
AcDbEntity
  8
0
100
AcDbCircle
 62
7
  6
CONTINUOUS
 10
0.1635150865
 20
6.1504967643
 40
0.9
100
AcDbArc
 50
130.6439171763
 51
168.2748731243
  0
ARC
  5
2BD
100
AcDbEntity
  8
0
100
AcDbCircle
 62
7
  6
CONTINUOUS
 10
-0.0189257261
 20
6.1504967643
 40
0.9
100
AcDbArc
 50
11.7251268757
 51
49.3560828237
  0
ARC
  5
2BE
100
AcDbEntity
  8
0
100
AcDbCircle
 62
7
  6
CONTINUOUS
 10
0.0097946802
 20
6.913391804
 40
0.4
100
AcDbArc
 50
155.7790568908
 51
180.0
  0
ARC
  5
2BF
100
AcDbEntity
  8
0
100
AcDbCircle
 62
7
  6
CONTINUOUS
 10
0.1347946802
 20
6.913391804
 40
0.4
100
AcDbArc
 50
0.0
 51
24.2209431092
  0
ARC
  5
2C0
100
AcDbEntity
  8
0
100
AcDbCircle
 62
7
  6
CONTINUOUS
 10
-0.3458737046
 20
7.073391804
 40
0.01
100
AcDbArc
 50
90.0
 51
155.7790568908
  0
ARC
  5
2C1
100
AcDbEntity
  8
0
100
AcDbCircle
 62
7
  6
CONTINUOUS
 10
0.4904630651
 20
7.073391804
 40
0.01
100
AcDbArc
 50
24.2209431092
 51
90.0
  0
ARC
  5
2C2
100
AcDbEntity
  8
0
100
AcDbCircle
 62
7
  6
CONTINUOUS
 10
2.0441208808
 20
6.659778478
 40
0.8516144736
100
AcDbArc
 50
356.2910459309
 51
1.5188206349
  0
ARC
  5
2C3
100
AcDbEntity
  8
0
100
AcDbCircle
 62
7
  6
CONTINUOUS
 10
4.1003051183
 20
6.6597729542
 40
0.8514510971
100
AcDbArc
 50
178.5945271816
 51
183.7092962259
  0
ARC
  5
2C4
100
AcDbEntity
  8
0
100
AcDbCircle
 62
7
  6
CONTINUOUS
 10
3.5518718926
 20
6.271391804
 40
0.187
100
AcDbArc
 50
19.3629299219
 51
90.0
  0
ARC
  5
2C5
100
AcDbEntity
  8
0
100
AcDbCircle
 62
7
  6
CONTINUOUS
 10
2.5927174679
 20
6.271391804
 40
0.187
100
AcDbArc
 50
90.0
 51
160.6370700781
  0
ARC
  5
2C6
100
AcDbEntity
  8
0
100
AcDbCircle
 62
7
  6
CONTINUOUS
 10
2.7799674679
 20
6.396391804
 40
0.187
100
AcDbArc
 50
90.0
 51
160.6370700781
  0
ARC
  5
2C7
100
AcDbEntity
  8
0
100
AcDbCircle
 62
7
  6
CONTINUOUS
 10
3.3646218926
 20
6.396391804
 40
0.187
100
AcDbArc
 50
19.3629299219
 51
90.0
  0
ARC
  5
2C8
100
AcDbEntity
  8
0
100
AcDbCircle
 62
7
  6
CONTINUOUS
 10
2.91390929
 20
6.603391804
 40
0.02
100
AcDbArc
 50
176.2810503437
 51
270.0004664731
  0
ARC
  5
2C9
100
AcDbEntity
  8
0
100
AcDbCircle
 62
7
  6
CONTINUOUS
 10
3.2306798081
 20
6.603391804
 40
0.02
100
AcDbArc
 50
270.0002871133
 51
3.7189009125
  0
ARC
  5
2CA
100
AcDbEntity
  8
0
100
AcDbCircle
 62
7
  6
CONTINUOUS
 10
2.2588971955
 20
6.761970653
 40
0.6107190681
100
AcDbArc
 50
43.2038951224
 51
43.9756861646
  0
ARC
  5
2CB
100
AcDbEntity
  8
0
100
AcDbCircle
 62
7
  6
CONTINUOUS
 10
3.8856921648
 20
6.7619706532
 40
0.6107190678
100
AcDbArc
 50
136.0243138381
 51
136.7961047276
  0
ARC
  5
2CC
100
AcDbEntity
  8
0
100
AcDbCircle
 62
7
  6
CONTINUOUS
 10
2.2593321367
 20
6.7623881326
 40
0.6101161938
100
AcDbArc
 50
43.6564205147
 51
43.8116715276
  0
ARC
  5
2CD
100
AcDbEntity
  8
0
100
AcDbCircle
 62
7
  6
CONTINUOUS
 10
3.4318050341
 20
7.2545884105
 40
0.02
100
AcDbArc
 50
0.0
 51
75.0685828224
  0
ARC
  5
2CE
100
AcDbEntity
  8
0
100
AcDbCircle
 62
7
  6
CONTINUOUS
 10
3.4318050341
 20
7.1999124474
 40
0.02
100
AcDbArc
 50
316.0239758277
 51
359.999999869
  0
ARC
  5
2CF
100
AcDbEntity
  8
0
100
AcDbCircle
 62
7
  6
CONTINUOUS
 10
2.7127843264
 20
7.1999124474
 40
0.02
100
AcDbArc
 50
180.000000131
 51
223.9760241723
  0
ARC
  5
2D0
100
AcDbEntity
  8
0
100
AcDbCircle
 62
7
  6
CONTINUOUS
 10
2.7127843264
 20
7.2545884105
 40
0.02
100
AcDbArc
 50
104.9314171776
 51
180.0
  0
ARC
  5
2D1
100
AcDbEntity
  8
0
100
AcDbCircle
 62
7
  6
CONTINUOUS
 10
2.9204051998
 20
7.3099539767
 40
0.02
100
AcDbArc
 50
90.0
 51
104.9314168221
  0
ARC
  5
2D2
100
AcDbEntity
  8
0
100
AcDbCircle
 62
7
  6
CONTINUOUS
 10
3.2241841606
 20
7.3099539767
 40
0.02
100
AcDbArc
 50
75.0685831779
 51
90.0
  0
ARC
  5
2D3
100
AcDbEntity
  8
0
100
AcDbCircle
 62
7
  6
CONTINUOUS
 10
5.1630664012
 20
9.8951630036
 40
7.2843626529
100
AcDbArc
 50
359.9569230826
 51
0.0923212628
  0
ARC
  5
2D4
100
AcDbEntity
  8
0
100
AcDbCircle
 62
7
  6
CONTINUOUS
 10
11.2171461504
 20
6.6499825613
 40
0.0902370579
100
AcDbArc
 50
149.068577812
 51
183.7293268152
  0
ARC
  5
2D5
100
AcDbEntity
  8
0
100
AcDbCircle
 62
9
  6
CONTINUOUS
 10
11.1301109539
 20
6.5662782611
 40
0.0598891233
100
AcDbArc
 50
106.6519807085
 51
147.7972914722
  0
ARC
  5
2D6
100
AcDbEntity
  8
0
100
AcDbCircle
 62
7
  6
CONTINUOUS
 10
11.1073095488
 20
6.6425110168
 40
0.0196815327
100
AcDbArc
 50
286.6591047176
 51
299.1031849726
  0
ARC
  5
2D7
100
AcDbEntity
  8
0
100
AcDbCircle
 62
7
  6
CONTINUOUS
 10
10.942627445
 20
6.3776606609
 40
0.0142688575
100
AcDbArc
 50
256.2983919226
 51
269.9825117191
  0
ARC
  5
2D8
100
AcDbEntity
  8
0
100
AcDbCircle
 62
9
  6
CONTINUOUS
 10
6.5828498847
 20
9.4522226565
 40
5.3400862578
100
AcDbArc
 50
324.665618676
 51
327.6932617697
  0
ARC
  5
2D9
100
AcDbEntity
  8
0
100
AcDbCircle
 62
9
  6
CONTINUOUS
 10
6.582547502
 20
9.4313812559
 40
5.3149709404
100
AcDbArc
 50
324.748998022
 51
327.7878241542
  0
ARC
  5
2DA
100
AcDbEntity
  8
0
100
AcDbCircle
 62
7
  6
CONTINUOUS
 10
7.3424648056
 20
9.0304946317
 40
4.4539333869
100
AcDbArc
 50
339.9351784472
 51
343.4770607442
  0
ARC
  5
2DB
100
AcDbEntity
  8
0
100
AcDbCircle
 62
9
  6
CONTINUOUS
 10
11.9162430817
 20
10.2425226692
 40
1.0674905368
100
AcDbArc
 50
259.063094832
 51
260.3125462991
  0
ARC
  5
2DC
100
AcDbEntity
  8
0
100
AcDbCircle
 62
9
  6
CONTINUOUS
 10
11.7252964878
 20
9.7705155303
 40
0.721785741
100
AcDbArc
 50
9.5531857172
 51
11.3193660197
  0
ARC
  5
2DD
100
AcDbEntity
  8
0
100
AcDbCircle
 62
9
  6
CONTINUOUS
 10
11.9523944226
 20
9.1129763524
 40
0.5466821298
100
AcDbArc
 50
89.9956954364
 51
91.006544212
  0
ARC
  5
2DE
100
AcDbEntity
  8
0
100
AcDbCircle
 62
9
  6
CONTINUOUS
 10
11.9520923877
 20
8.9464846815
 40
0.5121497089
100
AcDbArc
 50
89.9616156132
 51
91.0406242531
  0
ARC
  5
2DF
100
AcDbEntity
  8
0
100
AcDbCircle
 62
9
  6
CONTINUOUS
 10
11.7939104329
 20
9.5842241213
 40
0.3381458948
100
AcDbArc
 50
99.5192998021
 51
104.0975528063
  0
ARC
  5
2E0
100
AcDbEntity
  8
0
100
AcDbCircle
 62
7
  6
CONTINUOUS
 10
11.718556615
 20
9.1992861513
 40
0.0200729155
100
AcDbArc
 50
245.234805966
 51
262.1844401798
  0
ARC
  5
2E1
100
AcDbEntity
  8
0
100
AcDbCircle
 62
7
  6
CONTINUOUS
 10
11.7185379066
 20
9.1992155262
 40
0.0200011494
100
AcDbArc
 50
181.6893874757
 51
245.198719838
  0
ARC
  5
2E2
100
AcDbEntity
  8
0
100
AcDbCircle
 62
7
  6
CONTINUOUS
 10
11.7171688636
 20
9.9069236332
 40
0.0199999996
100
AcDbArc
 50
92.9794474258
 51
179.9141827487
  0
ARC
  5
2E3
100
AcDbEntity
  8
0
100
AcDbCircle
 62
7
  6
CONTINUOUS
 10
12.0722946353
 20
-121.6831517901
 40
130.8628801018
100
AcDbArc
 50
89.8755652396
 51
90.1244349159
  0
ARC
  5
2E4
100
AcDbEntity
  8
0
100
AcDbCircle
 62
9
  6
CONTINUOUS
 10
12.0722946802
 20
-117.432093314
 40
126.6227924521
100
AcDbArc
 50
89.8481064578
 51
90.1518935422
  0
ARC
  5
2E5
100
AcDbEntity
  8
0
100
AcDbCircle
 62
9
  6
CONTINUOUS
 10
12.927325926
 20
6.6499586178
 40
0.090349012
100
AcDbArc
 50
356.2904465415
 51
30.9072251295
  0
ARC
  5
2E6
100
AcDbEntity
  8
0
100
AcDbCircle
 62
7
  6
CONTINUOUS
 10
13.0143257596
 20
6.566146426
 40
0.0600921315
100
AcDbArc
 50
32.2420449592
 51
45.534085193
  0
ARC
  5
2E7
100
AcDbEntity
  8
0
100
AcDbCircle
 62
7
  6
CONTINUOUS
 10
13.0145032602
 20
6.5663099914
 40
0.0598510649
100
AcDbArc
 50
45.5456697815
 51
73.3694109037
  0
ARC
  5
2E8
100
AcDbEntity
  8
0
100
AcDbCircle
 62
7
  6
CONTINUOUS
 10
13.2019499026
 20
6.3777607759
 40
0.0143689812
100
AcDbArc
 50
270.0652672144
 51
283.6536035144
  0
ARC
  5
2E9
100
AcDbEntity
  8
0
100
AcDbCircle
 62
7
  6
CONTINUOUS
 10
17.5999712785
 20
9.4567363676
 40
5.3605781126
100
AcDbArc
 50
212.2253417185
 51
215.1391909151
  0
ARC
  5
2EA
100
AcDbEntity
  8
0
100
AcDbCircle
 62
9
  6
CONTINUOUS
 10
17.5601384566
 20
9.4510932656
 40
5.338134225
100
AcDbArc
 50
212.4039025862
 51
215.3344148901
  0
ARC
  5
2EB
100
AcDbEntity
  8
0
100
AcDbCircle
 62
7
  6
CONTINUOUS
 10
16.8039728509
 20
9.0311191426
 40
4.4558837601
100
AcDbArc
 50
197.066697689
 51
200.0642106117
  0
ARC
  5
2EC
100
AcDbEntity
  8
0
100
AcDbCircle
 62
7
  6
CONTINUOUS
 10
16.7650317646
 20
9.0208299207
 40
4.415591899
100
AcDbArc
 50
192.026694967
 51
192.208550503
  0
ARC
  5
2ED
100
AcDbEntity
  8
0
100
AcDbCircle
 62
7
  6
CONTINUOUS
 10
17.9262798371
 20
8.9738699792
 40
2.7692755985
100
AcDbArc
 50
38.877644792
 51
41.2943631042
  0
ARC
  5
2EE
100
AcDbEntity
  8
0
100
AcDbCircle
 62
9
  6
CONTINUOUS
 10
12.2365725695
 20
10.1973108356
 40
1.0215392644
100
AcDbArc
 50
279.6593519868
 51
280.9650091789
  0
ARC
  5
2EF
100
AcDbEntity
  8
0
100
AcDbCircle
 62
9
  6
CONTINUOUS
 10
12.4351834183
 20
9.7675890821
 40
0.7379416402
100
AcDbArc
 50
168.7000016864
 51
170.4275107295
  0
ARC
  5
2F0
100
AcDbEntity
  8
0
100
AcDbCircle
 62
9
  6
CONTINUOUS
 10
12.1921949379
 20
8.9119521472
 40
0.5466821298
100
AcDbArc
 50
88.9934557879
 51
90.0043045637
  0
ARC
  5
2F1
100
AcDbEntity
  8
0
100
AcDbCircle
 62
9
  6
CONTINUOUS
 10
12.1924969747
 20
9.1475088869
 40
0.5121497088
100
AcDbArc
 50
88.9593759633
 51
90.0383846032
  0
ARC
  5
2F2
100
AcDbEntity
  8
0
100
AcDbCircle
 62
9
  6
CONTINUOUS
 10
12.180370222
 20
9.3011834803
 40
0.4787166284
100
AcDbArc
 50
189.7538754643
 51
192.8863299886
  0
ARC
  5
2F3
100
AcDbEntity
  8
0
100
AcDbCircle
 62
9
  6
CONTINUOUS
 10
11.964386384
 20
9.3011499921
 40
0.4785461271
100
AcDbArc
 50
347.1131128898
 51
350.2466836734
  0
ARC
  5
2F4
100
AcDbEntity
  8
0
100
AcDbCircle
 62
9
  6
CONTINUOUS
 10
12.3506900607
 20
9.5842769951
 40
0.3380919079
100
AcDbArc
 50
75.9020973608
 51
80.4810790591
  0
ARC
  5
2F5
100
AcDbEntity
  8
0
100
AcDbCircle
 62
7
  6
CONTINUOUS
 10
12.4274059958
 20
9.9068448429
 40
0.0200794465
100
AcDbArc
 50
72.1611766624
 51
87.000055567
  0
ARC
  5
2F6
100
AcDbEntity
  8
0
100
AcDbCircle
 62
7
  6
CONTINUOUS
 10
12.4260533189
 20
9.1992154898
 40
0.0200001322
100
AcDbArc
 50
277.7985039029
 51
358.3096230554
  0
ARC
  5
2F7
100
AcDbEntity
  8
0
100
AcDbCircle
 62
7
  6
CONTINUOUS
 10
12.427420517
 20
9.9069235977
 40
0.0200000114
100
AcDbArc
 50
0.0873280124
 51
79.5443994183
  0
ARC
  5
2F8
100
AcDbEntity
  8
0
100
AcDbCircle
 62
7
  6
CONTINUOUS
 10
21.0722946802
 20
5.2959760049
 40
6.3904157991
100
AcDbArc
 50
81.821031102
 51
98.178968898
  0
ARC
  5
2F9
100
AcDbEntity
  8
0
100
AcDbCircle
 62
7
  6
CONTINUOUS
 10
20.7482746722
 20
6.7038598012
 40
1.3
100
AcDbArc
 50
357.7751307225
 51
37.4382101818
  0
ARC
  5
2FA
100
AcDbEntity
  8
0
100
AcDbCircle
 62
7
  6
CONTINUOUS
 10
21.3963146883
 20
6.7038598012
 40
1.3
100
AcDbArc
 50
142.5617898181
 51
182.2248692774
  0
ARC
  5
2FB
100
AcDbEntity
  8
0
100
AcDbCircle
 62
7
  6
CONTINUOUS
 10
20.1656001354
 20
7.6461133178
 40
0.25
100
AcDbArc
 50
322.5617898181
 51
357.849587733
  0
ARC
  5
2FC
100
AcDbEntity
  8
0
100
AcDbCircle
 62
7
  6
CONTINUOUS
 10
21.978989225
 20
7.6461133178
 40
0.25
100
AcDbArc
 50
182.150412267
 51
217.4382101818
  0
ARC
  5
2FD
100
AcDbEntity
  8
0
100
AcDbCircle
 62
7
  6
CONTINUOUS
 10
20.1458196223
 20
6.5823592717
 40
0.0860249421
100
AcDbArc
 50
124.3384233779
 51
180.0
  0
ARC
  5
2FE
100
AcDbEntity
  8
0
100
AcDbCircle
 62
7
  6
CONTINUOUS
 10
21.9987697382
 20
6.5823592717
 40
0.0860249421
100
AcDbArc
 50
0.0
 51
55.6615766221
  0
ARC
  5
2FF
100
AcDbEntity
  8
0
100
AcDbCircle
 62
7
  6
CONTINUOUS
 10
19.5308365752
 20
9.8949269419
 40
7.8336759631
100
AcDbArc
 50
179.9124259777
 51
180.0383297109
  0
ARC
  5
300
100
AcDbEntity
  8
0
100
AcDbCircle
 62
7
  6
CONTINUOUS
 10
24.258831725
 20
8.9397640283
 40
2.8222287909
100
AcDbArc
 50
138.7283124388
 51
141.0996760881
  0
ARC
  5
301
100
AcDbEntity
  8
0
100
AcDbCircle
 62
7
  6
CONTINUOUS
 10
21.6822946802
 20
9.8762249518
 40
0.15
100
AcDbArc
 50
330.0735651336
 51
360.0
  0
ARC
  5
302
100
AcDbEntity
  8
0
100
AcDbCircle
 62
7
  6
CONTINUOUS
 10
20.4622946802
 20
9.8762249518
 40
0.15
100
AcDbArc
 50
180.0
 51
209.9264348664
  0
ARC
  5
303
100
AcDbEntity
  8
0
100
AcDbCircle
 62
7
  6
CONTINUOUS
 10
20.1447946802
 20
11.411391804
 40
0.15
100
AcDbArc
 50
90.0
 51
114.6243183522
  0
ARC
  5
304
100
AcDbEntity
  8
0
100
AcDbCircle
 62
7
  6
CONTINUOUS
 10
21.9997946802
 20
11.411391804
 40
0.15
100
AcDbArc
 50
65.3756816478
 51
90.0
  0
ARC
  5
305
100
AcDbEntity
  8
0
100
AcDbCircle
 62
7
  6
CONTINUOUS
 10
21.9322946802
 20
10.4356525729
 40
0.1
100
AcDbArc
 50
135.6687919533
 51
180.0
  0
ARC
  5
306
100
AcDbEntity
  8
0
100
AcDbCircle
 62
7
  6
CONTINUOUS
 10
20.2122946802
 20
10.4356525729
 40
0.1
100
AcDbArc
 50
0.0
 51
44.3312080467
  0
ARC
  5
307
100
AcDbEntity
  8
0
100
AcDbCircle
 62
7
  6
CONTINUOUS
 10
20.1674480324
 20
11.5915451562
 40
0.0301533521
100
AcDbArc
 50
98.1789688981
 51
270.0
  0
ARC
  5
308
100
AcDbEntity
  8
0
100
AcDbCircle
 62
7
  6
CONTINUOUS
 10
21.9771413281
 20
11.5915451562
 40
0.0301533521
100
AcDbArc
 50
270.0
 51
81.8210311019
  0
SPLINE
  5
309
100
AcDbEntity
  8
0
100
AcDbSpline
 62
7
  6
CONTINUOUS
 70
0
 71
3
 72
10
 73
6
 74
0
 42
0.0000001
 43
0.0000001
 44
0.0000000001
 40
0.0
 40
0.0
 40
0.0
 40
0.0
 40
0.2437570729
 40
0.8114820024
 40
1.0
 40
1.0
 40
1.0
 40
1.0
 10
3.4405256441
 20
7.1800669921
 30
0.0
 10
3.4059048176
 20
7.1432050357
 30
0.0
 10
3.3066419411
 20
7.0070532475
 30
0.0
 10
3.2486710717
 20
6.8003851216
 30
0.0
 10
3.2481257126
 20
6.6433358351
 30
0.0
 10
3.2506376965
 20
6.6046889906
 30
0.0
  0
LINE
  5
30A
100
AcDbEntity
  8
0
100
AcDbLine
 62
7
  6
CONTINUOUS
 10
3.4461976426
 20
7.1860253014
 11
3.4455996972
 21
7.1854047143
  0
LINE
  5
30B
100
AcDbEntity
  8
0
100
AcDbLine
 62
7
  6
CONTINUOUS
 10
3.4455996972
 20
7.1854047143
 11
3.4449856474
 21
7.184765581
  0
SPLINE
  5
30C
100
AcDbEntity
  8
0
100
AcDbSpline
 62
7
  6
CONTINUOUS
 70
0
 71
3
 72
10
 73
6
 74
0
 42
0.0000001
 43
0.0000001
 44
0.0000000001
 40
0.0
 40
0.0
 40
0.0
 40
0.0
 40
0.2773149929
 40
0.924952299
 40
1.0
 40
1.0
 40
1.0
 40
1.0
 10
3.4402444654
 20
7.1797674104
 30
0.0
 10
3.4057433486
 20
7.142983492
 30
0.0
 10
3.3066036715
 20
7.0069168151
 30
0.0
 10
3.2557858644
 20
6.8257495999
 30
0.0
 10
3.2494430193
 20
6.6942908522
 30
0.0
 10
3.249110179
 20
6.6806570643
 30
0.0
  0
SPLINE
  5
30D
100
AcDbEntity
  8
0
100
AcDbSpline
 62
7
  6
CONTINUOUS
 70
0
 71
3
 72
10
 73
6
 74
0
 42
0.0000001
 43
0.0000001
 44
0.0000000001
 40
0.0
 40
0.0
 40
0.0
 40
0.0
 40
0.0721099489
 40
0.7212759474
 40
1.0
 40
1.0
 40
1.0
 40
1.0
 10
2.8954361587
 20
6.682350789
 30
0.0
 10
2.8950912306
 20
6.6954213931
 30
0.0
 10
2.8886455767
 20
6.826312588
 30
0.0
 10
2.8379474381
 20
7.0070531805
 30
0.0
 10
2.7386846222
 20
7.1432049269
 30
0.0
 10
2.7040638545
 20
7.180066845
 30
0.0
  0
LINE
  5
30E
100
AcDbEntity
  8
0
100
AcDbLine
 62
7
  6
CONTINUOUS
 10
2.6996037079
 20
7.1847655864
 11
2.6989896608
 21
7.1854047169
  0
LINE
  5
30F
100
AcDbEntity
  8
0
100
AcDbLine
 62
7
  6
CONTINUOUS
 10
2.6989896608
 20
7.1854047169
 11
2.6983917179
 21
7.1860253014
  0
SPLINE
  5
310
100
AcDbEntity
  8
0
100
AcDbSpline
 62
7
  6
CONTINUOUS
 70
0
 71
3
 72
10
 73
6
 74
0
 42
0.0000001
 43
0.0000001
 44
0.0000000001
 40
0.0
 40
0.0
 40
0.0
 40
0.0
 40
0.2437569112
 40
0.8114819977
 40
1.0
 40
1.0
 40
1.0
 40
1.0
 10
2.704063814
 20
7.1800668882
 30
0.0
 10
2.7386845989
 20
7.1432049588
 30
0.0
 10
2.8379474326
 20
7.0070532002
 30
0.0
 10
2.895918286
 20
6.8003851314
 30
0.0
 10
2.8964636478
 20
6.6433358548
 30
0.0
 10
2.8939516659
 20
6.6046890197
 30
0.0
  0
LINE
  5
311
100
AcDbEntity
  8
0
100
AcDbLine
 62
9
  6
CONTINUOUS
 10
3.4400889678
 20
7.2561505326
 11
3.4518050341
 21
7.2545881731
  0
SPLINE
  5
312
100
AcDbEntity
  8
0
100
AcDbSpline
 62
9
  6
CONTINUOUS
 70
0
 71
3
 72
13
 73
9
 74
0
 42
0.0000001
 43
0.0000001
 44
0.0000000001
 40
0.0
 40
0.0
 40
0.0
 40
0.0
 40
0.1373305974
 40
0.2736152366
 40
0.5366673541
 40
0.7805406964
 40
0.8935956861
 40
1.0
 40
1.0
 40
1.0
 40
1.0
 10
3.4118050341
 20
7.1999124474
 30
0.0
 10
3.4131420844
 20
7.1999125354
 30
0.0
 10
3.4158065866
 20
7.1998425064
 30
0.0
 10
3.4210174686
 20
7.1994349259
 30
0.0
 10
3.4272154144
 20
7.1984525407
 30
0.0
 10
3.4330455751
 20
7.1968237634
 30
0.0
 10
3.437246768
 20
7.1951723621
 30
0.0
 10
3.4391752739
 20
7.1942464356
 30
0.0
 10
3.4400893055
 20
7.1937588467
 30
0.0
  0
SPLINE
  5
313
100
AcDbEntity
  8
0
100
AcDbSpline
 62
9
  6
CONTINUOUS
 70
0
 71
3
 72
15
 73
11
 74
0
 42
0.0000001
 43
0.0000001
 44
0.0000000001
 40
0.0
 40
0.0
 40
0.0
 40
0.0
 40
0.1178024812
 40
0.2424053046
 40
0.3713801694
 40
0.5023217179
 40
0.6329381167
 40
0.7609811528
 40
0.8841173957
 40
1.0
 40
1.0
 40
1.0
 40
1.0
 10
3.4259471291
 20
7.1800670786
 30
0.0
 10
3.4266488496
 20
7.1804172609
 30
0.0
 10
3.4280607389
 20
7.1812032232
 30
0.0
 10
3.430124573
 20
7.1825683366
 30
0.0
 10
3.4321535149
 20
7.1841328787
 30
0.0
 10
3.4340926098
 20
7.1858685378
 30
0.0
 10
3.4358859041
 20
7.187745913
 30
0.0
 10
3.4375024013
 20
7.1897103545
 30
0.0
 10
3.4389128141
 20
7.1917084942
 30
0.0
 10
3.4397267006
 20
7.1930784491
 30
0.0
 10
3.4400892173
 20
7.1937594317
 30
0.0
  0
SPLINE
  5
314
100
AcDbEntity
  8
0
100
AcDbSpline
 62
9
  6
CONTINUOUS
 70
0
 71
3
 72
15
 73
11
 74
0
 42
0.0000001
 43
0.0000001
 44
0.0000000001
 40
0.0
 40
0.0
 40
0.0
 40
0.0
 40
0.1515488483
 40
0.2984238833
 40
0.438033829
 40
0.5682981625
 40
0.6883618755
 40
0.7992691802
 40
0.9025384269
 40
1.0
 40
1.0
 40
1.0
 40
1.0
 10
3.440090037
 20
7.1937598816
 30
0.0
 10
3.4404356206
 20
7.1931107245
 30
0.0
 10
3.441058983
 20
7.1918009276
 30
0.0
 10
3.4417870778
 20
7.1898002505
 30
0.0
 10
3.4422735132
 20
7.1878327866
 30
0.0
 10
3.4424924895
 20
7.1859465745
 30
0.0
 10
3.4424119051
 20
7.1841869472
 30
0.0
 10
3.4420505157
 20
7.1825960845
 30
0.0
 10
3.441432606
 20
7.1812049391
 30
0.0
 10
3.4408498244
 20
7.1804121623
 30
0.0
 10
3.4405260467
 20
7.1800674208
 30
0.0
  0
SPLINE
  5
315
100
AcDbEntity
  8
0
100
AcDbSpline
 62
9
  6
CONTINUOUS
 70
0
 71
3
 72
12
 73
8
 74
0
 42
0.0000001
 43
0.0000001
 44
0.0000000001
 40
0.0
 40
0.0
 40
0.0
 40
0.0
 40
0.2385638055
 40
0.4853013785
 40
0.612078865
 40
0.7405848719
 40
1.0
 40
1.0
 40
1.0
 40
1.0
 10
2.7186426051
 20
7.1800666494
 30
0.0
 10
2.7195142295
 20
7.1809651609
 30
0.0
 10
2.7214676858
 20
7.1826264098
 30
0.0
 10
2.7242911998
 20
7.1842039811
 30
0.0
 10
2.7267644237
 20
7.1851234758
 30
0.0
 10
2.7293801087
 20
7.1858078801
 30
0.0
 10
2.7314230935
 20
7.1860247965
 30
0.0
 10
2.7327843264
 20
7.1860248936
 30
0.0
  0
SPLINE
  5
316
100
AcDbEntity
  8
0
100
AcDbSpline
 62
9
  6
CONTINUOUS
 70
0
 71
3
 72
12
 73
8
 74
0
 42
0.0000001
 43
0.0000001
 44
0.0000000001
 40
0.0
 40
0.0
 40
0.0
 40
0.0
 40
0.2594856184
 40
0.3879893922
 40
0.5147462783
 40
0.7614153866
 40
1.0
 40
1.0
 40
1.0
 40
1.0
 10
3.4118050346
 20
7.1860250335
 30
0.0
 10
3.413166654
 20
7.1860249986
 30
0.0
 10
3.4152100403
 20
7.1858079665
 30
0.0
 10
3.4178259322
 20
7.1851232385
 30
0.0
 10
3.4202986777
 20
7.1842037734
 30
0.0
 10
3.4231220625
 20
7.1826266459
 30
0.0
 10
3.4250752661
 20
7.1809653906
 30
0.0
 10
3.425946917
 20
7.1800667313
 30
0.0
  0
SPLINE
  5
317
100
AcDbEntity
  8
0
100
AcDbSpline
 62
9
  6
CONTINUOUS
 70
0
 71
3
 72
20
 73
16
 74
0
 42
0.0000001
 43
0.0000001
 44
0.0000000001
 40
0.0
 40
0.0
 40
0.0
 40
0.0
 40
0.112411927
 40
0.2290012452
 40
0.2889430183
 40
0.3499370124
 40
0.4748247146
 40
0.5386479522
 40
0.6032490817
 40
0.6685062935
 40
0.7342973898
 40
0.8004960979
 40
0.8669510351
 40
0.933504053
 40
1.0
 40
1.0
 40
1.0
 40
1.0
 10
3.4259472556
 20
7.1800668373
 30
0.0
 10
3.4096403624
 20
7.1632529626
 30
0.0
 10
3.3783604283
 20
7.1270679663
 30
0.0
 10
3.3442086871
 20
7.0773326205
 30
0.0
 10
3.3196181165
 20
7.0343569231
 30
0.0
 10
3.2966022625
 20
6.98857609
 30
0.0
 10
3.2769806732
 20
6.9402644875
 30
0.0
 10
3.2609613604
 20
6.8899552588
 30
0.0
 10
3.2506839437
 20
6.8509103867
 30
0.0
 10
3.2422923262
 20
6.8110001035
 30
0.0
 10
3.2358457223
 20
6.7703921726
 30
0.0
 10
3.2314046138
 20
6.7292654994
 30
0.0
 10
3.2289895485
 20
6.6878111324
 30
0.0
 10
3.2286226997
 20
6.6462270743
 30
0.0
 10
3.229760145
 20
6.618513855
 30
0.0
 10
3.2306800856
 20
6.6046890292
 30
0.0
  0
SPLINE
  5
318
100
AcDbEntity
  8
0
100
AcDbSpline
 62
9
  6
CONTINUOUS
 70
0
 71
3
 72
18
 73
14
 74
0
 42
0.0000001
 43
0.0000001
 44
0.0000000001
 40
0.0
 40
0.0
 40
0.0
 40
0.0
 40
0.1123755321
 40
0.228979061
 40
0.349859341
 40
0.4118654262
 40
0.4748232267
 40
0.6032134369
 40
0.668481741
 40
0.7342874587
 40
0.8669160168
 40
0.9334977342
 40
1.0
 40
1.0
 40
1.0
 40
1.0
 10
2.7186420409
 20
7.1800669585
 30
0.0
 10
2.7349445812
 20
7.1632619713
 30
0.0
 10
2.7662280972
 20
7.1270862849
 30
0.0
 10
2.8075548936
 20
7.0668728861
 30
0.0
 10
2.8370911416
 20
7.0117566594
 30
0.0
 10
2.8576413364
 20
6.9648170014
 30
0.0
 10
2.8762552485
 20
6.9154005443
 30
0.0
 10
2.8911754208
 20
6.8639440781
 30
0.0
 10
2.9022968053
 20
6.8110234735
 30
0.0
 10
2.9109068866
 20
6.7567415832
 30
0.0
 10
2.9154861685
 20
6.7016076164
 30
0.0
 10
2.9159713825
 20
6.6462331466
 30
0.0
 10
2.9148308807
 20
6.6185139465
 30
0.0
 10
2.9139093097
 20
6.6046889933
 30
0.0
  0
SPLINE
  5
319
100
AcDbEntity
  8
0
100
AcDbSpline
 62
9
  6
CONTINUOUS
 70
0
 71
3
 72
21
 73
17
 74
0
 42
0.0000001
 43
0.0000001
 44
0.0000000001
 40
0.0
 40
0.0
 40
0.0
 40
0.0
 40
0.1812460766
 40
0.3661029322
 40
0.543971673
 40
0.7028514886
 40
0.8317022517
 40
0.8829574115
 40
0.9246822798
 40
0.9418279471
 40
0.9565382218
 40
0.9688986368
 40
0.9790033561
 40
0.9869637711
 40
0.9929302682
 40
1.0
 40
1.0
 40
1.0
 40
1.0
 10
2.9139092885
 20
6.6046889946
 30
0.0
 10
2.9126997981
 20
6.6047672787
 30
0.0
 10
2.9102557624
 20
6.6049109371
 30
0.0
 10
2.9066219733
 20
6.605080142
 30
0.0
 10
2.9031354925
 20
6.6051904804
 30
0.0
 10
2.9000221184
 20
6.605234518
 30
0.0
 10
2.8977548887
 20
6.6052090702
 30
0.0
 10
2.8962727745
 20
6.6051442991
 30
0.0
 10
2.8955380666
 20
6.6050914387
 30
0.0
 10
2.8950487909
 20
6.6050384568
 30
0.0
 10
2.8947559217
 20
6.604997954
 30
0.0
 10
2.8945108864
 20
6.6049541584
 30
0.0
 10
2.8943132102
 20
6.6049083637
 30
0.0
 10
2.8941582586
 20
6.6048584529
 30
0.0
 10
2.8940343706
 20
6.6048036701
 30
0.0
 10
2.8939544676
 20
6.6047361625
 30
0.0
 10
2.8939514013
 20
6.6046889856
 30
0.0
  0
SPLINE
  5
31A
100
AcDbEntity
  8
0
100
AcDbSpline
 62
9
  6
CONTINUOUS
 70
0
 71
3
 72
16
 73
12
 74
0
 42
0.0000001
 43
0.0000001
 44
0.0000000001
 40
0.0
 40
0.0
 40
0.0
 40
0.0
 40
0.0901633607
 40
0.1873875484
 40
0.2937677001
 40
0.4115012378
 40
0.4753309399
 40
0.5424332137
 40
0.6855768394
 40
0.8390338494
 40
1.0
 40
1.0
 40
1.0
 40
1.0
 10
2.7040636812
 20
7.1800669539
 30
0.0
 10
2.7043834385
 20
7.179726497
 30
0.0
 10
2.7051342342
 20
7.1790962426
 30
0.0
 10
2.7064912421
 20
7.1783850494
 30
0.0
 10
2.7080989094
 20
7.1779158373
 30
0.0
 10
2.7095908722
 20
7.1777643231
 30
0.0
 10
2.7108797526
 20
7.1777897783
 30
0.0
 10
2.7122944197
 20
7.1779232133
 30
0.0
 10
2.7141474314
 20
7.1782943727
 30
0.0
 10
2.7164042159
 20
7.1790332661
 30
0.0
 10
2.7178959326
 20
7.1796946365
 30
0.0
 10
2.7186420429
 20
7.1800669594
 30
0.0
  0
SPLINE
  5
31B
100
AcDbEntity
  8
0
100
AcDbSpline
 62
9
  6
CONTINUOUS
 70
0
 71
3
 72
11
 73
7
 74
0
 42
0.0000001
 43
0.0000001
 44
0.0000000001
 40
0.0
 40
0.0
 40
0.0
 40
0.0
 40
0.2743488438
 40
0.5387749311
 40
0.7833963729
 40
1.0
 40
1.0
 40
1.0
 40
1.0
 10
2.7327843264
 20
7.2739130939
 30
0.0
 10
2.7314800353
 20
7.2739131163
 30
0.0
 10
2.728918164
 20
7.2739802864
 30
0.0
 10
2.7252034366
 20
7.2742743863
 30
0.0
 10
2.721784965
 20
7.2747534483
 30
0.0
 10
2.7196371492
 20
7.275209897
 30
0.0
 10
2.7186421479
 20
7.2754751958
 30
0.0
  0
SPLINE
  5
31C
100
AcDbEntity
  8
0
100
AcDbSpline
 62
9
  6
CONTINUOUS
 70
0
 71
3
 72
15
 73
11
 74
0
 42
0.0000001
 43
0.0000001
 44
0.0000000001
 40
0.0
 40
0.0
 40
0.0
 40
0.0
 40
0.1392606221
 40
0.2805521341
 40
0.4200661504
 40
0.5538887125
 40
0.6791249997
 40
0.7947961819
 40
0.9011004496
 40
1.0
 40
1.0
 40
1.0
 40
1.0
 10
2.7044994972
 20
7.2561503588
 30
0.0
 10
2.7043574568
 20
7.2572156826
 30
0.0
 10
2.7041959495
 20
7.2593805383
 30
0.0
 10
2.7043489122
 20
7.2626279737
 30
0.0
 10
2.7049494074
 20
7.2657824976
 30
0.0
 10
2.7059809138
 20
7.2686960649
 30
0.0
 10
2.7074387445
 20
7.2712140413
 30
0.0
 10
2.709227151
 20
7.2732378721
 30
0.0
 10
2.7112654599
 20
7.2746825206
 30
0.0
 10
2.7127511593
 20
7.2752784652
 30
0.0
 10
2.7134886501
 20
7.2754751297
 30
0.0
  0
SPLINE
  5
31D
100
AcDbEntity
  8
0
100
AcDbSpline
 62
9
  6
CONTINUOUS
 70
0
 71
3
 72
15
 73
11
 74
0
 42
0.0000001
 43
0.0000001
 44
0.0000000001
 40
0.0
 40
0.0
 40
0.0
 40
0.0
 40
0.0990127747
 40
0.209007986
 40
0.3300996328
 40
0.4602468447
 40
0.5964785099
 40
0.7346687215
 40
0.8703558937
 40
1.0
 40
1.0
 40
1.0
 40
1.0
 10
2.7186424379
 20
7.2754751405
 30
0.0
 10
2.7178334654
 20
7.2752737295
 30
0.0
 10
2.7161689073
 20
7.2746625476
 30
0.0
 10
2.7137718543
 20
7.2732271821
 30
0.0
 10
2.7114660352
 20
7.2712223948
 30
0.0
 10
2.7093486905
 20
7.2687247495
 30
0.0
 10
2.7075416575
 20
7.2658245595
 30
0.0
 10
2.7060966975
 20
7.262678431
 30
0.0
 10
2.7050710229
 20
7.2594311163
 30
0.0
 10
2.7046448056
 20
7.2572323812
 30
0.0
 10
2.7045005411
 20
7.2561503781
 30
0.0
  0
SPLINE
  5
31E
100
AcDbEntity
  8
0
100
AcDbSpline
 62
9
  6
CONTINUOUS
 70
0
 71
3
 72
9
 73
5
 74
0
 42
0.0000001
 43
0.0000001
 44
0.0000000001
 40
0.0
 40
0.0
 40
0.0
 40
0.0
 40
0.4916249947
 40
1.0
 40
1.0
 40
1.0
 40
1.0
 10
2.7134889377
 20
7.2754752064
 30
0.0
 10
2.7143115395
 20
7.2756945617
 30
0.0
 10
2.7160519066
 20
7.2759170716
 30
0.0
 10
2.7177879158
 20
7.275687889
 30
0.0
 10
2.718642191
 20
7.2754752064
 30
0.0
  0
SPLINE
  5
31F
100
AcDbEntity
  8
0
100
AcDbSpline
 62
9
  6
CONTINUOUS
 70
0
 71
3
 72
12
 73
8
 74
0
 42
0.0000001
 43
0.0000001
 44
0.0000000001
 40
0.0
 40
0.0
 40
0.0
 40
0.0
 40
0.1029883605
 40
0.2146301625
 40
0.4591166836
 40
0.7243412379
 40
1.0
 40
1.0
 40
1.0
 40
1.0
 10
2.7044997175
 20
7.2561505323
 30
0.0
 10
2.705464309
 20
7.2560222509
 30
0.0
 10
2.7074780918
 20
7.2557812723
 30
0.0
 10
2.7117954437
 20
7.2553565392
 30
0.0
 10
2.7176533912
 20
7.2549487619
 30
0.0
 10
2.7250689668
 20
7.2546551695
 30
0.0
 10
2.730179768
 20
7.2545881815
 30
0.0
 10
2.7327843263
 20
7.2545881733
 30
0.0
  0
SPLINE
  5
320
100
AcDbEntity
  8
0
100
AcDbSpline
 62
9
  6
CONTINUOUS
 70
0
 71
3
 72
15
 73
11
 74
0
 42
0.0000001
 43
0.0000001
 44
0.0000000001
 40
0.0
 40
0.0
 40
0.0
 40
0.0
 40
0.1158836287
 40
0.2390206109
 40
0.3670640864
 40
0.4976806153
 40
0.6286219802
 40
0.7575963679
 40
0.8821984594
 40
1.0
 40
1.0
 40
1.0
 40
1.0
 10
2.7045008202
 20
7.193759879
 30
0.0
 10
2.7048633355
 20
7.1930788938
 30
0.0
 10
2.7056772151
 20
7.1917089338
 30
0.0
 10
2.7070876106
 20
7.1897107843
 30
0.0
 10
2.7087040821
 20
7.1877463327
 30
0.0
 10
2.7104973432
 20
7.1858689467
 30
0.0
 10
2.7124363981
 20
7.1841332746
 30
0.0
 10
2.7144652945
 20
7.1825687171
 30
0.0
 10
2.7165290797
 20
7.1812035861
 30
0.0
 10
2.7179409358
 20
7.1804176096
 30
0.0
 10
2.7186426397
 20
7.1800674198
 30
0.0
  0
LINE
  5
321
100
AcDbEntity
  8
0
100
AcDbLine
 62
9
  6
CONTINUOUS
 10
2.6927843264
 20
7.2545882943
 11
2.7044997175
 21
7.2561505323
  0
LINE
  5
322
100
AcDbEntity
  8
0
100
AcDbLine
 62
9
  6
CONTINUOUS
 10
2.9204052001
 20
7.3292786754
 11
2.9186527615
 21
7.3295709886
  0
SPLINE
  5
323
100
AcDbEntity
  8
0
100
AcDbSpline
 62
9
  6
CONTINUOUS
 70
0
 71
3
 72
9
 73
5
 74
0
 42
0.0000001
 43
0.0000001
 44
0.0000000001
 40
0.0
 40
0.0
 40
0.0
 40
0.0
 40
0.5038694029
 40
1.0
 40
1.0
 40
1.0
 40
1.0
 10
2.9186527615
 20
7.3295709886
 30
0.0
 10
2.9180793423
 20
7.3296191954
 30
0.0
 10
2.9169311338
 20
7.3296215569
 30
0.0
 10
2.9157994193
 20
7.3294246682
 30
0.0
 10
2.9152519468
 20
7.3292786755
 30
0.0
  0
SPLINE
  5
324
100
AcDbEntity
  8
0
100
AcDbSpline
 62
9
  6
CONTINUOUS
 70
0
 71
3
 72
14
 73
10
 74
0
 42
0.0000001
 43
0.0000001
 44
0.0000000001
 40
0.0
 40
0.0
 40
0.0
 40
0.0
 40
0.1063985219
 40
0.2194393265
 40
0.3386403359
 40
0.4634067987
 40
0.726421558
 40
0.8626865762
 40
1.0
 40
1.0
 40
1.0
 40
1.0
 10
2.7045000552
 20
7.1937588453
 30
0.0
 10
2.7054138236
 20
7.194247055
 30
0.0
 10
2.7073423168
 20
7.1951731526
 30
0.0
 10
2.7104138068
 20
7.1963792846
 30
0.0
 10
2.7137294295
 20
7.1974320893
 30
0.0
 10
2.7185200828
 20
7.198633149
 30
0.0
 10
2.7235724212
 20
7.1994349199
 30
0.0
 10
2.7287827827
 20
7.1998425376
 30
0.0
 10
2.7314472928
 20
7.1999125405
 30
0.0
 10
2.7327843263
 20
7.1999124473
 30
0.0
  0
SPLINE
  5
325
100
AcDbEntity
  8
0
100
AcDbSpline
 62
9
  6
CONTINUOUS
 70
0
 71
3
 72
21
 73
17
 74
0
 42
0.0000001
 43
0.0000001
 44
0.0000000001
 40
0.0
 40
0.0
 40
0.0
 40
0.0
 40
0.0070865448
 40
0.0130707625
 40
0.0210548219
 40
0.0311885376
 40
0.0435826906
 40
0.0583308267
 40
0.0755178588
 40
0.1173326689
 40
0.1686794833
 40
0.2976794154
 40
0.4566078519
 40
0.634399101
 40
0.8190488196
 40
1.0
 40
1.0
 40
1.0
 40
1.0
 10
3.2506379513
 20
6.6046890085
 30
0.0
 10
3.2506348767
 20
6.6047362975
 30
0.0
 10
3.2505546391
 20
6.6048039
 30
0.0
 10
3.2504303888
 20
6.6048587342
 30
0.0
 10
3.250274947
 20
6.6049087006
 30
0.0
 10
3.2500766921
 20
6.6049545333
 30
0.0
 10
3.2498309767
 20
6.6049983556
 30
0.0
 10
3.2495373475
 20
6.6050388704
 30
0.0
 10
3.2490469332
 20
6.6050918437
 30
0.0
 10
3.248310728
 20
6.6051446548
 30
0.0
 10
3.2468263947
 20
6.6052092758
 30
0.0
 10
3.2445572304
 20
6.6052345064
 30
0.0
 10
3.241443058
 20
6.6051902321
 30
0.0
 10
3.2379581641
 20
6.605079768
 30
0.0
 10
3.2343282544
 20
6.6049106462
 30
0.0
 10
3.2318875743
 20
6.6047671567
 30
0.0
 10
3.230680053
 20
6.6046889995
 30
0.0
  0
SPLINE
  5
326
100
AcDbEntity
  8
0
100
AcDbSpline
 62
9
  6
CONTINUOUS
 70
0
 71
3
 72
15
 73
11
 74
0
 42
0.0000001
 43
0.0000001
 44
0.0000000001
 40
0.0
 40
0.0
 40
0.0
 40
0.0
 40
0.1432541068
 40
0.2852177257
 40
0.4229140751
 40
0.5539812784
 40
0.6770461986
 40
0.7915984568
 40
0.8983969532
 40
1.0
 40
1.0
 40
1.0
 40
1.0
 10
3.425947317
 20
7.180066955
 30
0.0
 10
3.426611331
 20
7.1797355998
 30
0.0
 10
3.4279624303
 20
7.1791321995
 30
0.0
 10
3.4300383829
 20
7.1784221034
 30
0.0
 10
3.4321158233
 20
7.1779426763
 30
0.0
 10
3.4341415537
 20
7.1777332503
 30
0.0
 10
3.4360575218
 20
7.1778360287
 30
0.0
 10
3.4378048772
 20
7.178252051
 30
0.0
 10
3.439322888
 20
7.1789880261
 30
0.0
 10
3.4401653511
 20
7.1796833058
 30
0.0
 10
3.4405256797
 20
7.1800669605
 30
0.0
  0
SPLINE
  5
327
100
AcDbEntity
  8
0
100
AcDbSpline
 62
9
  6
CONTINUOUS
 70
0
 71
3
 72
15
 73
11
 74
0
 42
0.0000001
 43
0.0000001
 44
0.0000000001
 40
0.0
 40
0.0
 40
0.0
 40
0.0
 40
0.097459706
 40
0.2007274135
 40
0.3116337383
 40
0.4316971869
 40
0.5619619928
 40
0.7015729829
 40
0.8484494654
 40
1.0
 40
1.0
 40
1.0
 40
1.0
 10
2.7040636358
 20
7.1800670779
 30
0.0
 10
2.7037398688
 20
7.1804118128
 30
0.0
 10
2.7031571102
 20
7.1812045784
 30
0.0
 10
2.7025392411
 20
7.1825957078
 30
0.0
 10
2.702177897
 20
7.1841865558
 30
0.0
 10
2.702097362
 20
7.1859461697
 30
0.0
 10
2.7023163886
 20
7.1878323689
 30
0.0
 10
2.702802873
 20
7.1897998211
 30
0.0
 10
2.703531015
 20
7.1918004871
 30
0.0
 10
2.7041544062
 20
7.193110276
 30
0.0
 10
2.7045000038
 20
7.1937594293
 30
0.0
  0
LINE
  5
328
100
AcDbEntity
  8
0
100
AcDbLine
 62
9
  6
CONTINUOUS
 10
2.6927843264
 20
7.1999124474
 11
2.7045000552
 21
7.1937588453
  0
SPLINE
  5
329
100
AcDbEntity
  8
0
100
AcDbSpline
 62
9
  6
CONTINUOUS
 70
0
 71
3
 72
15
 73
11
 74
0
 42
0.0000001
 43
0.0000001
 44
0.0000000001
 40
0.0
 40
0.0
 40
0.0
 40
0.0
 40
0.0990127605
 40
0.2090079628
 40
0.330099604
 40
0.4602468144
 40
0.5964784867
 40
0.734668702
 40
0.870355886
 40
1.0
 40
1.0
 40
1.0
 40
1.0
 10
3.4259469188
 20
7.2754751395
 30
0.0
 10
3.4267558911
 20
7.2752737285
 30
0.0
 10
3.4284204489
 20
7.2746625465
 30
0.0
 10
3.4308175012
 20
7.2732271807
 30
0.0
 10
3.4331233198
 20
7.2712223933
 30
0.0
 10
3.4352406639
 20
7.2687247478
 30
0.0
 10
3.4370476964
 20
7.2658245577
 30
0.0
 10
3.4384926561
 20
7.2626784291
 30
0.0
 10
3.4395183304
 20
7.2594311144
 30
0.0
 10
3.4399445476
 20
7.2572323792
 30
0.0
 10
3.4400888121
 20
7.2561503761
 30
0.0
  0
SPLINE
  5
32A
100
AcDbEntity
  8
0
100
AcDbSpline
 62
9
  6
CONTINUOUS
 70
0
 71
3
 72
15
 73
11
 74
0
 42
0.0000001
 43
0.0000001
 44
0.0000000001
 40
0.0
 40
0.0
 40
0.0
 40
0.0
 40
0.0988995456
 40
0.2052038078
 40
0.3208749871
 40
0.4461112741
 40
0.5799338344
 40
0.7194478574
 40
0.8607393705
 40
1.0
 40
1.0
 40
1.0
 40
1.0
 10
3.4311007091
 20
7.27547513
 30
0.0
 10
3.4318381999
 20
7.2752784655
 30
0.0
 10
3.433323899
 20
7.2746825209
 30
0.0
 10
3.4353622077
 20
7.2732378725
 30
0.0
 10
3.4371506138
 20
7.2712140417
 30
0.0
 10
3.4386084444
 20
7.2686960654
 30
0.0
 10
3.4396399505
 20
7.2657824982
 30
0.0
 10
3.4402404455
 20
7.2626279744
 30
0.0
 10
3.4403934082
 20
7.259380539
 30
0.0
 10
3.4402319007
 20
7.2572156833
 30
0.0
 10
3.4400898604
 20
7.2561503596
 30
0.0
  0
SPLINE
  5
32B
100
AcDbEntity
  8
0
100
AcDbSpline
 62
9
  6
CONTINUOUS
 70
0
 71
3
 72
9
 73
5
 74
0
 42
0.0000001
 43
0.0000001
 44
0.0000000001
 40
0.0
 40
0.0
 40
0.0
 40
0.0
 40
0.5083750056
 40
1.0
 40
1.0
 40
1.0
 40
1.0
 10
3.4259471697
 20
7.2754752064
 30
0.0
 10
3.426801445
 20
7.2756878891
 30
0.0
 10
3.4285374542
 20
7.2759170718
 30
0.0
 10
3.4302778211
 20
7.2756945613
 30
0.0
 10
3.431100423
 20
7.2754752064
 30
0.0
  0
SPLINE
  5
32C
100
AcDbEntity
  8
0
100
AcDbSpline
 62
9
  6
CONTINUOUS
 70
0
 71
3
 72
9
 73
5
 74
0
 42
0.0000001
 43
0.0000001
 44
0.0000000001
 40
0.0
 40
0.0
 40
0.0
 40
0.0
 40
0.4916250112
 40
1.0
 40
1.0
 40
1.0
 40
1.0
 10
3.2293374139
 20
7.3292786754
 30
0.0
 10
3.2285148133
 20
7.3294980355
 30
0.0
 10
3.2267744444
 20
7.3297205375
 30
0.0
 10
3.2250384358
 20
7.3294913581
 30
0.0
 10
3.2241841606
 20
7.3292786755
 30
0.0
  0
SPLINE
  5
32D
100
AcDbEntity
  8
0
100
AcDbSpline
 62
9
  6
CONTINUOUS
 70
0
 71
3
 72
11
 73
7
 74
0
 42
0.0000001
 43
0.0000001
 44
0.0000000001
 40
0.0
 40
0.0
 40
0.0
 40
0.0
 40
0.2165919642
 40
0.4612031847
 40
0.7256434544
 40
1.0
 40
1.0
 40
1.0
 40
1.0
 10
3.4259472247
 20
7.2754751927
 30
0.0
 10
3.4249522755
 20
7.2752099102
 30
0.0
 10
3.4228045657
 20
7.2747534571
 30
0.0
 10
3.4193861258
 20
7.2742744034
 30
0.0
 10
3.4156713401
 20
7.2739803048
 30
0.0
 10
3.4131093629
 20
7.2739131117
 30
0.0
 10
3.4118050341
 20
7.2739130896
 30
0.0
  0
LINE
  5
32E
100
AcDbEntity
  8
0
100
AcDbLine
 62
9
  6
CONTINUOUS
 10
3.4400893055
 20
7.1937588467
 11
3.4518050341
 21
7.1999124473
  0
SPLINE
  5
32F
100
AcDbEntity
  8
0
100
AcDbSpline
 62
9
  6
CONTINUOUS
 70
0
 71
3
 72
12
 73
8
 74
0
 42
0.0000001
 43
0.0000001
 44
0.0000000001
 40
0.0
 40
0.0
 40
0.0
 40
0.0
 40
0.2756571302
 40
0.5408805088
 40
0.7853678205
 40
0.8970108709
 40
1.0
 40
1.0
 40
1.0
 40
1.0
 10
3.4118050341
 20
7.2545882939
 30
0.0
 10
3.4144095162
 20
7.2545882953
 30
0.0
 10
3.4195201723
 20
7.2546550554
 30
0.0
 10
3.42693557
 20
7.2549483792
 30
0.0
 10
3.4327933796
 20
7.255356346
 30
0.0
 10
3.437110631
 20
7.2557813362
 30
0.0
 10
3.4391243831
 20
7.256022317
 30
0.0
 10
3.4400889678
 20
7.2561505326
 30
0.0
  0
LINE
  5
330
100
AcDbEntity
  8
0
100
AcDbLine
 62
7
  6
CONTINUOUS
 10
22.0650204129
 20
11.5461931925
 11
22.0622948505
 21
11.5477515633
  0
SPLINE
  5
331
100
AcDbEntity
  8
0
100
AcDbSpline
 62
7
  6
CONTINUOUS
 70
0
 71
3
 72
11
 73
7
 74
0
 42
0.0000001
 43
0.0000001
 44
0.0000000001
 40
0.0
 40
0.0
 40
0.0
 40
0.0
 40
0.2620142936
 40
0.519680079
 40
0.7673310529
 40
1.0
 40
1.0
 40
1.0
 40
1.0
 10
20.4329256367
 20
11.411391804
 30
0.0
 10
20.4329256367
 20
11.4172025952
 30
0.0
 10
20.4330053023
 20
11.4287277647
 30
0.0
 10
20.4332785439
 20
11.4457431337
 30
0.0
 10
20.433628086
 20
11.4621058181
 30
0.0
 10
20.4337680253
 20
11.4727578152
 30
0.0
 10
20.4337667017
 20
11.4779178031
 30
0.0
  0
SPLINE
  5
332
100
AcDbEntity
  8
0
100
AcDbSpline
 62
7
  6
CONTINUOUS
 70
0
 71
3
 72
42
 73
38
 74
0
 42
0.0000001
 43
0.0000001
 44
0.0000000001
 40
0.0
 40
0.0
 40
0.0
 40
0.0
 40
0.0984088411
 40
0.1963680929
 40
0.2929111887
 40
0.3871298637
 40
0.4330774751
 40
0.4780679037
 40
0.5645511044
 40
0.6452705884
 40
0.7190860473
 40
0.7850486602
 40
0.8148203225
 40
0.8424105393
 40
0.8677943649
 40
0.8909345269
 40
0.9118058886
 40
0.9304272282
 40
0.9468178677
 40
0.9609908725
 40
0.9729536476
 40
0.9781086498
 40
0.9827149566
 40
0.9867742534
 40
0.9902881568
 40
0.9932582147
 40
0.9956859064
 40
0.9966968092
 40
0.9975726444
 40
0.9983135783
 40
0.998919774
 40
0.9993913924
 40
0.9997285954
 40
0.9998468261
 40
0.9999314664
 40
0.9999825103
 40
1.0
 40
1.0
 40
1.0
 40
1.0
 10
20.0069170761
 20
11.411391804
 30
0.0
 10
20.0069170761
 20
11.4167416849
 30
0.0
 10
20.0074391765
 20
11.4274234978
 30
0.0
 10
20.0097175761
 20
11.4432068804
 30
0.0
 10
20.0134501147
 20
11.4584769871
 30
0.0
 10
20.0176665216
 20
11.4706561491
 30
0.0
 10
20.0216163341
 20
11.4799181265
 30
0.0
 10
20.0258098472
 20
11.4886073004
 30
0.0
 10
20.0315032683
 20
11.4986583743
 30
0.0
 10
20.0389266278
 20
11.5094743319
 30
0.0
 10
20.0465161287
 20
11.5187689646
 30
0.0
 10
20.0528748497
 20
11.5254541319
 30
0.0
 10
20.0577565433
 20
11.5300512118
 30
0.0
 10
20.0611339609
 20
11.5330237415
 30
0.0
 10
20.0643253078
 20
11.5356585796
 30
0.0
 10
20.0673030202
 20
11.5379757443
 30
0.0
 10
20.0700440702
 20
11.539996366
 30
0.0
 10
20.0725340331
 20
11.5417374941
 30
0.0
 10
20.0747603236
 20
11.5432188632
 30
0.0
 10
20.076711147
 20
11.5444597332
 30
0.0
 10
20.0781607779
 20
11.5453499293
 30
0.0
 10
20.0791728601
 20
11.5459585947
 30
0.0
 10
20.0798191465
 20
11.5463417852
 30
0.0
 10
20.0803907293
 20
11.5466760113
 30
0.0
 10
20.0808872441
 20
11.5469623735
 30
0.0
 10
20.0813083101
 20
11.5472019931
 30
0.0
 10
20.0816120522
 20
11.5473726546
 30
0.0
 10
20.0818169715
 20
11.5474867577
 30
0.0
 10
20.0819419418
 20
11.5475559763
 30
0.0
 10
20.0820477206
 20
11.5476143627
 30
0.0
 10
20.0821344491
 20
11.5476619928
 30
0.0
 10
20.0822015866
 20
11.5476991621
 30
0.0
 10
20.0822462227
 20
11.5477233853
 30
0.0
 10
20.0822710957
 20
11.5477380045
 30
0.0
 10
20.0822842691
 20
11.547744473
 30
0.0
 10
20.0822893378
 20
11.5477493625
 30
0.0
 10
20.0822947171
 20
11.5477506354
 30
0.0
 10
20.0822945099
 20
11.5477515633
 30
0.0
  0
LINE
  5
333
100
AcDbEntity
  8
0
100
AcDbLine
 62
7
  6
CONTINUOUS
 10
20.0821278363
 20
10.712031866
 11
20.0822945104
 21
10.7118251081
  0
LINE
  5
334
100
AcDbEntity
  8
0
100
AcDbLine
 62
7
  6
CONTINUOUS
 10
22.0624615241
 20
10.712031866
 11
22.0622948501
 21
10.7118251081
  0
SPLINE
  5
335
100
AcDbEntity
  8
0
100
AcDbSpline
 62
7
  6
CONTINUOUS
 70
0
 71
3
 72
11
 73
7
 74
0
 42
0.0000001
 43
0.0000001
 44
0.0000000001
 40
0.0
 40
0.0
 40
0.0
 40
0.0
 40
0.2326649066
 40
0.4803015437
 40
0.7379674324
 40
1.0
 40
1.0
 40
1.0
 40
1.0
 10
21.7108228385
 20
11.4779177075
 30
0.0
 10
21.7108218655
 20
11.4727578167
 30
0.0
 10
21.7109614446
 20
11.4621062454
 30
0.0
 10
21.7113107439
 20
11.4457439823
 30
0.0
 10
21.7115842733
 20
11.428728554
 30
0.0
 10
21.7116637237
 20
11.4172029918
 30
0.0
 10
21.7116637237
 20
11.411391804
 30
0.0
  0
LINE
  5
336
100
AcDbEntity
  8
0
100
AcDbLine
 62
7
  6
CONTINUOUS
 10
20.0822945099
 20
11.5477515633
 11
20.079013035
 21
11.5458603188
  0
SPLINE
  5
337
100
AcDbEntity
  8
0
100
AcDbSpline
 62
7
  6
CONTINUOUS
 70
0
 71
3
 72
39
 73
35
 74
0
 42
0.0000001
 43
0.0000001
 44
0.0000000001
 40
0.0
 40
0.0
 40
0.0
 40
0.0
 40
0.0000163743
 40
0.0000663208
 40
0.0001499179
 40
0.0002671893
 40
0.0006028259
 40
0.0010733642
 40
0.001678932
 40
0.0024196575
 40
0.0032956698
 40
0.0043070998
 40
0.0067367422
 40
0.0097096656
 40
0.0132269764
 40
0.0172898091
 40
0.0218993255
 40
0.0270566455
 40
0.0390187902
 40
0.0531869801
 40
0.0695766214
 40
0.0882082692
 40
0.1091068178
 40
0.1322696253
 40
0.1576619433
 40
0.2150361554
 40
0.2810532515
 40
0.3549016776
 40
0.4356400799
 40
0.6128895859
 40
0.7071018985
 40
0.8036349644
 40
0.9015898918
 40
1.0
 40
1.0
 40
1.0
 40
1.0
 10
22.0622948505
 20
11.5477515633
 30
0.0
 10
22.0622950444
 20
11.5477524319
 30
0.0
 10
22.0622999701
 20
11.547748195
 30
0.0
 10
22.0623056203
 20
11.5477471534
 30
0.0
 10
22.0623186283
 20
11.5477393427
 30
0.0
 10
22.0623438233
 20
11.5477265912
 30
0.0
 10
22.0623884139
 20
11.5477020703
 30
0.0
 10
22.0624555655
 20
11.5476656431
 30
0.0
 10
22.0625421449
 20
11.547617878
 30
0.0
 10
22.0626477361
 20
11.547559323
 30
0.0
 10
22.0627724564
 20
11.5474896455
 30
0.0
 10
22.0629769988
 20
11.5473746798
 30
0.0
 10
22.0632802193
 20
11.5472026484
 30
0.0
 10
22.0637007783
 20
11.546961448
 30
0.0
 10
22.0641970461
 20
11.5466738352
 30
0.0
 10
22.0647687994
 20
11.5463390858
 30
0.0
 10
22.0654158326
 20
11.5459565034
 30
0.0
 10
22.0664297666
 20
11.5453508942
 30
0.0
 10
22.0678806035
 20
11.5444636308
 30
0.0
 10
22.069830061
 20
11.5432221259
 30
0.0
 10
22.0720546566
 20
11.5417387796
 30
0.0
 10
22.0745443234
 20
11.539994907
 30
0.0
 10
22.0772881598
 20
11.5379738085
 30
0.0
 10
22.0802689095
 20
11.5356566053
 30
0.0
 10
22.0847093826
 20
11.5319905842
 30
0.0
 10
22.0906871378
 20
11.5265342861
 30
0.0
 10
22.0980803282
 20
11.5187583762
 30
0.0
 10
22.1056729908
 20
11.5094605392
 30
0.0
 10
22.1158867706
 20
11.4945754491
 30
0.0
 10
22.124596936
 20
11.477390042
 30
0.0
 10
22.1311416989
 20
11.4584668305
 30
0.0
 10
22.134873404
 20
11.443199122
 30
0.0
 10
22.1371504441
 20
11.4274201559
 30
0.0
 10
22.1376722844
 20
11.416740635
 30
0.0
 10
22.1376722844
 20
11.411391804
 30
0.0
  0
SPLINE
  5
338
100
AcDbEntity
  8
0
100
AcDbSpline
 62
7
  6
CONTINUOUS
 70
0
 71
3
 72
30
 73
26
 74
0
 42
0.0000001
 43
0.0000001
 44
0.0000000001
 40
0.0
 40
0.0
 40
0.0
 40
0.0
 40
0.0503501046
 40
0.098395748
 40
0.1444140018
 40
0.166886095
 40
0.1891621755
 40
0.211433331
 40
0.2339413547
 40
0.2569715612
 40
0.280829948
 40
0.3058175972
 40
0.3321959469
 40
0.3601537677
 40
0.3897908859
 40
0.4211158916
 40
0.454055481
 40
0.488476274
 40
0.5242102455
 40
0.598862691
 40
0.6766468451
 40
0.7564110551
 40
0.837285084
 40
0.918641878
 40
1.0
 40
1.0
 40
1.0
 40
1.0
 10
21.7108227652
 20
10.7854649766
 30
0.0
 10
21.7108228806
 20
10.7804000889
 30
0.0
 10
21.7113551058
 20
10.7704879671
 30
0.0
 10
21.7140660365
 20
10.7561672436
 30
0.0
 10
21.7181399415
 20
10.7450943653
 30
0.0
 10
21.7225868597
 20
10.7371013446
 30
0.0
 10
21.726517913
 20
10.7316046785
 30
0.0
 10
21.7310991439
 20
10.7266289466
 30
0.0
 10
21.7363524334
 20
10.7222457981
 30
0.0
 10
21.7422895111
 20
10.7185322821
 30
0.0
 10
21.7489058016
 20
10.7155620332
 30
0.0
 10
21.7561793806
 20
10.7133995253
 30
0.0
 10
21.764070892
 20
10.7120949103
 30
0.0
 10
21.7725242663
 20
10.7116767702
 30
0.0
 10
21.7814702709
 20
10.7121511495
 30
0.0
 10
21.7908303848
 20
10.7135024416
 30
0.0
 10
21.8005215922
 20
10.7156945957
 30
0.0
 10
21.810462464
 20
10.7186741739
 30
0.0
 10
21.8241467893
 20
10.7236873959
 30
0.0
 10
21.8413792439
 20
10.7315919413
 30
0.0
 10
21.8617849014
 20
10.7429944825
 30
0.0
 10
21.8819536043
 20
10.7559973335
 30
0.0
 10
21.9017162677
 20
10.7702258538
 30
0.0
 10
21.9209716565
 20
10.7853901426
 30
0.0
 10
21.9334484796
 20
10.7959905204
 30
0.0
 10
21.9395970936
 20
10.801391804
 30
0.0
  0
SPLINE
  5
339
100
AcDbEntity
  8
0
100
AcDbSpline
 62
7
  6
CONTINUOUS
 70
0
 71
3
 72
24
 73
20
 74
0
 42
0.0000001
 43
0.0000001
 44
0.0000000001
 40
0.0
 40
0.0
 40
0.0
 40
0.0
 40
0.1318155564
 40
0.1968478231
 40
0.2607550219
 40
0.323313441
 40
0.3844555813
 40
0.4442310754
 40
0.4737193738
 40
0.503025583
 40
0.5613760349
 40
0.5906412986
 40
0.6200884625
 40
0.679812819
 40
0.741031758
 40
0.803916132
 40
0.8683483741
 40
0.9339386735
 40
1.0
 40
1.0
 40
1.0
 40
1.0
 10
21.0722946802
 20
11.5477507055
 30
0.0
 10
21.0616258776
 20
11.5477507055
 30
0.0
 10
21.0456777319
 20
11.5471048947
 30
0.0
 10
21.024704375
 20
11.5446828841
 30
0.0
 10
21.0094267479
 20
11.5420042475
 30
0.0
 10
20.9946874546
 20
11.538284805
 30
0.0
 10
20.9806502921
 20
11.5333694369
 30
0.0
 10
20.9696355844
 20
11.5281111141
 30
0.0
 10
20.9614130596
 20
11.5231489821
 30
0.0
 10
20.9536470776
 20
11.5176995749
 30
0.0
 10
20.946489639
 20
11.5114491577
 30
0.0
 10
20.9400791461
 20
11.5044625727
 30
0.0
 10
20.9341387448
 20
11.4969288181
 30
0.0
 10
20.9276601347
 20
11.4865741838
 30
0.0
 10
20.9214601383
 20
11.4730087871
 30
0.0
 10
20.9167634295
 20
11.4584582045
 30
0.0
 10
20.9134827596
 20
11.4431697218
 30
0.0
 10
20.9115454903
 20
11.4273993629
 30
0.0
 10
20.9111214488
 20
11.4167386332
 30
0.0
 10
20.9111214488
 20
11.411391804
 30
0.0
  0
SPLINE
  5
33A
100
AcDbEntity
  8
0
100
AcDbSpline
 62
7
  6
CONTINUOUS
 70
0
 71
3
 72
39
 73
35
 74
0
 42
0.0000001
 43
0.0000001
 44
0.0000000001
 40
0.0
 40
0.0
 40
0.0
 40
0.0
 40
0.0394031317
 40
0.0788887781
 40
0.118376639
 40
0.1578376955
 40
0.1972855125
 40
0.236742056
 40
0.2761786569
 40
0.2958725993
 40
0.3155302949
 40
0.3546816635
 40
0.393502856
 40
0.4317850337
 40
0.4693739156
 40
0.541636922
 40
0.576003128
 40
0.6089519697
 40
0.6403364691
 40
0.6700425978
 40
0.6979527162
 40
0.7239866308
 40
0.7481097099
 40
0.7703445532
 40
0.7908527252
 40
0.8099759859
 40
0.8282870731
 40
0.8466435268
 40
0.8660357701
 40
0.8873730063
 40
0.9112498483
 40
0.9380097931
 40
0.9676759275
 40
1.0
 40
1.0
 40
1.0
 40
1.0
 10
21.9395970936
 20
11.411391804
 30
0.0
 10
21.9395970936
 20
11.4160171525
 30
0.0
 10
21.9390934605
 20
11.4252851095
 30
0.0
 10
21.9368480757
 20
11.4390243905
 30
0.0
 10
21.9331126117
 20
11.4524454733
 30
0.0
 10
21.9279136715
 20
11.4653650993
 30
0.0
 10
21.9213130576
 20
11.4776252429
 30
0.0
 10
21.9133677171
 20
11.4890551102
 30
0.0
 10
21.905743183
 20
11.4977936902
 30
0.0
 10
21.899117714
 20
11.5042520157
 30
0.0
 10
21.8921791354
 20
11.5103221624
 30
0.0
 10
21.8829792979
 20
11.5171904448
 30
0.0
 10
21.8713065887
 20
11.5242952675
 30
0.0
 10
21.8592180363
 20
11.5302593109
 30
0.0
 10
21.8430536741
 20
11.5367050519
 30
0.0
 10
21.8267205111
 20
11.5413526678
 30
0.0
 10
21.8106355525
 20
11.5444926012
 30
0.0
 10
21.7991646974
 20
11.5461550568
 30
0.0
 10
21.7881743645
 20
11.5472297705
 30
0.0
 10
21.7777364332
 20
11.5477558224
 30
0.0
 10
21.7679131584
 20
11.5477883971
 30
0.0
 10
21.7587558456
 20
11.5473113548
 30
0.0
 10
21.7503118488
 20
11.5462900248
 30
0.0
 10
21.7426141527
 20
11.5446954738
 30
0.0
 10
21.7356942911
 20
11.5424273454
 30
0.0
 10
21.7295849966
 20
11.5393669838
 30
0.0
 10
21.7243342498
 20
11.5353812183
 30
0.0
 10
21.7199955466
 20
11.5303691845
 30
0.0
 10
21.7166030302
 20
11.524269637
 30
0.0
 10
21.7141284821
 20
11.5170700099
 30
0.0
 10
21.7124246832
 20
11.5087784435
 30
0.0
 10
21.7113926273
 20
11.499399447
 30
0.0
 10
21.710896483
 20
11.488989487
 30
0.0
 10
21.710823554
 20
11.4817120784
 30
0.0
 10
21.7108228385
 20
11.4779177075
 30
0.0
  0
SPLINE
  5
33B
100
AcDbEntity
  8
0
100
AcDbSpline
 62
7
  6
CONTINUOUS
 70
0
 71
3
 72
30
 73
26
 74
0
 42
0.0000001
 43
0.0000001
 44
0.0000000001
 40
0.0
 40
0.0
 40
0.0
 40
0.0
 40
0.0813579631
 40
0.1627145681
 40
0.2435885479
 40
0.3233527157
 40
0.4011369198
 40
0.4757894197
 40
0.5115235583
 40
0.5459443855
 40
0.5788838979
 40
0.6102089664
 40
0.6398461317
 40
0.6678039278
 40
0.6941822543
 40
0.719169968
 40
0.74302836
 40
0.7660584691
 40
0.7885664896
 40
0.8108376414
 40
0.8331137271
 40
0.855585803
 40
0.9016040897
 40
0.9496497686
 40
1.0
 40
1.0
 40
1.0
 40
1.0
 10
20.2049922669
 20
10.801391804
 30
0.0
 10
20.2111408688
 20
10.795990531
 30
0.0
 10
20.2236176669
 20
10.7853901779
 30
0.0
 10
20.2428730214
 20
10.7702259106
 30
0.0
 10
20.2626356581
 20
10.7559974017
 30
0.0
 10
20.2828043526
 20
10.7429945454
 30
0.0
 10
20.3032100124
 20
10.7315919965
 30
0.0
 10
20.3204424866
 20
10.7236874271
 30
0.0
 10
20.3341268367
 20
10.7186741992
 30
0.0
 10
20.3440677164
 20
10.7156946031
 30
0.0
 10
20.3537589272
 20
10.713502455
 30
0.0
 10
20.3631190425
 20
10.7121511521
 30
0.0
 10
20.372065056
 20
10.7116767699
 30
0.0
 10
20.3805184295
 20
10.7120949092
 30
0.0
 10
20.3884099454
 20
10.7133995112
 30
0.0
 10
20.3956835257
 20
10.7155620298
 30
0.0
 10
20.4022998215
 20
10.7185322592
 30
0.0
 10
20.4082368899
 20
10.7222457729
 30
0.0
 10
20.4134901742
 20
10.7266289103
 30
0.0
 10
20.4180714135
 20
10.7316046344
 30
0.0
 10
20.4220024708
 20
10.7371012958
 30
0.0
 10
20.4264493951
 20
10.7450943154
 30
0.0
 10
20.4305233117
 20
10.7561671948
 30
0.0
 10
20.4332342565
 20
10.770487936
 30
0.0
 10
20.4337664806
 20
10.7804000744
 30
0.0
 10
20.4337665972
 20
10.7854649749
 30
0.0
  0
SPLINE
  5
33C
100
AcDbEntity
  8
0
100
AcDbSpline
 62
7
  6
CONTINUOUS
 70
0
 71
3
 72
38
 73
34
 74
0
 42
0.0000001
 43
0.0000001
 44
0.0000000001
 40
0.0
 40
0.0
 40
0.0
 40
0.0
 40
0.0323261066
 40
0.0619913413
 40
0.0887530356
 40
0.1126285396
 40
0.133958034
 40
0.1533416936
 40
0.1716925882
 40
0.1900013588
 40
0.209114386
 40
0.2296103586
 40
0.2518409731
 40
0.2759544743
 40
0.3019817001
 40
0.32989106
 40
0.3595929265
 40
0.3909835444
 40
0.4582941831
 40
0.4939109657
 40
0.5306342485
 40
0.5682384851
 40
0.6065403504
 40
0.6453844632
 40
0.6845531281
 40
0.7042170679
 40
0.723916078
 40
0.7633612057
 40
0.8028244395
 40
0.8422737644
 40
0.8817332377
 40
0.9212204119
 40
1.0
 40
1.0
 40
1.0
 40
1.0
 10
20.4337667017
 20
11.4779178031
 30
0.0
 10
20.4337657284
 20
11.4817120297
 30
0.0
 10
20.4336923185
 20
11.4889888332
 30
0.0
 10
20.4331960371
 20
11.4993980497
 30
0.0
 10
20.4321657583
 20
11.5087761786
 30
0.0
 10
20.4304642026
 20
11.5170664928
 30
0.0
 10
20.4279898435
 20
11.5242633491
 30
0.0
 10
20.4245989056
 20
11.5303595351
 30
0.0
 10
20.4202670017
 20
11.5353739452
 30
0.0
 10
20.4150185812
 20
11.5393587592
 30
0.0
 10
20.4089123958
 20
11.542417164
 30
0.0
 10
20.4019970367
 20
11.5446854914
 30
0.0
 10
20.3943054563
 20
11.5462908657
 30
0.0
 10
20.3858638453
 20
11.5473080293
 30
0.0
 10
20.3767096251
 20
11.5477814644
 30
0.0
 10
20.3668887281
 20
11.5477635709
 30
0.0
 10
20.3564514098
 20
11.5472320558
 30
0.0
 10
20.3414490045
 20
11.5457608248
 30
0.0
 10
20.3258712291
 20
11.5431377287
 30
0.0
 10
20.3099761837
 20
11.5391032567
 30
0.0
 10
20.2976769879
 20
11.5351663458
 30
0.0
 10
20.2853855237
 20
11.5302676152
 30
0.0
 10
20.2732933827
 20
11.5242994751
 30
0.0
 10
20.2616160265
 20
11.5171913296
 30
0.0
 10
20.2524117909
 20
11.5103218689
 30
0.0
 10
20.2454703527
 20
11.5042512827
 30
0.0
 10
20.2388435959
 20
11.4977922282
 30
0.0
 10
20.2312195997
 20
11.489051583
 30
0.0
 10
20.2232740806
 20
11.4776210713
 30
0.0
 10
20.2166733298
 20
11.4653623795
 30
0.0
 10
20.2114757144
 20
11.4524411746
 30
0.0
 10
20.2065034584
 20
11.4345817496
 30
0.0
 10
20.2049922669
 20
11.4206384362
 30
0.0
 10
20.2049922669
 20
11.411391804
 30
0.0
  0
SPLINE
  5
33D
100
AcDbEntity
  8
0
100
AcDbSpline
 62
7
  6
CONTINUOUS
 70
0
 71
3
 72
13
 73
9
 74
0
 42
0.0000001
 43
0.0000001
 44
0.0000000001
 40
0.0
 40
0.0
 40
0.0
 40
0.0
 40
0.1361919405
 40
0.2704629432
 40
0.4014873296
 40
0.5286684137
 40
0.7711438767
 40
1.0
 40
1.0
 40
1.0
 40
1.0
 10
21.0722946802
 20
10.7118248749
 30
0.0
 10
21.0636183706
 20
10.7118248749
 30
0.0
 10
21.0463591188
 20
10.7131595144
 30
0.0
 10
21.0213582155
 20
10.7189541391
 30
0.0
 10
20.9979573839
 20
10.7279796925
 30
0.0
 10
20.9698359104
 20
10.7431793181
 30
0.0
 10
20.9395841461
 20
10.7668722984
 30
0.0
 10
20.9197383917
 20
10.7896311246
 30
0.0
 10
20.9111214488
 20
10.801391804
 30
0.0
  0
SPLINE
  5
33E
100
AcDbEntity
  8
0
100
AcDbSpline
 62
7
  6
CONTINUOUS
 70
0
 71
3
 72
13
 73
9
 74
0
 42
0.0000001
 43
0.0000001
 44
0.0000000001
 40
0.0
 40
0.0
 40
0.0
 40
0.0
 40
0.1361907858
 40
0.2704613601
 40
0.4014854853
 40
0.5286666607
 40
0.771142723
 40
1.0
 40
1.0
 40
1.0
 40
1.0
 10
21.0722946802
 20
10.7118248749
 30
0.0
 10
21.0809709164
 20
10.7118248749
 30
0.0
 10
21.0982300679
 20
10.7131594844
 30
0.0
 10
21.1232308618
 20
10.7189540608
 30
0.0
 10
21.1466316742
 20
10.7279795557
 30
0.0
 10
21.1747531991
 20
10.7431791444
 30
0.0
 10
21.2050050979
 20
10.7668721502
 30
0.0
 10
21.2248509252
 20
10.7896310652
 30
0.0
 10
21.2334679117
 20
10.801391804
 30
0.0
  0
SPLINE
  5
33F
100
AcDbEntity
  8
0
100
AcDbSpline
 62
7
  6
CONTINUOUS
 70
0
 71
3
 72
23
 73
19
 74
0
 42
0.0000001
 43
0.0000001
 44
0.0000000001
 40
0.0
 40
0.0
 40
0.0
 40
0.0
 40
0.0661002177
 40
0.1317071201
 40
0.1961386317
 40
0.2590242577
 40
0.3202493414
 40
0.3799610295
 40
0.4386265964
 40
0.4678070915
 40
0.4969974263
 40
0.5557520779
 40
0.615524557
 40
0.6766488283
 40
0.7392202366
 40
0.8031230575
 40
0.8681440121
 40
1.0
 40
1.0
 40
1.0
 40
1.0
 10
21.2334679117
 20
11.411391804
 30
0.0
 10
21.2334679117
 20
11.416741609
 30
0.0
 10
21.2330431293
 20
11.4274064997
 30
0.0
 10
21.231104783
 20
11.443180594
 30
0.0
 10
21.2278233601
 20
11.4584700954
 30
0.0
 10
21.2231221406
 20
11.4730187049
 30
0.0
 10
21.2169263354
 20
11.4865863339
 30
0.0
 10
21.2091908492
 20
11.4989474013
 30
0.0
 10
21.2014251656
 20
11.5080821273
 30
0.0
 10
21.194527457
 20
11.5145848152
 30
0.0
 10
21.1871622684
 20
11.5205650817
 30
0.0
 10
21.1770902177
 20
11.5270810814
 30
0.0
 10
21.1639461586
 20
11.5333749456
 30
0.0
 10
21.1499055213
 20
11.5382833849
 30
0.0
 10
21.1351671976
 20
11.541997887
 30
0.0
 10
21.1198915986
 20
11.5446851237
 30
0.0
 10
21.0989159104
 20
11.5470991129
 30
0.0
 10
21.0829664124
 20
11.5477507055
 30
0.0
 10
21.0722946802
 20
11.5477507055
 30
0.0
  0
LINE
  5
340
100
AcDbEntity
  8
0
100
AcDbLine
 62
7
  6
CONTINUOUS
 10
11.1110304021
 20
6.6236754739
 11
11.1129495006
 21
6.6236545019
  0
SPLINE
  5
341
100
AcDbEntity
  8
0
100
AcDbSpline
 62
7
  6
CONTINUOUS
 70
0
 71
3
 72
11
 73
7
 74
0
 42
0.0000001
 43
0.0000001
 44
0.0000000001
 40
0.0
 40
0.0
 40
0.0
 40
0.0
 40
0.2557763632
 40
0.5076861471
 40
0.7557164749
 40
1.0
 40
1.0
 40
1.0
 40
1.0
 10
11.526028506
 20
7.5024233136
 30
0.0
 10
11.5000771699
 20
7.4314023209
 30
0.0
 10
11.444999718
 20
7.291709375
 30
0.0
 10
11.3529214453
 20
7.0880676815
 30
0.0
 10
11.2528879329
 20
6.8920282664
 30
0.0
 10
11.1809693134
 20
6.7654370934
 30
0.0
 10
11.1439628836
 20
6.7034232685
 30
0.0
  0
LINE
  5
342
100
AcDbEntity
  8
0
100
AcDbLine
 62
7
  6
CONTINUOUS
 10
11.1439628836
 20
6.7034232685
 11
11.1397457242
 21
6.6963693227
  0
SPLINE
  5
343
100
AcDbEntity
  8
0
100
AcDbSpline
 62
7
  6
CONTINUOUS
 70
0
 71
3
 72
16
 73
12
 74
0
 42
0.0000001
 43
0.0000001
 44
0.0000000001
 40
0.0
 40
0.0
 40
0.0
 40
0.0
 40
0.1214630479
 40
0.2441784617
 40
0.3680489064
 40
0.4929442638
 40
0.5557408344
 40
0.6187481994
 40
0.7453082553
 40
0.8724532919
 40
1.0
 40
1.0
 40
1.0
 40
1.0
 10
12.6185595748
 20
7.5024222166
 30
0.0
 10
12.5996315287
 20
7.5542216481
 30
0.0
 10
12.5634925109
 20
7.6590654402
 30
0.0
 10
12.5150157551
 20
7.819029541
 30
0.0
 10
12.4722354091
 20
7.9822235612
 30
0.0
 10
12.4415891192
 20
8.1203648856
 30
0.0
 10
12.4201437672
 20
8.2321608156
 30
0.0
 10
12.4007412907
 20
8.3450963503
 30
0.0
 10
12.3804929893
 20
8.4875034412
 30
0.0
 10
12.3626294365
 20
8.6597218259
 30
0.0
 10
12.3550227474
 20
8.7751445209
 30
0.0
 10
12.3522953741
 20
8.8329918621
 30
0.0
  0
LINE
  5
344
100
AcDbEntity
  8
0
100
AcDbLine
 62
7
  6
CONTINUOUS
 10
10.9229217078
 20
6.3637978644
 11
10.9226330954
 21
6.3633918105
  0
LINE
  5
345
100
AcDbEntity
  8
0
100
AcDbLine
 62
7
  6
CONTINUOUS
 10
13.0047940163
 20
6.6964521706
 11
13.0005264677
 21
6.703590941
  0
SPLINE
  5
346
100
AcDbEntity
  8
0
100
AcDbSpline
 62
7
  6
CONTINUOUS
 70
0
 71
3
 72
11
 73
7
 74
0
 42
0.0000001
 43
0.0000001
 44
0.0000000001
 40
0.0
 40
0.0
 40
0.0
 40
0.0
 40
0.2442897429
 40
0.4923088484
 40
0.7442131652
 40
1.0
 40
1.0
 40
1.0
 40
1.0
 10
13.0005264677
 20
6.703590941
 30
0.0
 10
12.9635299217
 20
6.765594239
 30
0.0
 10
12.8916322865
 20
6.8921586427
 30
0.0
 10
12.7916279021
 20
7.0881548617
 30
0.0
 10
12.6995731704
 20
7.2917509556
 30
0.0
 10
12.6445066557
 20
7.4314141455
 30
0.0
 10
12.6185595748
 20
7.5024222166
 30
0.0
  0
SPLINE
  5
347
100
AcDbEntity
  8
0
100
AcDbSpline
 62
7
  6
CONTINUOUS
 70
0
 71
3
 72
16
 73
12
 74
0
 42
0.0000001
 43
0.0000001
 44
0.0000000001
 40
0.0
 40
0.0
 40
0.0
 40
0.0
 40
0.1275463735
 40
0.2546860018
 40
0.3812388585
 40
0.4442429891
 40
0.5070370388
 40
0.6319300013
 40
0.7558022721
 40
0.8785245402
 40
1.0
 40
1.0
 40
1.0
 40
1.0
 10
11.7922944014
 20
8.832991826
 30
0.0
 10
11.7895671896
 20
8.7751446462
 30
0.0
 10
11.7819615285
 20
8.6597245397
 30
0.0
 10
11.7641000256
 20
8.4875118977
 30
0.0
 10
11.7438534221
 20
8.3451118657
 30
0.0
 10
11.7244520586
 20
8.2321821404
 30
0.0
 10
11.7030072907
 20
8.120389899
 30
0.0
 10
11.6723608265
 20
7.9822500886
 30
0.0
 10
11.6295791088
 20
7.8190535303
 30
0.0
 10
11.5810994495
 20
7.6590803641
 30
0.0
 10
11.5449581806
 20
7.554228133
 30
0.0
 10
11.526028506
 20
7.5024233136
 30
0.0
  0
LINE
  5
348
100
AcDbEntity
  8
0
100
AcDbLine
 62
7
  6
CONTINUOUS
 10
13.2219562636
 20
6.3633918101
 11
13.221667654
 21
6.3637978619
  0
SPLINE
  5
349
100
AcDbEntity
  8
0
100
AcDbSpline
 62
7
  6
CONTINUOUS
 70
0
 71
3
 72
9
 73
5
 74
0
 42
0.0000001
 43
0.0000001
 44
0.0000000001
 40
0.0
 40
0.0
 40
0.0
 40
0.0
 40
0.5123923635
 40
1.0
 40
1.0
 40
1.0
 40
1.0
 10
11.1270997571
 20
6.6441243351
 30
0.0
 10
11.1271940542
 20
6.6426647832
 30
0.0
 10
11.1270364286
 20
6.6397889459
 30
0.0
 10
11.1263232863
 20
6.6370047439
 30
0.0
 10
11.1258400024
 20
6.6356994936
 30
0.0
  0
SPLINE
  5
34A
100
AcDbEntity
  8
0
100
AcDbSpline
 62
7
  6
CONTINUOUS
 70
0
 71
3
 72
11
 73
7
 74
0
 42
0.0000001
 43
0.0000001
 44
0.0000000001
 40
0.0
 40
0.0
 40
0.0
 40
0.0
 40
0.2868754514
 40
0.5449329284
 40
0.7804133079
 40
1.0
 40
1.0
 40
1.0
 40
1.0
 10
11.1258400024
 20
6.6356994936
 30
0.0
 10
11.1253757184
 20
6.634445558
 30
0.0
 10
11.1242395584
 20
6.6321482999
 30
0.0
 10
11.1220023503
 20
6.6292570046
 30
0.0
 10
11.1195543378
 20
6.6269877865
 30
0.0
 10
11.1177766396
 20
6.6258121215
 30
0.0
 10
11.1168823305
 20
6.6253143723
 30
0.0
  0
LINE
  5
34B
100
AcDbEntity
  8
0
100
AcDbLine
 62
7
  6
CONTINUOUS
 10
13.2216667932
 20
6.3637990743
 11
13.2163252033
 21
6.3713766174
  0
LINE
  5
34C
100
AcDbEntity
  8
0
100
AcDbLine
 62
7
  6
CONTINUOUS
 10
13.0316426683
 20
6.6236546263
 11
13.0333401593
 21
6.6236731067
  0
LINE
  5
34D
100
AcDbEntity
  8
0
100
AcDbLine
 62
7
  6
CONTINUOUS
 10
13.0333401593
 20
6.6236731067
 11
13.0335665489
 21
6.6236756679
  0
SPLINE
  5
34E
100
AcDbEntity
  8
0
100
AcDbSpline
 62
9
  6
CONTINUOUS
 70
0
 71
3
 72
17
 73
13
 74
0
 42
0.0000001
 43
0.0000001
 44
0.0000000001
 40
0.0
 40
0.0
 40
0.0
 40
0.0
 40
0.1799610351
 40
0.3550424618
 40
0.5178305704
 40
0.6611938986
 40
0.7796999032
 40
0.8732625148
 40
0.9114731402
 40
0.9446348643
 40
0.9736725926
 40
1.0
 40
1.0
 40
1.0
 40
1.0
 10
11.7115470738
 20
9.9121859455
 30
0.0
 10
11.7105897139
 20
9.9121105063
 30
0.0
 10
11.7087043392
 20
9.9119148384
 30
0.0
 10
11.7059721739
 20
9.9114924344
 30
0.0
 10
11.7034598033
 20
9.9109537335
 30
0.0
 10
11.7012817575
 20
9.9103146959
 30
0.0
 10
11.6995315615
 20
9.9095724633
 30
0.0
 10
11.6983908915
 20
9.9088569596
 30
0.0
 10
11.6977488386
 20
9.9082507079
 30
0.0
 10
11.6974224381
 20
9.9078218726
 30
0.0
 10
11.697219666
 20
9.9073904802
 30
0.0
 10
11.6971698713
 20
9.9070941208
 30
0.0
 10
11.6971690207
 20
9.9069536323
 30
0.0
  0
SPLINE
  5
34F
100
AcDbEntity
  8
0
100
AcDbSpline
 62
9
  6
CONTINUOUS
 70
0
 71
3
 72
17
 73
13
 74
0
 42
0.0000001
 43
0.0000001
 44
0.0000000001
 40
0.0
 40
0.0
 40
0.0
 40
0.0
 40
0.1748359046
 40
0.3462863098
 40
0.5074999166
 40
0.6519839574
 40
0.7738163234
 40
0.8702466913
 40
0.9094388056
 40
0.9432542846
 40
0.9728484541
 40
1.0
 40
1.0
 40
1.0
 40
1.0
 10
12.4330423369
 20
9.9121858803
 30
0.0
 10
12.4330157791
 20
9.9131265144
 30
0.0
 10
12.4329217689
 20
9.9149886809
 30
0.0
 10
12.4326505169
 20
9.9177080602
 30
0.0
 10
12.4322369577
 20
9.9202445546
 30
0.0
 10
12.4316940263
 20
9.9224840981
 30
0.0
 10
12.431036726
 20
9.9243265544
 30
0.0
 10
12.4303654983
 20
9.9255522754
 30
0.0
 10
12.429774226
 20
9.9262507834
 30
0.0
 10
12.4293473108
 20
9.9266069801
 30
0.0
 10
12.4289074918
 20
9.9268283115
 30
0.0
 10
12.4286032621
 20
9.9268881576
 30
0.0
 10
12.4284573162
 20
9.9268956122
 30
0.0
  0
SPLINE
  5
350
100
AcDbEntity
  8
0
100
AcDbSpline
 62
9
  6
CONTINUOUS
 70
0
 71
3
 72
18
 73
14
 74
0
 42
0.0000001
 43
0.0000001
 44
0.0000000001
 40
0.0
 40
0.0
 40
0.0
 40
0.0
 40
0.214594222
 40
0.4128719805
 40
0.5889174844
 40
0.7368218905
 40
0.8516831747
 40
0.8965002816
 40
0.9330406803
 40
0.9614164704
 40
0.9817679707
 40
0.9943339254
 40
1.0
 40
1.0
 40
1.0
 40
1.0
 10
12.4370724817
 20
9.8903053076
 30
0.0
 10
12.4378164468
 20
9.8902906137
 30
0.0
 10
12.4392477324
 20
9.8902579256
 30
0.0
 10
12.4412889115
 20
9.890197038
 30
0.0
 10
12.4430984952
 20
9.8901276511
 30
0.0
 10
12.4446181065
 20
9.8900520236
 30
0.0
 10
12.4456826246
 20
9.8899797067
 30
0.0
 10
12.4463597326
 20
9.8899172603
 30
0.0
 10
12.4467386836
 20
9.8898733293
 30
0.0
 10
12.4470290188
 20
9.8898319661
 30
0.0
 10
12.4472427411
 20
9.8897865322
 30
0.0
 10
12.4473613804
 20
9.8897540247
 30
0.0
 10
12.4474284491
 20
9.8897120594
 30
0.0
 10
12.4474279719
 20
9.889692418
 30
0.0
  0
LINE
  5
351
100
AcDbEntity
  8
0
100
AcDbLine
 62
9
  6
CONTINUOUS
 10
12.0722946933
 20
9.9176430778
 11
11.7379879251
 21
9.9177137125
  0
SPLINE
  5
352
100
AcDbEntity
  8
0
100
AcDbSpline
 62
9
  6
CONTINUOUS
 70
0
 71
3
 72
15
 73
11
 74
0
 42
0.0000001
 43
0.0000001
 44
0.0000000001
 40
0.0
 40
0.0
 40
0.0
 40
0.0
 40
0.1246640953
 40
0.2494965371
 40
0.3744491053
 40
0.4995258539
 40
0.6246747321
 40
0.7498297556
 40
0.8749690737
 40
1.0
 40
1.0
 40
1.0
 40
1.0
 10
12.1728650229
 20
9.6884906365
 30
0.0
 10
12.1746667344
 20
9.6881921004
 30
0.0
 10
12.1782422798
 20
9.6873808842
 30
0.0
 10
12.1833932865
 20
9.6854388243
 30
0.0
 10
12.1881840405
 20
9.6827015044
 30
0.0
 10
12.1924307388
 20
9.6791655198
 30
0.0
 10
12.1959708861
 20
9.6749185003
 30
0.0
 10
12.1987169419
 20
9.6701230967
 30
0.0
 10
12.200671996
 20
9.6649634361
 30
0.0
 10
12.2014939012
 20
9.6613803088
 30
0.0
 10
12.201798288
 20
9.6595741266
 30
0.0
  0
SPLINE
  5
353
100
AcDbEntity
  8
0
100
AcDbSpline
 62
9
  6
CONTINUOUS
 70
0
 71
3
 72
15
 73
11
 74
0
 42
0.0000001
 43
0.0000001
 44
0.0000000001
 40
0.0
 40
0.0
 40
0.0
 40
0.0
 40
0.1289770323
 40
0.2551057435
 40
0.3787338257
 40
0.5001048265
 40
0.6214562072
 40
0.7450343581
 40
0.8710964772
 40
1.0
 40
1.0
 40
1.0
 40
1.0
 10
12.1728650229
 20
9.678936154
 30
0.0
 10
12.1742002525
 20
9.6789361453
 30
0.0
 10
12.1768456751
 20
9.6787865657
 30
0.0
 10
12.1806996282
 20
9.6779595513
 30
0.0
 10
12.1842453099
 20
9.6764041638
 30
0.0
 10
12.1873062639
 20
9.6740917189
 30
0.0
 10
12.1896202363
 20
9.67103254
 30
0.0
 10
12.1911766236
 20
9.6674887881
 30
0.0
 10
12.1920041749
 20
9.6636369298
 30
0.0
 10
12.1921538572
 20
9.6609929493
 30
0.0
 10
12.1921538663
 20
9.6596584807
 30
0.0
  0
SPLINE
  5
354
100
AcDbEntity
  8
0
100
AcDbSpline
 62
9
  6
CONTINUOUS
 70
0
 71
3
 72
15
 73
11
 74
0
 42
0.0000001
 43
0.0000001
 44
0.0000000001
 40
0.0
 40
0.0
 40
0.0
 40
0.0
 40
0.1289029498
 40
0.2549655773
 40
0.3785458386
 40
0.4998986756
 40
0.6212682201
 40
0.7448941919
 40
0.8710223944
 40
1.0
 40
1.0
 40
1.0
 40
1.0
 10
12.1921538663
 20
9.4586342755
 30
0.0
 10
12.1921538576
 20
9.4572998129
 30
0.0
 10
12.1920041844
 20
9.4546558328
 30
0.0
 10
12.1911766256
 20
9.4508039519
 30
0.0
 10
12.1896201895
 20
9.4472601753
 30
0.0
 10
12.1873062063
 20
9.4442009797
 30
0.0
 10
12.184245269
 20
9.4418885455
 30
0.0
 10
12.1806996121
 20
9.4403332069
 30
0.0
 10
12.1768456816
 20
9.4395061998
 30
0.0
 10
12.1742002584
 20
9.4393566113
 30
0.0
 10
12.1728650229
 20
9.4393566022
 30
0.0
  0
SPLINE
  5
355
100
AcDbEntity
  8
0
100
AcDbSpline
 62
9
  6
CONTINUOUS
 70
0
 71
3
 72
15
 73
11
 74
0
 42
0.0000001
 43
0.0000001
 44
0.0000000001
 40
0.0
 40
0.0
 40
0.0
 40
0.0
 40
0.1289770326
 40
0.2551057439
 40
0.3787338265
 40
0.5001048275
 40
0.6214562084
 40
0.7450343596
 40
0.8710964786
 40
1.0
 40
1.0
 40
1.0
 40
1.0
 10
11.9717243375
 20
9.4393566022
 30
0.0
 10
11.970389108
 20
9.4393566109
 30
0.0
 10
11.9677436854
 20
9.4395061904
 30
0.0
 10
11.9638897322
 20
9.4403332048
 30
0.0
 10
11.9603440505
 20
9.4418885924
 30
0.0
 10
11.9572830965
 20
9.4442010373
 30
0.0
 10
11.9549691241
 20
9.4472602162
 30
0.0
 10
11.9534127369
 20
9.4508039681
 30
0.0
 10
11.9525851855
 20
9.4546558264
 30
0.0
 10
11.9524355033
 20
9.4572998069
 30
0.0
 10
11.9524354942
 20
9.4586342755
 30
0.0
  0
SPLINE
  5
356
100
AcDbEntity
  8
0
100
AcDbSpline
 62
9
  6
CONTINUOUS
 70
0
 71
3
 72
15
 73
11
 74
0
 42
0.0000001
 43
0.0000001
 44
0.0000000001
 40
0.0
 40
0.0
 40
0.0
 40
0.0
 40
0.1289029498
 40
0.2549655773
 40
0.3785458386
 40
0.4998986756
 40
0.6212682201
 40
0.7448941919
 40
0.8710223944
 40
1.0
 40
1.0
 40
1.0
 40
1.0
 10
11.9524354942
 20
9.6596584807
 30
0.0
 10
11.9524355028
 20
9.6609929433
 30
0.0
 10
11.9525851761
 20
9.6636369234
 30
0.0
 10
11.9534127348
 20
9.6674888042
 30
0.0
 10
11.954969171
 20
9.6710325809
 30
0.0
 10
11.9572831542
 20
9.6740917765
 30
0.0
 10
11.9603440915
 20
9.6764042106
 30
0.0
 10
11.9638897484
 20
9.6779595493
 30
0.0
 10
11.9677436789
 20
9.6787865563
 30
0.0
 10
11.970389102
 20
9.6789361448
 30
0.0
 10
11.9717243375
 20
9.678936154
 30
0.0
  0
SPLINE
  5
357
100
AcDbEntity
  8
0
100
AcDbSpline
 62
9
  6
CONTINUOUS
 70
0
 71
3
 72
15
 73
11
 74
0
 42
0.0000001
 43
0.0000001
 44
0.0000000001
 40
0.0
 40
0.0
 40
0.0
 40
0.0
 40
0.1244567696
 40
0.249200712
 40
0.3741766278
 40
0.4993567808
 40
0.6246349342
 40
0.749886191
 40
0.8750454475
 40
1.0
 40
1.0
 40
1.0
 40
1.0
 10
12.201798288
 20
9.4585499214
 30
0.0
 10
12.2014937337
 20
9.4567541282
 30
0.0
 10
12.2006709057
 20
9.4531894654
 30
0.0
 10
12.1987152008
 20
9.4480539103
 30
0.0
 10
12.1959685144
 20
9.4432745282
 30
0.0
 10
12.1924283934
 20
9.439034073
 30
0.0
 10
12.1881826526
 20
9.4354941121
 30
0.0
 10
12.1833932204
 20
9.4327421355
 30
0.0
 10
12.1782432806
 20
9.4307758928
 30
0.0
 10
12.1746672703
 20
9.4299434476
 30
0.0
 10
12.1728650229
 20
9.4296334115
 30
0.0
  0
SPLINE
  5
358
100
AcDbEntity
  8
0
100
AcDbSpline
 62
9
  6
CONTINUOUS
 70
0
 71
3
 72
9
 73
5
 74
0
 42
0.0000001
 43
0.0000001
 44
0.0000000001
 40
0.0
 40
0.0
 40
0.0
 40
0.0
 40
0.5127581911
 40
1.0
 40
1.0
 40
1.0
 40
1.0
 10
11.7137102785
 20
9.194421323
 30
0.0
 10
11.7138014813
 20
9.1930827245
 30
0.0
 10
11.7140589229
 20
9.1904771716
 30
0.0
 10
11.7144762283
 20
9.1878913221
 30
0.0
 10
11.7147340137
 20
9.1866427207
 30
0.0
  0
SPLINE
  5
359
100
AcDbEntity
  8
0
100
AcDbSpline
 62
9
  6
CONTINUOUS
 70
0
 71
3
 72
11
 73
7
 74
0
 42
0.0000001
 43
0.0000001
 44
0.0000000001
 40
0.0
 40
0.0
 40
0.0
 40
0.0
 40
0.3118309222
 40
0.5848623353
 40
0.8139963988
 40
1.0
 40
1.0
 40
1.0
 40
1.0
 10
11.7147340137
 20
9.1866427207
 30
0.0
 10
11.7148752611
 20
9.1859585793
 30
0.0
 10
11.715171062
 20
9.184681381
 30
0.0
 10
11.7157060083
 20
9.1829356485
 30
0.0
 10
11.7163004393
 20
9.1815105811
 30
0.0
 10
11.7167667708
 20
9.1807004252
 30
0.0
 10
11.7170111163
 20
9.1803628972
 30
0.0
  0
SPLINE
  5
35A
100
AcDbEntity
  8
0
100
AcDbSpline
 62
9
  6
CONTINUOUS
 70
0
 71
3
 72
11
 73
7
 74
0
 42
0.0000001
 43
0.0000001
 44
0.0000000001
 40
0.0
 40
0.0
 40
0.0
 40
0.0
 40
0.3115134212
 40
0.5765285785
 40
0.8020402293
 40
1.0
 40
1.0
 40
1.0
 40
1.0
 10
11.7170111163
 20
9.1803628972
 30
0.0
 10
11.7171339987
 20
9.1801931528
 30
0.0
 10
11.7173787523
 20
9.1798906216
 30
0.0
 10
11.7177807497
 20
9.1795265332
 30
0.0
 10
11.7181849822
 20
9.1792916885
 30
0.0
 10
11.7184678526
 20
9.179224049
 30
0.0
 10
11.7186008536
 20
9.1792173936
 30
0.0
  0
SPLINE
  5
35B
100
AcDbEntity
  8
0
100
AcDbSpline
 62
7
  6
CONTINUOUS
 70
0
 71
3
 72
10
 73
6
 74
0
 42
0.0000001
 43
0.0000001
 44
0.0000000001
 40
0.0
 40
0.0
 40
0.0
 40
0.0
 40
0.4103490108
 40
0.6804947087
 40
1.0
 40
1.0
 40
1.0
 40
1.0
 10
10.9229217078
 20
6.3637978644
 30
0.0
 10
10.9231871152
 20
6.364172791
 30
0.0
 10
10.9238698582
 20
6.3646060718
 30
0.0
 10
10.9249249649
 20
6.3649618038
 30
0.0
 10
10.9255758708
 20
6.3650920997
 30
0.0
 10
10.9259294559
 20
6.3651459724
 30
0.0
  0
SPLINE
  5
35C
100
AcDbEntity
  8
0
100
AcDbSpline
 62
7
  6
CONTINUOUS
 70
0
 71
3
 72
12
 73
8
 74
0
 42
0.0000001
 43
0.0000001
 44
0.0000000001
 40
0.0
 40
0.0
 40
0.0
 40
0.0
 40
0.0911109743
 40
0.1941110126
 40
0.4322274456
 40
0.7055269457
 40
1.0
 40
1.0
 40
1.0
 40
1.0
 10
10.9259294559
 20
6.3651459724
 30
0.0
 10
10.9263333646
 20
6.3652075125
 30
0.0
 10
10.9272008356
 20
6.3652938611
 30
0.0
 10
10.9291395469
 20
6.3653439738
 30
0.0
 10
10.9318944733
 20
6.3651665829
 30
0.0
 10
10.9354719382
 20
6.3646380159
 30
0.0
 10
10.9379641385
 20
6.3641082649
 30
0.0
 10
10.9392476461
 20
6.3637978598
 30
0.0
  0
SPLINE
  5
35D
100
AcDbEntity
  8
0
100
AcDbSpline
 62
9
  6
CONTINUOUS
 70
0
 71
3
 72
14
 73
10
 74
0
 42
0.0000001
 43
0.0000001
 44
0.0000000001
 40
0.0
 40
0.0
 40
0.0
 40
0.0
 40
0.2497186377
 40
0.3749469788
 40
0.5001691368
 40
0.6253193747
 40
0.7503453281
 40
0.8752574298
 40
1.0
 40
1.0
 40
1.0
 40
1.0
 10
11.9427910725
 20
9.6595741266
 30
0.0
 10
11.9433986458
 20
9.66317942
 30
0.0
 10
11.944962901
 20
9.6685380039
 30
0.0
 10
11.9486179869
 20
9.6749171866
 30
0.0
 10
11.9521582839
 20
9.6791653761
 30
0.0
 10
11.9564048831
 20
9.6827011181
 30
0.0
 10
11.9611957068
 20
9.6854386113
 30
0.0
 10
11.9663468254
 20
9.6873808467
 30
0.0
 10
11.9699225493
 20
9.6881920834
 30
0.0
 10
11.9717243375
 20
9.6884906365
 30
0.0
  0
SPLINE
  5
35E
100
AcDbEntity
  8
0
100
AcDbSpline
 62
9
  6
CONTINUOUS
 70
0
 71
3
 72
14
 73
10
 74
0
 42
0.0000001
 43
0.0000001
 44
0.0000000001
 40
0.0
 40
0.0
 40
0.0
 40
0.0
 40
0.2496668356
 40
0.3749906793
 40
0.500341407
 40
0.6255943342
 40
0.75064288
 40
0.8754656567
 40
1.0
 40
1.0
 40
1.0
 40
1.0
 10
11.9717243375
 20
9.4296334115
 30
0.0
 10
11.9681254238
 20
9.4302525148
 30
0.0
 10
11.9627773436
 20
9.4318317726
 30
0.0
 10
11.9564080179
 20
9.4354936227
 30
0.0
 10
11.9521611119
 20
9.4390337359
 30
0.0
 10
11.9486212325
 20
9.443274092
 30
0.0
 10
11.9458743742
 20
9.4480535444
 30
0.0
 10
11.9439184926
 20
9.4531892105
 30
0.0
 10
11.9430956441
 20
9.4567540517
 30
0.0
 10
11.9427910725
 20
9.4585499214
 30
0.0
  0
LINE
  5
35F
100
AcDbEntity
  8
0
100
AcDbLine
 62
9
  6
CONTINUOUS
 10
12.4079248038
 20
9.1792979081
 11
12.4136955241
 21
9.1792800791
  0
LINE
  5
360
100
AcDbEntity
  8
0
100
AcDbLine
 62
9
  6
CONTINUOUS
 10
12.4136955241
 20
9.1792800791
 11
12.4197366622
 21
9.1792540235
  0
LINE
  5
361
100
AcDbEntity
  8
0
100
AcDbLine
 62
9
  6
CONTINUOUS
 10
12.4197366622
 20
9.1792540235
 11
12.4259884564
 21
9.1792173939
  0
SPLINE
  5
362
100
AcDbEntity
  8
0
100
AcDbSpline
 62
9
  6
CONTINUOUS
 70
0
 71
3
 72
15
 73
11
 74
0
 42
0.0000001
 43
0.0000001
 44
0.0000000001
 40
0.0
 40
0.0
 40
0.0
 40
0.0
 40
0.075493839
 40
0.1615032558
 40
0.2618521939
 40
0.3795962265
 40
0.5164049519
 40
0.6690504706
 40
0.8321859558
 40
1.0
 40
1.0
 40
1.0
 40
1.0
 10
13.0048433292
 20
6.6963698349
 30
0.0
 10
13.0046040215
 20
6.6967616455
 30
0.0
 10
13.0039318787
 20
6.6975066247
 30
0.0
 10
13.0025455582
 20
6.6983262714
 30
0.0
 10
13.0007590818
 20
6.698860448
 30
0.0
 10
12.998597149
 20
6.6990527766
 30
0.0
 10
12.9961200186
 20
6.6988622091
 30
0.0
 10
12.9934135803
 20
6.6983372548
 30
0.0
 10
12.9905879445
 20
6.6975085766
 30
0.0
 10
12.9887088735
 20
6.696779614
 30
0.0
 10
12.9877742415
 20
6.6963697478
 30
0.0
  0
LINE
  5
363
100
AcDbEntity
  8
0
100
AcDbLine
 62
9
  6
CONTINUOUS
 10
11.7186009035
 20
9.179217394
 11
11.7248744938
 21
9.179254133
  0
LINE
  5
364
100
AcDbEntity
  8
0
100
AcDbLine
 62
9
  6
CONTINUOUS
 10
11.7248744938
 20
9.179254133
 11
11.7310738398
 21
9.1792807324
  0
LINE
  5
365
100
AcDbEntity
  8
0
100
AcDbLine
 62
9
  6
CONTINUOUS
 10
11.7310738398
 20
9.1792807324
 11
11.7366645533
 21
9.1792979081
  0
SPLINE
  5
366
100
AcDbEntity
  8
0
100
AcDbSpline
 62
9
  6
CONTINUOUS
 70
0
 71
3
 72
17
 73
13
 74
0
 42
0.0000001
 43
0.0000001
 44
0.0000000001
 40
0.0
 40
0.0
 40
0.0
 40
0.0
 40
0.0263273162
 40
0.0553648156
 40
0.0885262442
 40
0.1267365585
 40
0.2202986084
 40
0.3388042294
 40
0.4821675065
 40
0.6449559639
 40
0.8200380614
 40
1.0
 40
1.0
 40
1.0
 40
1.0
 10
12.4474203401
 20
9.9069535438
 30
0.0
 10
12.4474194939
 20
9.9070940317
 30
0.0
 10
12.4473697081
 20
9.9073903907
 30
0.0
 10
12.4471669471
 20
9.9078217843
 30
0.0
 10
12.4468405565
 20
9.9082506208
 30
0.0
 10
12.4461985158
 20
9.9088568751
 30
0.0
 10
12.4450578572
 20
9.9095723823
 30
0.0
 10
12.4433076714
 20
9.9103146197
 30
0.0
 10
12.4411296301
 20
9.9109536619
 30
0.0
 10
12.4386172582
 20
9.9114923671
 30
0.0
 10
12.4358850864
 20
9.9119147752
 30
0.0
 10
12.4339997056
 20
9.9121104455
 30
0.0
 10
12.4330423422
 20
9.9121858858
 30
0.0
  0
LINE
  5
367
100
AcDbEntity
  8
0
100
AcDbLine
 62
9
  6
CONTINUOUS
 10
13.0193843407
 20
6.6441939348
 11
13.0174879381
 21
6.6441129602
  0
SPLINE
  5
368
100
AcDbEntity
  8
0
100
AcDbSpline
 62
9
  6
CONTINUOUS
 70
0
 71
3
 72
19
 73
15
 74
0
 42
0.0000001
 43
0.0000001
 44
0.0000000001
 40
0.0
 40
0.0
 40
0.0
 40
0.0
 40
0.2128703242
 40
0.4099509143
 40
0.5855550585
 40
0.7340024024
 40
0.796273361
 40
0.8498882587
 40
0.8949548148
 40
0.9316605486
 40
0.9602038938
 40
0.9808104954
 40
0.9937961944
 40
1.0
 40
1.0
 40
1.0
 40
1.0
 10
12.4360157278
 20
9.2200811409
 30
0.0
 10
12.4367532547
 20
9.2200658207
 30
0.0
 10
12.4381735133
 20
9.2200318345
 30
0.0
 10
12.4402017605
 20
9.2199689645
 30
0.0
 10
12.4420063052
 20
9.2198976075
 30
0.0
 10
12.443343438
 20
9.2198298044
 30
0.0
 10
12.4442575174
 20
9.2197704351
 30
0.0
 10
12.4448137219
 20
9.219727271
 30
0.0
 10
12.4452806212
 20
9.2196835906
 30
0.0
 10
12.4456611058
 20
9.2196392523
 30
0.0
 10
12.4459536855
 20
9.2195962705
 30
0.0
 10
12.4461690123
 20
9.2195517831
 30
0.0
 10
12.4462933638
 20
9.2195147441
 30
0.0
 10
12.446361932
 20
9.2194760547
 30
0.0
 10
12.446365639
 20
9.2194548779
 30
0.0
  0
SPLINE
  5
369
100
AcDbEntity
  8
0
100
AcDbSpline
 62
9
  6
CONTINUOUS
 70
0
 71
3
 72
16
 73
12
 74
0
 42
0.0000001
 43
0.0000001
 44
0.0000000001
 40
0.0
 40
0.0
 40
0.0
 40
0.0
 40
0.1275213372
 40
0.2546886728
 40
0.3812611493
 40
0.5070648204
 40
0.5696366153
 40
0.6319638845
 40
0.7558225464
 40
0.8785297796
 40
1.0
 40
1.0
 40
1.0
 40
1.0
 10
11.8122724556
 20
8.8329918278
 30
0.0
 10
11.8095461055
 20
8.7748714296
 30
0.0
 10
11.8019115156
 20
8.6588826725
 30
0.0
 10
11.783897916
 20
8.485818273
 30
0.0
 10
11.7593208231
 20
8.3143529823
 30
0.0
 10
11.7334207067
 20
8.1729647715
 30
0.0
 10
11.7095261052
 20
8.0610933824
 30
0.0
 10
11.6836553534
 20
7.9505738588
 30
0.0
 10
11.6475682785
 20
7.8142936801
 30
0.0
 10
11.5984170327
 20
7.6536847494
 30
0.0
 10
11.5618193261
 20
7.5484235447
 30
0.0
 10
11.5426445671
 20
7.4964228024
 30
0.0
  0
SPLINE
  5
36A
100
AcDbEntity
  8
0
100
AcDbSpline
 62
9
  6
CONTINUOUS
 70
0
 71
3
 72
11
 73
7
 74
0
 42
0.0000001
 43
0.0000001
 44
0.0000000001
 40
0.0
 40
0.0
 40
0.0
 40
0.0
 40
0.2557823627
 40
0.5076780565
 40
0.7557216081
 40
1.0
 40
1.0
 40
1.0
 40
1.0
 10
11.5426445671
 20
7.4964228024
 30
0.0
 10
11.516407729
 20
7.4252701448
 30
0.0
 10
11.4606996828
 20
7.2853575967
 30
0.0
 10
11.3676414513
 20
7.0814453445
 30
0.0
 10
11.2666779728
 20
6.8851646929
 30
0.0
 10
11.194132864
 20
6.7584397084
 30
0.0
 10
11.1568140493
 20
6.6963696221
 30
0.0
  0
SPLINE
  5
36B
100
AcDbEntity
  8
0
100
AcDbSpline
 62
9
  6
CONTINUOUS
 70
0
 71
3
 72
15
 73
11
 74
0
 42
0.0000001
 43
0.0000001
 44
0.0000000001
 40
0.0
 40
0.0
 40
0.0
 40
0.0
 40
0.1678147823
 40
0.3309502392
 40
0.4835953244
 40
0.620403554
 40
0.7381472828
 40
0.8384961723
 40
0.9245057939
 40
1.0
 40
1.0
 40
1.0
 40
1.0
 10
11.1568140493
 20
6.6963696221
 30
0.0
 10
11.1558794578
 20
6.6967794562
 30
0.0
 10
11.1540004742
 20
6.6975083581
 30
0.0
 10
11.1511749774
 20
6.6983369577
 30
0.0
 10
11.1484686828
 20
6.6988618491
 30
0.0
 10
11.1459916899
 20
6.6990523755
 30
0.0
 10
11.1438298801
 20
6.6988600344
 30
0.0
 10
11.1420435048
 20
6.6983258718
 30
0.0
 10
11.1406572599
 20
6.6975062612
 30
0.0
 10
11.1399851493
 20
6.6967613219
 30
0.0
 10
11.1397458498
 20
6.6963695324
 30
0.0
  0
SPLINE
  5
36C
100
AcDbEntity
  8
0
100
AcDbSpline
 62
9
  6
CONTINUOUS
 70
0
 71
3
 72
13
 73
9
 74
0
 42
0.0000001
 43
0.0000001
 44
0.0000000001
 40
0.0
 40
0.0
 40
0.0
 40
0.0
 40
0.1275377266
 40
0.2547110735
 40
0.3812894616
 40
0.5071065598
 40
0.7558423447
 40
1.0
 40
1.0
 40
1.0
 40
1.0
 10
12.3323169953
 20
8.8329918014
 30
0.0
 10
12.3351081891
 20
8.7748409645
 30
0.0
 10
12.3427709065
 20
8.6587939226
 30
0.0
 10
12.3607087661
 20
8.4856310771
 30
0.0
 10
12.3852869069
 20
8.314072306
 30
0.0
 10
12.4265490328
 20
8.0890203879
 30
0.0
 10
12.4936502002
 20
7.8143789882
 30
0.0
 10
12.5636208035
 20
7.6002852224
 30
0.0
 10
12.6022032228
 20
7.4957246359
 30
0.0
  0
SPLINE
  5
36D
100
AcDbEntity
  8
0
100
AcDbSpline
 62
9
  6
CONTINUOUS
 70
0
 71
3
 72
12
 73
8
 74
0
 42
0.0000001
 43
0.0000001
 44
0.0000000001
 40
0.0
 40
0.0
 40
0.0
 40
0.0
 40
0.2557710699
 40
0.5076590386
 40
0.6321654905
 40
0.7557209985
 40
1.0
 40
1.0
 40
1.0
 40
1.0
 10
12.6022032228
 20
7.4957246359
 30
0.0
 10
12.6284334004
 20
7.4246393385
 30
0.0
 10
12.6841128421
 20
7.2848561617
 30
0.0
 10
12.7619013368
 20
7.1144210694
 30
0.0
 10
12.8281307168
 20
6.9819340065
 30
0.0
 10
12.8963350994
 20
6.8530005254
 30
0.0
 10
12.9504997451
 20
6.7583956703
 30
0.0
 10
12.9877749642
 20
6.6963684289
 30
0.0
  0
SPLINE
  5
36E
100
AcDbEntity
  8
0
100
AcDbSpline
 62
9
  6
CONTINUOUS
 70
0
 71
3
 72
18
 73
14
 74
0
 42
0.0000001
 43
0.0000001
 44
0.0000000001
 40
0.0
 40
0.0
 40
0.0
 40
0.0
 40
0.0234242893
 40
0.0496064155
 40
0.0804857034
 40
0.1174789019
 40
0.1611873437
 40
0.2117919802
 40
0.3335530283
 40
0.4801030296
 40
0.6448894713
 40
0.8206836932
 40
1.0
 40
1.0
 40
1.0
 40
1.0
 10
11.6985455716
 20
9.1986259125
 30
0.0
 10
11.6985495883
 20
9.1984980966
 30
0.0
 10
11.6986047397
 20
9.1982273459
 30
0.0
 10
11.698821187
 20
9.1978389484
 30
0.0
 10
11.6991731878
 20
9.1974600599
 30
0.0
 10
11.6996620669
 20
9.1970929827
 30
0.0
 10
11.7002856319
 20
9.1967367002
 30
0.0
 10
11.7013616993
 20
9.1962501655
 30
0.0
 10
11.7030252516
 20
9.1957196861
 30
0.0
 10
11.7053368382
 20
9.1952145178
 30
0.0
 10
11.7079685271
 20
9.1948199146
 30
0.0
 10
11.7107951651
 20
9.1945523545
 30
0.0
 10
11.7127318457
 20
9.1944525973
 30
0.0
 10
11.713710278
 20
9.1944213195
 30
0.0
  0
SPLINE
  5
36F
100
AcDbEntity
  8
0
100
AcDbSpline
 62
9
  6
CONTINUOUS
 70
0
 71
3
 72
11
 73
7
 74
0
 42
0.0000001
 43
0.0000001
 44
0.0000000001
 40
0.0
 40
0.0
 40
0.0
 40
0.0
 40
0.2354662804
 40
0.4833276771
 40
0.7399471437
 40
1.0
 40
1.0
 40
1.0
 40
1.0
 10
12.9877734939
 20
6.6963715739
 30
0.0
 10
12.9895638816
 20
6.692559005
 30
0.0
 10
12.9927081382
 20
6.6844758084
 30
0.0
 10
12.9959819581
 20
6.6716197282
 30
0.0
 10
12.9977536274
 20
6.6580267703
 30
0.0
 10
12.9978421716
 20
6.6487585423
 30
0.0
 10
12.9976060468
 20
6.6441127068
 30
0.0
  0
LINE
  5
370
100
AcDbEntity
  8
0
100
AcDbLine
 62
9
  6
CONTINUOUS
 10
12.9976060468
 20
6.6441127068
 11
12.0722946802
 21
6.6441938988
  0
SPLINE
  5
371
100
AcDbEntity
  8
0
100
AcDbSpline
 62
9
  6
CONTINUOUS
 70
0
 71
3
 72
19
 73
15
 74
0
 42
0.0000001
 43
0.0000001
 44
0.0000000001
 40
0.0
 40
0.0
 40
0.0
 40
0.0
 40
0.0072505018
 40
0.0133435305
 40
0.0214307541
 40
0.0441189488
 40
0.0761530638
 40
0.1179959168
 40
0.1693046924
 40
0.2980822001
 40
0.4566918768
 40
0.6342280027
 40
0.8188330853
 40
1.0
 40
1.0
 40
1.0
 40
1.0
 10
13.0174887766
 20
6.6441257926
 30
0.0
 10
13.0174828945
 20
6.6440778584
 30
0.0
 10
13.0173999592
 20
6.6440127464
 30
0.0
 10
13.0172734605
 20
6.6439577595
 30
0.0
 10
13.0170363673
 20
6.64388377
 30
0.0
 10
13.0166255282
 20
6.6438087939
 30
0.0
 10
13.0159858175
 20
6.6437341158
 30
0.0
 10
13.0151541302
 20
6.6436749811
 30
0.0
 10
13.0136770876
 20
6.6436108441
 30
0.0
 10
13.0114208214
 20
6.6435856886
 30
0.0
 10
13.0083242161
 20
6.6436291775
 30
0.0
 10
13.0048571903
 20
6.6437383449
 30
0.0
 10
13.001242131
 20
6.6439058582
 30
0.0
 10
12.9988099125
 20
6.6440481512
 30
0.0
 10
12.9976057023
 20
6.6441257237
 30
0.0
  0
SPLINE
  5
372
100
AcDbEntity
  8
0
100
AcDbSpline
 62
9
  6
CONTINUOUS
 70
0
 71
3
 72
11
 73
7
 74
0
 42
0.0000001
 43
0.0000001
 44
0.0000000001
 40
0.0
 40
0.0
 40
0.0
 40
0.0
 40
0.1794009513
 40
0.3972320572
 40
0.6684098528
 40
1.0
 40
1.0
 40
1.0
 40
1.0
 10
12.4259884413
 20
9.179217394
 30
0.0
 10
12.426170288
 20
9.1792264934
 30
0.0
 10
12.4265683263
 20
9.1793514659
 30
0.0
 10
12.4271108881
 20
9.1797714804
 30
0.0
 10
12.4276451864
 20
9.1804160616
 30
0.0
 10
12.4279598228
 20
9.1809430074
 30
0.0
 10
12.4281175447
 20
9.1812402902
 30
0.0
  0
SPLINE
  5
373
100
AcDbEntity
  8
0
100
AcDbSpline
 62
9
  6
CONTINUOUS
 70
0
 71
3
 72
9
 73
5
 74
0
 42
0.0000001
 43
0.0000001
 44
0.0000000001
 40
0.0
 40
0.0
 40
0.0
 40
0.0
 40
0.4382283699
 40
1.0
 40
1.0
 40
1.0
 40
1.0
 10
12.4281175447
 20
9.1812402902
 30
0.0
 10
12.428507043
 20
9.1819744377
 30
0.0
 10
12.4291927318
 20
9.1837552765
 30
0.0
 10
12.4296400854
 20
9.1856003291
 30
0.0
 10
12.4298554713
 20
9.1866436941
 30
0.0
  0
SPLINE
  5
374
100
AcDbEntity
  8
0
100
AcDbSpline
 62
9
  6
CONTINUOUS
 70
0
 71
3
 72
9
 73
5
 74
0
 42
0.0000001
 43
0.0000001
 44
0.0000000001
 40
0.0
 40
0.0
 40
0.0
 40
0.0
 40
0.4872465077
 40
1.0
 40
1.0
 40
1.0
 40
1.0
 10
12.4298554713
 20
9.1866436941
 30
0.0
 10
12.4301131957
 20
9.1878921534
 30
0.0
 10
12.4305304135
 20
9.1904776752
 30
0.0
 10
12.4307878112
 20
9.1930828944
 30
0.0
 10
12.4308790014
 20
9.1944213087
 30
0.0
  0
SPLINE
  5
375
100
AcDbEntity
  8
0
100
AcDbSpline
 62
7
  6
CONTINUOUS
 70
0
 71
3
 72
16
 73
12
 74
0
 42
0.0000001
 43
0.0000001
 44
0.0000000001
 40
0.0
 40
0.0
 40
0.0
 40
0.0
 40
0.1786011978
 40
0.3493345012
 40
0.5069598888
 40
0.6471955537
 40
0.7673002907
 40
0.8653068563
 40
0.9061018975
 40
0.941786877
 40
1.0
 40
1.0
 40
1.0
 40
1.0
 10
13.2053417198
 20
6.3637978537
 30
0.0
 10
13.2063148015
 20
6.3640339461
 30
0.0
 10
13.2082284657
 20
6.3644543026
 30
0.0
 10
13.2110309479
 20
6.3649346473
 30
0.0
 10
13.2136421882
 20
6.3652372838
 30
0.0
 10
13.2159853205
 20
6.3653471867
 30
0.0
 10
13.2179955938
 20
6.3652671997
 30
0.0
 10
13.2194344579
 20
6.3650303634
 30
0.0
 10
13.2203667479
 20
6.3647239877
 30
0.0
 10
13.2210486827
 20
6.3644020241
 30
0.0
 10
13.2214786799
 20
6.3640639526
 30
0.0
 10
13.221667654
 20
6.3637978619
 30
0.0
  0
LINE
  5
376
100
AcDbEntity
  8
0
100
AcDbLine
 62
9
  6
CONTINUOUS
 10
13.0482968188
 20
6.5982089537
 11
13.0531974954
 21
6.5904709248
  0
SPLINE
  5
377
100
AcDbEntity
  8
0
100
AcDbSpline
 62
9
  6
CONTINUOUS
 70
0
 71
3
 72
18
 73
14
 74
0
 42
0.0000001
 43
0.0000001
 44
0.0000000001
 40
0.0
 40
0.0
 40
0.0
 40
0.0
 40
0.1793171958
 40
0.355112344
 40
0.5198995066
 40
0.666449792
 40
0.7882105264
 40
0.8388148045
 40
0.8825227674
 40
0.9195153965
 40
0.9503941281
 40
0.9765758481
 40
1.0
 40
1.0
 40
1.0
 40
1.0
 10
12.4308790029
 20
9.1944213083
 30
0.0
 10
12.4318574485
 20
9.1944525855
 30
0.0
 10
12.4337941558
 20
9.1945523425
 30
0.0
 10
12.436620832
 20
9.1948199052
 30
0.0
 10
12.439252554
 20
9.1952145144
 30
0.0
 10
12.4415641634
 20
9.1957196913
 30
0.0
 10
12.4432277263
 20
9.1962501809
 30
0.0
 10
12.4443037938
 20
9.196736725
 30
0.0
 10
12.4449273537
 20
9.1970930136
 30
0.0
 10
12.4454162239
 20
9.1974600972
 30
0.0
 10
12.4457682121
 20
9.1978389926
 30
0.0
 10
12.4459846433
 20
9.198227397
 30
0.0
 10
12.4460397806
 20
9.1984981503
 30
0.0
 10
12.4460437906
 20
9.1986259667
 30
0.0
  0
LINE
  5
378
100
AcDbEntity
  8
0
100
AcDbLine
 62
9
  6
CONTINUOUS
 10
11.1270994604
 20
6.6441132184
 11
11.1252172264
 21
6.6441935172
  0
SPLINE
  5
379
100
AcDbEntity
  8
0
100
AcDbSpline
 62
9
  6
CONTINUOUS
 70
0
 71
3
 72
17
 73
13
 74
0
 42
0.0000001
 43
0.0000001
 44
0.0000000001
 40
0.0
 40
0.0
 40
0.0
 40
0.0
 40
0.0271515056
 40
0.0567455285
 40
0.0905607893
 40
0.1297526687
 40
0.2261826075
 40
0.3480146921
 40
0.4924987171
 40
0.653712567
 40
0.8251634411
 40
1.0
 40
1.0
 40
1.0
 40
1.0
 10
11.7161321132
 20
9.9268956159
 30
0.0
 10
11.7159861677
 20
9.926888164
 30
0.0
 10
11.7156819386
 20
9.9268283237
 30
0.0
 10
11.715242119
 20
9.9266070005
 30
0.0
 10
11.7148152029
 20
9.9262508117
 30
0.0
 10
11.7142239293
 20
9.9255523135
 30
0.0
 10
11.7135526994
 20
9.9243266028
 30
0.0
 10
11.7128953961
 20
9.9224841562
 30
0.0
 10
11.7123524618
 20
9.9202446189
 30
0.0
 10
11.711938899
 20
9.9177081271
 30
0.0
 10
11.7116676438
 20
9.9149887467
 30
0.0
 10
11.7115736317
 20
9.9131265785
 30
0.0
 10
11.711547073
 20
9.912185943
 30
0.0
  0
SPLINE
  5
37A
100
AcDbEntity
  8
0
100
AcDbSpline
 62
9
  6
CONTINUOUS
 70
0
 71
3
 72
19
 73
15
 74
0
 42
0.0000001
 43
0.0000001
 44
0.0000000001
 40
0.0
 40
0.0
 40
0.0
 40
0.0
 40
0.1808689591
 40
0.3652652586
 40
0.5427232553
 40
0.7013815538
 40
0.8303086762
 40
0.881709545
 40
0.9236429525
 40
0.9557571114
 40
0.978509043
 40
0.9866204594
 40
0.9927317721
 40
1.0
 40
1.0
 40
1.0
 40
1.0
 10
11.1469826633
 20
6.6441258353
 30
0.0
 10
11.1457803948
 20
6.6440483794
 30
0.0
 10
11.1433514691
 20
6.6439062352
 30
0.0
 10
11.139740189
 20
6.6437387761
 30
0.0
 10
11.136274643
 20
6.6436294568
 30
0.0
 10
11.1331771398
 20
6.6435857085
 30
0.0
 10
11.130918865
 20
6.643610631
 30
0.0
 10
11.129439551
 20
6.6436746078
 30
0.0
 10
11.1286060804
 20
6.6437336841
 30
0.0
 10
11.1279647712
 20
6.643808363
 30
0.0
 10
11.1275528015
 20
6.6438833799
 30
0.0
 10
11.127314964
 20
6.6439574427
 30
0.0
 10
11.127188085
 20
6.6440124853
 30
0.0
 10
11.127104803
 20
6.6440776801
 30
0.0
 10
11.1270988988
 20
6.6441257321
 30
0.0
  0
SPLINE
  5
37B
100
AcDbEntity
  8
0
100
AcDbSpline
 62
9
  6
CONTINUOUS
 70
0
 71
3
 72
11
 73
7
 74
0
 42
0.0000001
 43
0.0000001
 44
0.0000000001
 40
0.0
 40
0.0
 40
0.0
 40
0.0
 40
0.2606845683
 40
0.5179460524
 40
0.7655750583
 40
1.0
 40
1.0
 40
1.0
 40
1.0
 10
11.1469829352
 20
6.6441137969
 30
0.0
 10
11.1467463176
 20
6.6487703547
 30
0.0
 10
11.1468503625
 20
6.6580596789
 30
0.0
 10
11.1486057275
 20
6.6716717334
 30
0.0
 10
11.1518989911
 20
6.6845112559
 30
0.0
 10
11.1550409508
 20
6.6925675086
 30
0.0
 10
11.1568124986
 20
6.6963677643
 30
0.0
  0
LINE
  5
37C
100
AcDbEntity
  8
0
100
AcDbLine
 62
9
  6
CONTINUOUS
 10
12.0722946802
 20
6.6441949596
 11
11.1469823528
 21
6.6441137676
  0
SPLINE
  5
37D
100
AcDbEntity
  8
0
100
AcDbSpline
 62
9
  6
CONTINUOUS
 70
0
 71
3
 72
18
 73
14
 74
0
 42
0.0000001
 43
0.0000001
 44
0.0000000001
 40
0.0
 40
0.0
 40
0.0
 40
0.0
 40
0.0668540158
 40
0.1335936947
 40
0.1665721709
 40
0.1992987477
 40
0.264269907
 40
0.3284104726
 40
0.3914799503
 40
0.515589658
 40
0.6380828241
 40
0.7594502679
 40
1.0
 40
1.0
 40
1.0
 40
1.0
 10
11.146982683
 20
6.6441258531
 30
0.0
 10
11.1470360649
 20
6.643457601
 30
0.0
 10
11.1470502619
 20
6.6421130077
 30
0.0
 10
11.1468076713
 20
6.640450991
 30
0.0
 10
11.1464252114
 20
6.6391769227
 30
0.0
 10
11.145925264
 20
6.6379636944
 30
0.0
 10
11.1451149842
 20
6.6365496922
 30
0.0
 10
11.1439474968
 20
6.6350117025
 30
0.0
 10
11.1422221835
 20
6.6331696141
 30
0.0
 10
11.1398017768
 20
6.6312018969
 30
0.0
 10
11.1366535367
 20
6.6292636485
 30
0.0
 10
11.1322781108
 20
6.6271412633
 30
0.0
 10
11.1288308368
 20
6.6259566854
 30
0.0
 10
11.1265060136
 20
6.6253136292
 30
0.0
  0
SPLINE
  5
37E
100
AcDbEntity
  8
0
100
AcDbSpline
 62
9
  6
CONTINUOUS
 70
0
 71
3
 72
9
 73
5
 74
0
 42
0.0000001
 43
0.0000001
 44
0.0000000001
 40
0.0
 40
0.0
 40
0.0
 40
0.0
 40
0.2508505922
 40
1.0
 40
1.0
 40
1.0
 40
1.0
 10
11.1265060136
 20
6.6253136292
 30
0.0
 10
11.1258583645
 20
6.6251344866
 30
0.0
 10
11.1232643621
 20
6.6244645777
 30
0.0
 10
11.120628991
 20
6.6239597651
 30
0.0
 10
11.1186451458
 20
6.6236571633
 30
0.0
  0
SPLINE
  5
37F
100
AcDbEntity
  8
0
100
AcDbSpline
 62
9
  6
CONTINUOUS
 70
0
 71
3
 72
9
 73
5
 74
0
 42
0.0000001
 43
0.0000001
 44
0.0000000001
 40
0.0
 40
0.0
 40
0.0
 40
0.0
 40
0.5247782493
 40
1.0
 40
1.0
 40
1.0
 40
1.0
 10
11.1186451458
 20
6.6236571633
 30
0.0
 10
11.1176759025
 20
6.6239212653
 30
0.0
 10
11.1157530724
 20
6.6241894581
 30
0.0
 10
11.1138295292
 20
6.6239159416
 30
0.0
 10
11.1129573725
 20
6.6236572449
 30
0.0
  0
LINE
  5
380
100
AcDbEntity
  8
0
100
AcDbLine
 62
9
  6
CONTINUOUS
 10
12.4065969871
 20
9.9177401192
 11
12.0722946933
 21
9.9177631892
  0
SPLINE
  5
381
100
AcDbEntity
  8
0
100
AcDbSpline
 62
9
  6
CONTINUOUS
 70
0
 71
3
 72
9
 73
5
 74
0
 42
0.0000001
 43
0.0000001
 44
0.0000000001
 40
0.0
 40
0.0
 40
0.0
 40
0.0
 40
0.4848809983
 40
1.0
 40
1.0
 40
1.0
 40
1.0
 10
11.1186451528
 20
6.6236569821
 30
0.0
 10
11.1170540345
 20
6.6229485404
 30
0.0
 10
11.1138949351
 20
6.6212010771
 30
0.0
 10
11.1110484477
 20
6.6189865251
 30
0.0
 10
11.1096688612
 20
6.617753464
 30
0.0
  0
SPLINE
  5
382
100
AcDbEntity
  8
0
100
AcDbSpline
 62
9
  6
CONTINUOUS
 70
0
 71
3
 72
9
 73
5
 74
0
 42
0.0000001
 43
0.0000001
 44
0.0000000001
 40
0.0
 40
0.0
 40
0.0
 40
0.0
 40
0.4667529837
 40
1.0
 40
1.0
 40
1.0
 40
1.0
 10
11.1096688612
 20
6.617753464
 30
0.0
 10
11.1069041561
 20
6.6152823971
 30
0.0
 10
11.1016995558
 20
6.609174003
 30
0.0
 10
11.0978959254
 20
6.602124964
 30
0.0
 10
11.0962880298
 20
6.5982056404
 30
0.0
  0
SPLINE
  5
383
100
AcDbEntity
  8
0
100
AcDbSpline
 62
9
  6
CONTINUOUS
 70
0
 71
3
 72
15
 73
11
 74
0
 42
0.0000001
 43
0.0000001
 44
0.0000000001
 40
0.0
 40
0.0
 40
0.0
 40
0.0
 40
0.1605061822
 40
0.318429402
 40
0.4681091053
 40
0.6044443823
 40
0.7242912122
 40
0.8285015037
 40
0.9192650468
 40
1.0
 40
1.0
 40
1.0
 40
1.0
 10
11.0962880298
 20
6.5982056404
 30
0.0
 10
11.0954085937
 20
6.5986004767
 30
0.0
 10
11.0936301665
 20
6.599310872
 30
0.0
 10
11.0909383031
 20
6.6001340922
 30
0.0
 10
11.0883225842
 20
6.6006732442
 30
0.0
 10
11.0858862406
 20
6.6008866344
 30
0.0
 10
11.0837163872
 20
6.6007180876
 30
0.0
 10
11.0818822567
 20
6.600200891
 30
0.0
 10
11.0804236134
 20
6.5993794191
 30
0.0
 10
11.0797012008
 20
6.5986138968
 30
0.0
 10
11.0794399255
 20
6.5982054126
 30
0.0
  0
LINE
  5
384
100
AcDbEntity
  8
0
100
AcDbLine
 62
9
  6
CONTINUOUS
 10
11.1186482887
 20
6.6236585191
 11
12.0722946802
 21
6.6236797762
  0
SPLINE
  5
385
100
AcDbEntity
  8
0
100
AcDbSpline
 62
9
  6
CONTINUOUS
 70
0
 71
3
 72
9
 73
5
 74
0
 42
0.0000001
 43
0.0000001
 44
0.0000000001
 40
0.0
 40
0.0
 40
0.0
 40
0.0
 40
0.4841138274
 40
1.0
 40
1.0
 40
1.0
 40
1.0
 10
13.0259488582
 20
6.6236558658
 30
0.0
 10
13.0275287337
 20
6.6229483149
 30
0.0
 10
13.0306734127
 20
6.621210325
 30
0.0
 10
13.0335120919
 20
6.6190123849
 30
0.0
 10
13.0348901283
 20
6.6177860506
 30
0.0
  0
SPLINE
  5
386
100
AcDbEntity
  8
0
100
AcDbSpline
 62
9
  6
CONTINUOUS
 70
0
 71
3
 72
9
 73
5
 74
0
 42
0.0000001
 43
0.0000001
 44
0.0000000001
 40
0.0
 40
0.0
 40
0.0
 40
0.0
 40
0.4652891997
 40
1.0
 40
1.0
 40
1.0
 40
1.0
 10
13.0348901283
 20
6.6177860506
 30
0.0
 10
13.0376577806
 20
6.6153230772
 30
0.0
 10
13.0428884338
 20
6.6092050462
 30
0.0
 10
13.0466560396
 20
6.6021222696
 30
0.0
 10
13.0483063058
 20
6.5981974484
 30
0.0
  0
LINE
  5
387
100
AcDbEntity
  8
0
100
AcDbLine
 62
9
  6
CONTINUOUS
 10
12.0722946802
 20
6.6236770261
 11
13.0259485073
 21
6.6236558024
  0
SPLINE
  5
388
100
AcDbEntity
  8
0
100
AcDbSpline
 62
9
  6
CONTINUOUS
 70
0
 71
3
 72
15
 73
11
 74
0
 42
0.0000001
 43
0.0000001
 44
0.0000000001
 40
0.0
 40
0.0
 40
0.0
 40
0.0
 40
0.0807334592
 40
0.1714962219
 40
0.2757064241
 40
0.3955537372
 40
0.5318898937
 40
0.6815704926
 40
0.8394941883
 40
1.0
 40
1.0
 40
1.0
 40
1.0
 10
13.0651517987
 20
6.5982054032
 30
0.0
 10
13.0648905096
 20
6.5986138975
 30
0.0
 10
13.0641680524
 20
6.5993794346
 30
0.0
 10
13.0627093246
 20
6.6002009027
 30
0.0
 10
13.0608750883
 20
6.6007180756
 30
0.0
 10
13.0587051117
 20
6.6008865754
 30
0.0
 10
13.056268635
 20
6.600673113
 30
0.0
 10
13.0536527811
 20
6.600133871
 30
0.0
 10
13.0509607915
 20
6.5993105494
 30
0.0
 10
13.0491822871
 20
6.5986000809
 30
0.0
 10
13.0483028161
 20
6.5982052069
 30
0.0
  0
SPLINE
  5
389
100
AcDbEntity
  8
0
100
AcDbSpline
 62
9
  6
CONTINUOUS
 70
0
 71
3
 72
9
 73
5
 74
0
 42
0.0000001
 43
0.0000001
 44
0.0000000001
 40
0.0
 40
0.0
 40
0.0
 40
0.0
 40
0.484511289
 40
1.0
 40
1.0
 40
1.0
 40
1.0
 10
13.0316325063
 20
6.6236570912
 30
0.0
 10
13.0310583021
 20
6.623827422
 30
0.0
 10
13.0298366279
 20
6.6240640173
 30
0.0
 10
13.0285925462
 20
6.6240697396
 30
0.0
 10
13.0279575766
 20
6.6240161381
 30
0.0
  0
LINE
  5
38A
100
AcDbEntity
  8
0
100
AcDbLine
 62
9
  6
CONTINUOUS
 10
13.0279575766
 20
6.6240161381
 11
13.0259452071
 21
6.6236571101
  0
SPLINE
  5
38B
100
AcDbEntity
  8
0
100
AcDbSpline
 62
9
  6
CONTINUOUS
 70
0
 71
3
 72
19
 73
15
 74
0
 42
0.0000001
 43
0.0000001
 44
0.0000000001
 40
0.0
 40
0.0
 40
0.0
 40
0.0
 40
0.067481355
 40
0.1011966319
 40
0.1345282834
 40
0.200243656
 40
0.264956007
 40
0.3284179188
 40
0.3910893741
 40
0.5147514732
 40
0.6370530733
 40
0.7585180457
 40
0.8793677354
 40
1.0
 40
1.0
 40
1.0
 40
1.0
 10
12.9976060072
 20
6.6441224972
 30
0.0
 10
12.9975291785
 20
6.6432684395
 30
0.0
 10
12.9975402729
 20
6.6419706754
 30
0.0
 10
12.9978292331
 20
6.6402828187
 30
0.0
 10
12.9983168251
 20
6.6386629864
 30
0.0
 10
12.9992793827
 20
6.6367987565
 30
0.0
 10
13.0007712474
 20
6.634828291
 30
0.0
 10
13.0024786118
 20
6.6330976096
 30
0.0
 10
13.0049453154
 20
6.6310923464
 30
0.0
 10
13.008298029
 20
6.6290264574
 30
0.0
 10
13.0125534205
 20
6.6270853733
 30
0.0
 10
13.0169416775
 20
6.6255798044
 30
0.0
 10
13.0214122902
 20
6.6244303796
 30
0.0
 10
13.0244340882
 20
6.6238801352
 30
0.0
 10
13.0259505884
 20
6.6236564288
 30
0.0
  0
SPLINE
  5
38C
100
AcDbEntity
  8
0
100
AcDbSpline
 62
9
  6
CONTINUOUS
 70
0
 71
3
 72
17
 73
13
 74
0
 42
0.0000001
 43
0.0000001
 44
0.0000000001
 40
0.0
 40
0.0
 40
0.0
 40
0.0
 40
0.0978782375
 40
0.1995585169
 40
0.306679348
 40
0.4215516505
 40
0.5468724798
 40
0.6142466757
 40
0.6853840542
 40
0.7606471547
 40
0.8390337477
 40
1.0
 40
1.0
 40
1.0
 40
1.0
 10
13.0316374254
 20
6.6236556151
 30
0.0
 10
13.0307989342
 20
6.6239070038
 30
0.0
 10
13.0291209125
 20
6.6245330024
 30
0.0
 10
13.0266987587
 20
6.6258373295
 30
0.0
 10
13.0243587655
 20
6.627559324
 30
0.0
 10
13.0221555127
 20
6.6297647895
 30
0.0
 10
13.0205242935
 20
6.6319972049
 30
0.0
 10
13.0194023198
 20
6.6340766392
 30
0.0
 10
13.0186620276
 20
6.6358428109
 30
0.0
 10
13.0180730238
 20
6.6377687352
 30
0.0
 10
13.0175108995
 20
6.6405279827
 30
0.0
 10
13.0173967908
 20
6.6426876491
 30
0.0
 10
13.0174895975
 20
6.6441242413
 30
0.0
  0
SPLINE
  5
38D
100
AcDbEntity
  8
0
100
AcDbSpline
 62
9
  6
CONTINUOUS
 70
0
 71
3
 72
19
 73
15
 74
0
 42
0.0000001
 43
0.0000001
 44
0.0000000001
 40
0.0
 40
0.0
 40
0.0
 40
0.0
 40
0.2128703287
 40
0.409950922
 40
0.5855550681
 40
0.7340024122
 40
0.7962733702
 40
0.8498882668
 40
0.8949548215
 40
0.9316605536
 40
0.9602038968
 40
0.9808104963
 40
0.9937961938
 40
1.0
 40
1.0
 40
1.0
 40
1.0
 10
11.7085736327
 20
9.2200811444
 30
0.0
 10
11.7078361057
 20
9.2200658242
 30
0.0
 10
11.7064158471
 20
9.2200318379
 30
0.0
 10
11.7043875999
 20
9.2199689679
 30
0.0
 10
11.7025830551
 20
9.2198976108
 30
0.0
 10
11.7012459223
 20
9.2198298077
 30
0.0
 10
11.7003318429
 20
9.2197704383
 30
0.0
 10
11.6997756384
 20
9.2197272741
 30
0.0
 10
11.6993087391
 20
9.2196835937
 30
0.0
 10
11.6989282545
 20
9.2196392553
 30
0.0
 10
11.6986356749
 20
9.2195962735
 30
0.0
 10
11.6984203481
 20
9.2195517861
 30
0.0
 10
11.6982959966
 20
9.219514747
 30
0.0
 10
11.6982274284
 20
9.2194760575
 30
0.0
 10
11.6982237215
 20
9.2194548807
 30
0.0
  0
SPLINE
  5
38E
100
AcDbEntity
  8
0
100
AcDbSpline
 62
9
  6
CONTINUOUS
 70
0
 71
3
 72
18
 73
14
 74
0
 42
0.0000001
 43
0.0000001
 44
0.0000000001
 40
0.0
 40
0.0
 40
0.0
 40
0.0
 40
0.2145940467
 40
0.412871666
 40
0.5889170809
 40
0.7368214628
 40
0.8516827884
 40
0.896499936
 40
0.933040388
 40
0.9614162435
 40
0.9817678202
 40
0.9943338589
 40
1.0
 40
1.0
 40
1.0
 40
1.0
 10
11.7075168788
 20
9.8903053057
 30
0.0
 10
11.7067729143
 20
9.8902906118
 30
0.0
 10
11.7053416298
 20
9.8902579237
 30
0.0
 10
11.7033004522
 20
9.8901970362
 30
0.0
 10
11.7014908696
 20
9.8901276495
 30
0.0
 10
11.6999712585
 20
9.8900520221
 30
0.0
 10
11.6989067403
 20
9.8899797053
 30
0.0
 10
11.6982296318
 20
9.889917259
 30
0.0
 10
11.6978506803
 20
9.8898733281
 30
0.0
 10
11.6975603444
 20
9.8898319649
 30
0.0
 10
11.6973466213
 20
9.8897865313
 30
0.0
 10
11.6972279813
 20
9.8897540233
 30
0.0
 10
11.6971609119
 20
9.8897120588
 30
0.0
 10
11.6971613886
 20
9.8896924171
 30
0.0
  0
ENDSEC
  0
SECTION
  2
OBJECTS
  0
DICTIONARY
  5
C
100
AcDbDictionary
280
0
281
1
  3
ACAD_GROUP
350
D
  3
ACAD_MLINESTYLE
350
17
  3
ACAD_LAYOUT
350
1A
  3
ACAD_PLOTSETTINGS
350
19
  3
ACAD_PLOTSTYLENAME
350
E
  0
DICTIONARY
  5
D
102
{ACAD_REACTORS
330
C
102
}
100
AcDbDictionary
280
0
281
1
  0
ACDBDICTIONARYWDFLT
  5
E
102
{ACAD_REACTORS
330
C
102
}
100
AcDbDictionary
281
1
  3
Normal
350
F
100
AcDbDictionaryWithDefault
340
F
  0
DICTIONARY
  5
17
102
{ACAD_REACTORS
330
C
102
}
100
AcDbDictionary
280
0
281
1
  3
Standard
350
18
  0
DICTIONARY
  5
19
102
{ACAD_REACTORS
330
C
102
}
100
AcDbDictionary
281
1
  0
DICTIONARY
  5
1A
102
{ACAD_REACTORS
330
C
102
}
100
AcDbDictionary
281
1
  3
Model
350
38F
  3
Layout1
350
390
  0
ACDBPLACEHOLDER
  5
F
102
{ACAD_REACTORS
330
E
102
}
  0
MLINESTYLE
  5
18
102
{ACAD_REACTORS
330
17
102
}
100
AcDbMlineStyle
  2
STANDARD
 70
0
  3

 62
256
 51
90.0
 52
90.0
 71
2
 49
0.5
 62
256
  6
BYLAYER
 49
-0.5
 62
256
  6
BYLAYER
  0
LAYOUT
  5
38F
102
{ACAD_REACTORS
330
1A
102
}
100
AcDbPlotSettings
  1

  2
none_device
  4
ANSI_C_(22.00_x_17.00_Inches)
  6

 40
0.0
 41
0.0
 42
0.0
 43
0.0
 44
558.8
 45
431.8
 46
0.0
 47
0.0
 48
0.0
 49
0.0
140
0.0
141
0.0
142
1.0
143
1.0
 70
1024
 72
0
 73
0
 74
0
  7

 75
0
147
1.0
148
0.0
149
0.0
100
AcDbLayout
  1
Model
 70
0
 71
0
 10
0.0
 20
0.0
 11
22.0
 21
17.0
 12
0.0
 22
0.0
 32
0.0
 14
0.0
 24
0.0
 34
0.0
 15
0.0
 25
0.0
 35
0.0
146
0.0
 13
0.0
 23
0.0
 33
0.0
 16
1.0
 26
0.0
 36
0.0
 17
0.0
 27
1.0
 37
0.0
 76
0
330
202
345
0
346
0
  0
LAYOUT
  5
390
102
{ACAD_REACTORS
330
1A
102
}
100
AcDbPlotSettings
  1

  2
none_device
  4
ANSI_C_(22.00_x_17.00_Inches)
  6

 40
0.0
 41
0.0
 42
0.0
 43
0.0
 44
558.8
 45
431.8
 46
0.0
 47
0.0
 48
0.0
 49
0.0
140
0.0
141
0.0
142
1.0
143
1.0
 70
0
 72
0
 73
0
 74
0
  7

 75
0
147
1.0
148
0.0
149
0.0
100
AcDbLayout
  1
Layout1
 70
0
 71
1
 10
0.0
 20
0.0
 11
22.0
 21
17.0
 12
0.0
 22
0.0
 32
0.0
 14
0.0
 24
0.0
 34
0.0
 15
0.0
 25
0.0
 35
0.0
146
0.0
 13
0.0
 23
0.0
 33
0.0
 16
1.0
 26
0.0
 36
0.0
 17
0.0
 27
1.0
 37
0.0
 76
0
330
203
345
0
346
0
  0
ENDSEC
  0
EOF
