999
DXF file: E:\BT Custom\CADOUTPUT\_TOP.dxf
999
Pro/ENGINEER 2018400 by Parametric Technology Corporation
  0
SECTION
  2
HEADER
  9
$ACADVER
  1
AC1018
  9
$DWGCODEPAGE
  3
ANSI_1252
  9
$EXTMAX
 10
22.0
 20
17.0
 30
0.0
  9
$EXTMIN
 10
0.0
 20
0.0
 30
0.0
  9
$LIMMIN
 10
0.0
 20
0.0
  9
$LIMMAX
 10
22.0
 20
17.0
  9
$VIEWCTR
 10
11.0
 20
8.5
  9
$VIEWSIZE
 40
17.0
  9
$CLAYER
  8
0
  9
$LTSCALE
 40
1.21
  9
$CELTYPE
  6
BYLAYER
  9
$DIMSCALE
 40
1.0
  9
$DIMASZ
 40
0.1
  9
$DIMEXO
 40
0.0625
  9
$DIMDLI
 40
0.836
  9
$DIMEXE
 40
0.125
  9
$DIMCEN
 40
0.198
  9
$DIMLFAC
 40
1.0
  9
$DIMBLK
  1
_FILLED
  9
$DIMALT
 70
1
  9
$DIMALTD
 70
2
  9
$DIMALTTD
 70
2
  9
$DIMALTF
 40
25.4
  9
$DIMTXT
 40
0.08
  9
$DIMTOL
 70
1
  9
$DIMLIM
 70
0
  9
$DIMTFAC
 40
1.0
  9
$DIMTP
 40
0.001
  9
$DIMTM
 40
0.001
  9
$DIMGAP
 40
0.09
  9
$DIMDSEP
 70
46
  9
$AUNITS
 70
0
  9
$PDMODE
 70
3
  9
$PDSIZE
 40
0.06
  9
$HANDSEED
  5
491
  9
$TILEMODE
 70
1
  9
$MEASUREMENT
 70
0
  9
$INSUNITS
 70
1
  0
ENDSEC
  0
SECTION
  2
CLASSES
  0
CLASS
  1
ACDBDICTIONARYWDFLT
  2
AcDbDictionaryWithDefault
  3
AutoCAD 2000
 90
0
 91
1
280
0
281
0
  0
CLASS
  1
ACDBPLACEHOLDER
  2
AcDbPlaceHolder
  3
AutoCAD 2000
 90
0
 91
1
280
0
281
0
  0
CLASS
  1
LAYOUT
  2
AcDbLayout
  3
AutoCAD 2000
 90
0
 91
0
280
0
281
0
  0
ENDSEC
  0
SECTION
  2
TABLES
  0
TABLE
  2
VPORT
  5
8
100
AcDbSymbolTable
 70
2
  0
VPORT
  5
1F4
100
AcDbSymbolTableRecord
100
AcDbViewportTableRecord
  2
*ACTIVE
 70
0
 10
0.0
 20
0.0
 11
1.0
 21
1.0
 12
11.0
 22
8.5
 13
0.0
 23
0.0
 14
1.0
 24
1.0
 15
0.0
 25
0.0
 16
0.0
 26
0.0
 36
1.0
 17
0.0
 27
0.0
 37
0.0
 40
17.0
 41
1.2941176471
 42
50.0
 43
0.0
 44
0.0
 50
0.0
 51
0.0
 71
0
 72
100
 73
1
 74
1
 75
0
 76
0
 77
0
 78
0
  0
ENDTAB
  0
TABLE
  2
LTYPE
  5
5
100
AcDbSymbolTable
 70
6
  0
LTYPE
  5
14
100
AcDbSymbolTableRecord
100
AcDbLinetypeTableRecord
  2
BYBLOCK
 70
0
  3

 72
65
 73
0
 40
0.0
  0
LTYPE
  5
15
100
AcDbSymbolTableRecord
100
AcDbLinetypeTableRecord
  2
BYLAYER
 70
0
  3

 72
65
 73
0
 40
0.0
  0
LTYPE
  5
16
100
AcDbSymbolTableRecord
100
AcDbLinetypeTableRecord
  2
CONTINUOUS
 70
64
  3
Solid line
 72
65
 73
0
 40
0.0
  0
LTYPE
  5
1F5
100
AcDbSymbolTableRecord
100
AcDbLinetypeTableRecord
  2
CENTER
 70
64
  3
____ _ ____ _ ____ _ ____ _ ____ _ ____ _ ____
 72
65
 73
4
 40
0.6
 49
0.375
 74
0
 49
-0.075
 74
0
 49
0.075
 74
0
 49
-0.075
 74
0
  0
LTYPE
  5
1F6
100
AcDbSymbolTableRecord
100
AcDbLinetypeTableRecord
  2
HIDDEN
 70
64
  3
- - - - - - - - - - - - - - - - - - - -
 72
65
 73
2
 40
0.2
 49
0.1
 74
0
 49
-0.1
 74
0
  0
LTYPE
  5
1F7
100
AcDbSymbolTableRecord
100
AcDbLinetypeTableRecord
  2
PHANTOM
 70
64
  3
_____ _ _ _____ _ _ _____ _ _ _____
 72
65
 73
6
 40
0.8
 49
0.45
 74
0
 49
-0.05
 74
0
 49
0.1
 74
0
 49
-0.05
 74
0
 49
0.1
 74
0
 49
-0.05
 74
0
  0
LTYPE
  5
1F8
100
AcDbSymbolTableRecord
100
AcDbLinetypeTableRecord
  2
DOT
 70
64
  3
. . . . . . . . . . . . . . . . . . . .
 72
65
 73
2
 40
0.2
 49
0.1
 74
0
 49
-0.1
 74
0
  0
LTYPE
  5
1F9
100
AcDbSymbolTableRecord
100
AcDbLinetypeTableRecord
  2
DASHED
 70
64
  3
- - - - - - - - - - - - - - - - - - - -
 72
65
 73
2
 40
0.2
 49
0.1
 74
0
 49
-0.1
 74
0
  0
ENDTAB
  0
TABLE
  2
LAYER
  5
2
100
AcDbSymbolTable
 70
36
  0
LAYER
  5
10
100
AcDbSymbolTableRecord
100
AcDbLayerTableRecord
  2
0
 70
0
 62
7
  6
CONTINUOUS
370
-3
390
F
  0
LAYER
  5
1FA
100
AcDbSymbolTableRecord
100
AcDbLayerTableRecord
  2
DEFAULT_1
 70
0
 62
7
  6
CENTER
370
-3
390
F
  0
LAYER
  5
1FB
100
AcDbSymbolTableRecord
100
AcDbLayerTableRecord
  2
DEFAULT_2
 70
0
 62
8
  6
HIDDEN
370
-3
390
F
  0
LAYER
  5
1FC
100
AcDbSymbolTableRecord
100
AcDbLayerTableRecord
  2
DEFAULT_3
 70
0
 62
7
  6
PHANTOM
370
-3
390
F
  0
LAYER
  5
1FD
100
AcDbSymbolTableRecord
100
AcDbLayerTableRecord
  2
ALL_FEATURES
 70
0
 62
7
  6
CONTINUOUS
370
-3
390
F
  0
LAYER
  5
1FE
100
AcDbSymbolTableRecord
100
AcDbLayerTableRecord
  2
AXES_FEATURES
 70
0
 62
7
  6
CONTINUOUS
370
-3
390
F
  0
LAYER
  5
1FF
100
AcDbSymbolTableRecord
100
AcDbLayerTableRecord
  2
DIMENSIONS
 70
0
 62
7
  6
CONTINUOUS
370
-3
390
F
  0
ENDTAB
  0
TABLE
  2
STYLE
  5
3
100
AcDbSymbolTable
 70
1
  0
STYLE
  5
11
100
AcDbSymbolTableRecord
100
AcDbTextStyleTableRecord
  2
STANDARD
 70
0
 40
0.0
 41
0.8
 50
0.0
 71
0
 42
0.2
  3
txt
  4

  0
STYLE
  5
200
100
AcDbSymbolTableRecord
100
AcDbTextStyleTableRecord
  2
TEXTSTYLE_1
 70
0
 40
0.0
 41
0.8
 50
0.0
 71
0
 42
0.2
  3
gdt
  4

  0
ENDTAB
  0
TABLE
  2
VIEW
  5
6
100
AcDbSymbolTable
 70
0
  0
ENDTAB
  0
TABLE
  2
UCS
  5
7
100
AcDbSymbolTable
 70
0
  0
ENDTAB
  0
TABLE
  2
APPID
  5
9
100
AcDbSymbolTable
 70
1
  0
APPID
  5
201
100
AcDbSymbolTableRecord
100
AcDbRegAppTableRecord
  2
ACAD
 70
0
  0
ENDTAB
  0
TABLE
  2
BLOCK_RECORD
  5
1
100
AcDbSymbolTable
 70
0
  0
BLOCK_RECORD
  5
202
100
AcDbSymbolTableRecord
100
AcDbBlockTableRecord
  2
*Model_Space
  0
BLOCK_RECORD
  5
203
100
AcDbSymbolTableRecord
100
AcDbBlockTableRecord
  2
*Paper_Space
  0
BLOCK_RECORD
  5
204
100
AcDbSymbolTableRecord
100
AcDbBlockTableRecord
  2
_FILLED
  0
ENDTAB
  0
TABLE
  2
DIMSTYLE
  5
A
100
AcDbSymbolTable
 70
1
100
AcDbDimStyleTable
 71
0
  0
DIMSTYLE
105
205
100
AcDbSymbolTableRecord
100
AcDbDimStyleTableRecord
  2
STANDARD
 70
0
  3

  4

 40
1.0
 41
0.1
 42
0.0625
 43
0.38
 44
0.125
 45
0.0
 46
0.0
 47
0.001
 48
0.001
140
0.08
141
0.09
142
0.0
143
25.4
144
1.0
145
0.0
146
1.0
147
0.09
 71
1.0
 72
0.0
 73
1
 74
1
 75
0
 76
0
 77
0
 78
4
 79
1
170
1
171
2
172
0
173
0
174
0
175
0
176
0
177
0
178
0
270
2
179
3
271
3
272
3
273
2
274
2
275
0
280
0
281
0
282
0
283
1
284
4
285
0
286
0
287
3
288
0
340
11
278
46
341
204
342
204
343
204
344
204
  0
ENDTAB
  0
ENDSEC
  0
SECTION
  2
BLOCKS
  0
BLOCK
  5
20
100
AcDbEntity
  8
0
100
AcDbBlockBegin
  2
*Model_Space
 70
0
 10
0.0
 20
0.0
 30
0.0
  3
*Model_Space
  1

  0
ENDBLK
  5
21
100
AcDbEntity
  8
0
100
AcDbBlockEnd
  0
BLOCK
  5
1C
100
AcDbEntity
  8
0
100
AcDbBlockBegin
  2
*Paper_Space
 70
0
 10
0.0
 20
0.0
 30
0.0
  3
*Paper_Space
  1

  0
ENDBLK
  5
1D
100
AcDbEntity
  8
0
100
AcDbBlockEnd
  0
BLOCK
  5
206
100
AcDbEntity
  8
0
100
AcDbBlockBegin
  2
_FILLED
 70
64
 10
0.0
 20
0.0
  3
_FILLED
  1

  0
SOLID
  5
207
100
AcDbEntity
  8
0
  6
BYBLOCK
 62
0
100
AcDbTrace
 10
0.0
 20
0.0
 11
-1.0
 21
0.2
 12
-1.0
 22
-0.2
 13
-1.0
 23
-0.2
  0
ENDBLK
  5
208
100
AcDbEntity
  8
0
  6
BYBLOCK
 62
0
100
AcDbBlockEnd
  0
ENDSEC
  0
SECTION
  2
ENTITIES
  0
LINE
  5
209
100
AcDbEntity
  8
0
100
AcDbLine
 62
7
  6
CONTINUOUS
 10
10.6767502453
 20
-3.0420629129
 11
10.705439388
 21
-3.0508340641
  0
LINE
  5
20A
100
AcDbEntity
  8
0
100
AcDbLine
 62
7
  6
CONTINUOUS
 10
11.3891972885
 20
-3.2598798329
 11
11.4178864312
 21
-3.2686509841
  0
LINE
  5
20B
100
AcDbEntity
  8
0
100
AcDbLine
 62
7
  6
CONTINUOUS
 10
10.7051761461
 20
-2.9734367179
 11
10.7316645738
 21
-2.9875208648
  0
LINE
  5
20C
100
AcDbEntity
  8
0
100
AcDbLine
 62
7
  6
CONTINUOUS
 10
11.3629721027
 20
-3.3231930322
 11
11.3894605305
 21
-3.3372771791
  0
LINE
  5
20D
100
AcDbEntity
  8
0
100
AcDbLine
 62
7
  6
CONTINUOUS
 10
11.3868286921
 20
-0.5348673024
 11
10.7078079845
 21
-0.5348673024
  0
LINE
  5
20E
100
AcDbEntity
  8
0
100
AcDbLine
 62
9
  6
CONTINUOUS
 10
10.7078079844
 20
-0.5200205554
 11
11.3868286922
 21
-0.5200205554
  0
LINE
  5
20F
100
AcDbEntity
  8
0
100
AcDbLine
 62
9
  6
CONTINUOUS
 10
10.6678079844
 20
-0.4948673024
 11
10.6826547314
 21
-0.4948673024
  0
LINE
  5
210
100
AcDbEntity
  8
0
100
AcDbLine
 62
9
  6
CONTINUOUS
 10
11.4119819452
 20
-0.4948673024
 11
11.4268286922
 21
-0.4948673024
  0
LINE
  5
211
100
AcDbEntity
  8
0
100
AcDbLine
 62
7
  6
CONTINUOUS
 10
3.9952892733
 20
8.9452133942
 11
3.9952976124
 21
8.7401311981
  0
LINE
  5
212
100
AcDbEntity
  8
0
100
AcDbLine
 62
9
  6
CONTINUOUS
 10
3.9953008552
 20
8.9452133942
 11
3.9953008552
 21
8.7440727088
  0
LINE
  5
213
100
AcDbEntity
  8
0
100
AcDbLine
 62
9
  6
CONTINUOUS
 10
4.0034578363
 20
8.7440727088
 11
4.0034578363
 21
8.9452133942
  0
LWPOLYLINE
  5
214
100
AcDbEntity
  8
0
100
AcDbPolyline
 62
7
  6
CONTINUOUS
 90
3
 70
0
 10
3.9953497837
 20
8.9549483803
 10
3.9952998575
 20
8.9496268471
 10
3.9952892733
 20
8.9452133942
  0
LINE
  5
215
100
AcDbEntity
  8
0
100
AcDbLine
 62
7
  6
CONTINUOUS
 10
3.9954479299
 20
8.9595240004
 11
3.9953497837
 21
8.9549483803
  0
LINE
  5
216
100
AcDbEntity
  8
0
100
AcDbLine
 62
7
  6
CONTINUOUS
 10
3.9955939655
 20
8.9629984807
 11
3.9954479299
 21
8.9595240004
  0
LWPOLYLINE
  5
217
100
AcDbEntity
  8
0
100
AcDbPolyline
 62
7
  6
CONTINUOUS
 90
3
 70
0
 10
3.9962842479
 20
8.968578166
 10
3.9958110669
 20
8.9656853361
 10
3.9955939655
 20
8.9629984807
  0
LINE
  5
218
100
AcDbEntity
  8
0
100
AcDbLine
 62
9
  6
CONTINUOUS
 10
11.1992078188
 20
-0.3123996819
 11
10.8954288593
 21
-0.3123996817
  0
LINE
  5
219
100
AcDbEntity
  8
0
100
AcDbLine
 62
9
  6
CONTINUOUS
 10
10.890275605
 20
-0.3072464289
 11
11.2043610716
 21
-0.3072464289
  0
LINE
  5
21A
100
AcDbEntity
  8
0
100
AcDbLine
 62
9
  6
CONTINUOUS
 10
11.2043610716
 20
-0.0034674681
 11
10.890275605
 21
-0.0034674681
  0
LINE
  5
21B
100
AcDbEntity
  8
0
100
AcDbLine
 62
9
  6
CONTINUOUS
 10
10.8954288578
 20
0.0016857849
 11
11.1992078173
 21
0.0016857847
  0
LINE
  5
21C
100
AcDbEntity
  8
0
100
AcDbLine
 62
9
  6
CONTINUOUS
 10
11.4268286922
 20
0.1841534054
 11
11.4119819452
 21
0.1841534054
  0
LINE
  5
21D
100
AcDbEntity
  8
0
100
AcDbLine
 62
9
  6
CONTINUOUS
 10
10.6826547314
 20
0.1841534054
 11
10.6678079844
 21
0.1841534054
  0
LINE
  5
21E
100
AcDbEntity
  8
0
100
AcDbLine
 62
9
  6
CONTINUOUS
 10
11.3868286922
 20
0.2093066584
 11
10.7078079844
 21
0.2093066584
  0
LINE
  5
21F
100
AcDbEntity
  8
0
100
AcDbLine
 62
7
  6
CONTINUOUS
 10
10.7078079845
 20
0.2241534054
 11
11.3868286921
 21
0.2241534054
  0
LWPOLYLINE
  5
220
100
AcDbEntity
  8
0
100
AcDbPolyline
 62
7
  6
CONTINUOUS
 90
3
 70
0
 10
3.9955834008
 20
8.7264736436
 10
3.9957952366
 20
8.723745848
 10
3.9962508594
 20
8.7208588246
  0
LWPOLYLINE
  5
221
100
AcDbEntity
  8
0
100
AcDbPolyline
 62
7
  6
CONTINUOUS
 90
3
 70
0
 10
3.9953444705
 20
8.7347137202
 10
3.9954398226
 20
8.7300358341
 10
3.9955834008
 20
8.7264736436
  0
LINE
  5
222
100
AcDbEntity
  8
0
100
AcDbLine
 62
7
  6
CONTINUOUS
 10
3.9952976124
 20
8.7401311981
 11
3.9953444705
 21
8.7347137202
  0
LINE
  5
223
100
AcDbEntity
  8
0
100
AcDbLine
 62
9
  6
CONTINUOUS
 10
4.0062635837
 20
8.9452133942
 11
4.0062635837
 21
8.7440727088
  0
LWPOLYLINE
  5
224
100
AcDbEntity
  8
0
100
AcDbPolyline
 62
7
  6
CONTINUOUS
 90
3
 70
0
 10
3.99810539
 20
8.9736142217
 10
3.9974570033
 20
8.972235003
 10
3.9962842479
 20
8.968578166
  0
LINE
  5
225
100
AcDbEntity
  8
0
100
AcDbLine
 62
7
  6
CONTINUOUS
 10
3.9981019297
 20
8.973607488
 11
4.119013585
 21
9.2078854387
  0
LINE
  5
226
100
AcDbEntity
  8
0
100
AcDbLine
 62
9
  6
CONTINUOUS
 10
3.9984347767
 20
8.9741466593
 11
4.119315202
 21
9.2083640988
  0
LINE
  5
227
100
AcDbEntity
  8
0
100
AcDbLine
 62
9
  6
CONTINUOUS
 10
4.1427163958
 20
9.2094208527
 11
4.0052790613
 21
8.9741466593
  0
LINE
  5
228
100
AcDbEntity
  8
0
100
AcDbLine
 62
9
  6
CONTINUOUS
 10
4.0062635837
 20
8.9452133942
 11
4.1428026109
 21
9.1789498067
  0
LINE
  5
229
100
AcDbEntity
  8
0
100
AcDbLine
 62
9
  6
CONTINUOUS
 10
3.9981026932
 20
8.9736089583
 11
3.9984347767
 21
8.9741466593
  0
LINE
  5
22A
100
AcDbEntity
  8
0
100
AcDbLine
 62
9
  6
CONTINUOUS
 10
4.119315202
 20
9.2083640988
 11
4.1190150148
 21
9.207888209
  0
LINE
  5
22B
100
AcDbEntity
  8
0
100
AcDbLine
 62
7
  6
CONTINUOUS
 10
3.9962508594
 20
8.7208588246
 11
3.9974128246
 21
8.7171557494
  0
LINE
  5
22C
100
AcDbEntity
  8
0
100
AcDbLine
 62
9
  6
CONTINUOUS
 10
10.6885125958
 20
0.198295541
 11
10.8902756051
 21
-0.0034674695
  0
LINE
  5
22D
100
AcDbEntity
  8
0
100
AcDbLine
 62
9
  6
CONTINUOUS
 10
11.1992078188
 20
-0.3123996819
 11
11.4009708278
 21
-0.514162691
  0
LINE
  5
22E
100
AcDbEntity
  8
0
100
AcDbLine
 62
9
  6
CONTINUOUS
 10
11.4061240808
 20
-0.509009438
 11
11.2043610714
 21
-0.3072464275
  0
LINE
  5
22F
100
AcDbEntity
  8
0
100
AcDbLine
 62
9
  6
CONTINUOUS
 10
10.8954288578
 20
0.0016857849
 11
10.6936658488
 21
0.203448794
  0
LINE
  5
230
100
AcDbEntity
  8
0
100
AcDbLine
 62
9
  6
CONTINUOUS
 10
4.1190150241
 20
8.481397876
 11
4.119315202
 21
8.4809220042
  0
LINE
  5
231
100
AcDbEntity
  8
0
100
AcDbLine
 62
9
  6
CONTINUOUS
 10
3.9984347767
 20
8.7151394437
 11
3.998103838
 21
8.7156749286
  0
LINE
  5
232
100
AcDbEntity
  8
0
100
AcDbLine
 62
9
  6
CONTINUOUS
 10
4.0052790613
 20
8.7151394437
 11
4.1427163958
 21
8.4798652503
  0
LINE
  5
233
100
AcDbEntity
  8
0
100
AcDbLine
 62
9
  6
CONTINUOUS
 10
4.1428000227
 20
8.5103407269
 11
4.0062635837
 21
8.7440727088
  0
LWPOLYLINE
  5
234
100
AcDbEntity
  8
0
100
AcDbPolyline
 62
7
  6
CONTINUOUS
 90
4
 70
0
 10
4.1190134463
 20
8.4814008701
 10
4.119323945
 20
8.4808227074
 10
4.1215257781
 20
8.4776455486
 10
4.1241852663
 20
8.475041708
  0
LINE
  5
235
100
AcDbEntity
  8
0
100
AcDbLine
 62
7
  6
CONTINUOUS
 10
3.9981004055
 20
8.7156815684
 11
4.1190136514
 21
8.4814005357
  0
LINE
  5
236
100
AcDbEntity
  8
0
100
AcDbLine
 62
9
  6
CONTINUOUS
 10
4.119315202
 20
8.4809220042
 11
3.9984347767
 21
8.7151394437
  0
LINE
  5
237
100
AcDbEntity
  8
0
100
AcDbLine
 62
7
  6
CONTINUOUS
 10
3.9974128246
 20
8.7171557494
 11
3.9981055657
 21
8.7156715401
  0
LWPOLYLINE
  5
238
100
AcDbEntity
  8
0
100
AcDbPolyline
 62
7
  6
CONTINUOUS
 90
3
 70
0
 10
6.1002206033
 20
8.5630262259
 10
6.1008494265
 20
8.2543637208
 10
6.1019331126
 20
7.9191842577
  0
LINE
  5
239
100
AcDbEntity
  8
0
100
AcDbLine
 62
9
  6
CONTINUOUS
 10
6.4488183278
 20
9.1046390645
 11
6.4488182918
 21
8.5846450313
  0
LWPOLYLINE
  5
23A
100
AcDbEntity
  8
0
100
AcDbPolyline
 62
7
  6
CONTINUOUS
 90
3
 70
0
 10
6.1019331283
 20
9.7701060547
 10
6.1008515711
 20
9.4357267693
 10
6.1002385081
 20
9.135290211
  0
LINE
  5
23B
100
AcDbEntity
  8
0
100
AcDbLine
 62
7
  6
CONTINUOUS
 10
10.8653981077
 20
-2.8132147563
 11
10.8794822546
 21
-2.8397031841
  0
LINE
  5
23C
100
AcDbEntity
  8
0
100
AcDbLine
 62
7
  6
CONTINUOUS
 10
11.215154422
 20
-3.471010713
 11
11.2292385689
 21
-3.4974991407
  0
LWPOLYLINE
  5
23D
100
AcDbEntity
  8
0
100
AcDbPolyline
 62
7
  6
CONTINUOUS
 90
5
 70
0
 10
6.1019353325
 20
7.9191763366
 10
6.1034334699
 20
7.911666029
 10
6.1075903712
 20
7.9053244196
 10
6.1138092312
 20
7.9009857511
 10
6.1218591309
 20
7.8992603825
  0
LINE
  5
23E
100
AcDbEntity
  8
0
100
AcDbLine
 62
9
  6
CONTINUOUS
 10
7.5618268293
 20
9.0752802239
 11
7.5618268293
 21
8.6140058791
  0
LINE
  5
23F
100
AcDbEntity
  8
0
100
AcDbLine
 62
9
  6
CONTINUOUS
 10
7.5782850575
 20
9.0752802239
 11
7.5782850575
 21
8.6140058791
  0
LINE
  5
240
100
AcDbEntity
  8
0
100
AcDbLine
 62
9
  6
CONTINUOUS
 10
7.6636749418
 20
8.7506296939
 11
7.5782850575
 21
8.6140058791
  0
LINE
  5
241
100
AcDbEntity
  8
0
100
AcDbLine
 62
7
  6
CONTINUOUS
 10
7.5722933515
 20
8.5740430727
 11
7.6633783044
 21
8.7197789972
  0
LINE
  5
242
100
AcDbEntity
  8
0
100
AcDbLine
 62
9
  6
CONTINUOUS
 10
7.6636749418
 20
8.7506296939
 11
7.6636749418
 21
8.9386564091
  0
LINE
  5
243
100
AcDbEntity
  8
0
100
AcDbLine
 62
7
  6
CONTINUOUS
 10
7.6664183383
 20
8.730378976
 11
7.6664183383
 21
8.958907127
  0
LWPOLYLINE
  5
244
100
AcDbEntity
  8
0
100
AcDbPolyline
 62
7
  6
CONTINUOUS
 90
4
 70
0
 10
7.9927024139
 20
7.9191794307
 10
7.9943814939
 20
8.5342669234
 10
7.9943693887
 20
9.1574623746
 10
7.9927052391
 20
9.7701026986
  0
LINE
  5
245
100
AcDbEntity
  8
0
100
AcDbLine
 62
7
  6
CONTINUOUS
 10
10.9340243027
 20
-2.7847888556
 11
10.9427954538
 21
-2.8134779982
  0
LINE
  5
246
100
AcDbEntity
  8
0
100
AcDbLine
 62
7
  6
CONTINUOUS
 10
11.1518412227
 20
-3.4972358988
 11
11.1606123739
 21
-3.5259250414
  0
LINE
  5
247
100
AcDbEntity
  8
0
100
AcDbLine
 62
9
  6
CONTINUOUS
 10
7.5782850575
 20
9.0752802239
 11
7.6636749418
 21
8.9386564091
  0
LINE
  5
248
100
AcDbEntity
  8
0
100
AcDbLine
 62
7
  6
CONTINUOUS
 10
7.6633783044
 20
8.9695071058
 11
7.5722933515
 21
9.1152430303
  0
LWPOLYLINE
  5
249
100
AcDbEntity
  8
0
100
AcDbPolyline
 62
7
  6
CONTINUOUS
 90
5
 70
0
 10
7.9927028892
 20
9.7701106203
 10
7.9912047177
 20
9.7776211434
 10
7.9870477137
 20
9.7839628567
 10
7.9808287064
 20
9.7883015642
 10
7.9727788294
 20
9.7900268833
  0
LINE
  5
24A
100
AcDbEntity
  8
0
100
AcDbLine
 62
7
  6
CONTINUOUS
 10
10.6678079844
 20
-0.4948673023
 11
10.6678079844
 21
0.1841534053
  0
LINE
  5
24B
100
AcDbEntity
  8
0
100
AcDbLine
 62
9
  6
CONTINUOUS
 10
10.6826547314
 20
0.1841534054
 11
10.6826547314
 21
-0.4948673024
  0
LINE
  5
24C
100
AcDbEntity
  8
0
100
AcDbLine
 62
9
  6
CONTINUOUS
 10
10.7078079844
 20
0.2241534054
 11
10.7078079844
 21
0.2093066584
  0
LINE
  5
24D
100
AcDbEntity
  8
0
100
AcDbLine
 62
9
  6
CONTINUOUS
 10
10.7078079844
 20
-0.5200205554
 11
10.7078079844
 21
-0.5348673024
  0
LINE
  5
24E
100
AcDbEntity
  8
0
100
AcDbLine
 62
9
  6
CONTINUOUS
 10
10.8902756049
 20
-0.307246429
 11
10.8902756051
 21
-0.0034674695
  0
LINE
  5
24F
100
AcDbEntity
  8
0
100
AcDbLine
 62
9
  6
CONTINUOUS
 10
10.8954288579
 20
0.0016857848
 11
10.8954288579
 21
-0.3123996818
  0
LWPOLYLINE
  5
250
100
AcDbEntity
  8
0
100
AcDbPolyline
 62
7
  6
CONTINUOUS
 90
5
 70
0
 10
15.9727861847
 20
7.899259247
 10
15.9802966095
 20
7.9007574816
 10
15.9866382422
 20
7.9049145041
 10
15.990976881
 20
7.9111334898
 10
15.9927021574
 20
7.9191832399
  0
LINE
  5
251
100
AcDbEntity
  8
0
100
AcDbLine
 62
9
  6
CONTINUOUS
 10
11.1992078187
 20
-0.3123996818
 11
11.1992078187
 21
0.0016857848
  0
LINE
  5
252
100
AcDbEntity
  8
0
100
AcDbLine
 62
9
  6
CONTINUOUS
 10
11.2043610717
 20
-0.003467468
 11
11.2043610714
 21
-0.3072464275
  0
LINE
  5
253
100
AcDbEntity
  8
0
100
AcDbLine
 62
9
  6
CONTINUOUS
 10
11.3868286922
 20
-0.5348673024
 11
11.3868286922
 21
-0.5200205554
  0
LINE
  5
254
100
AcDbEntity
  8
0
100
AcDbLine
 62
9
  6
CONTINUOUS
 10
11.3868286922
 20
0.2093066584
 11
11.3868286922
 21
0.2241534054
  0
LINE
  5
255
100
AcDbEntity
  8
0
100
AcDbLine
 62
9
  6
CONTINUOUS
 10
11.4119819452
 20
-0.4948673024
 11
11.4119819452
 21
0.1841534054
  0
LINE
  5
256
100
AcDbEntity
  8
0
100
AcDbLine
 62
7
  6
CONTINUOUS
 10
11.4268286922
 20
0.1841534053
 11
11.4268286922
 21
-0.4948673023
  0
LWPOLYLINE
  5
257
100
AcDbEntity
  8
0
100
AcDbPolyline
 62
7
  6
CONTINUOUS
 90
5
 70
0
 10
7.972785105
 20
7.8992587332
 10
7.9802955417
 20
7.9007569388
 10
7.986637176
 20
7.9049139572
 10
7.9909757966
 20
7.9111329522
 10
7.9927010238
 20
7.9191827771
  0
LINE
  5
258
100
AcDbEntity
  8
0
100
AcDbLine
 62
7
  6
CONTINUOUS
 10
17.9587888179
 20
8.4705392931
 11
17.9352822612
 21
8.4694775088
  0
LINE
  5
259
100
AcDbEntity
  8
0
100
AcDbLine
 62
7
  6
CONTINUOUS
 10
17.9753214746
 20
8.4809220042
 11
17.9519202808
 21
8.4798652503
  0
LINE
  5
25A
100
AcDbEntity
  8
0
100
AcDbLine
 62
7
  6
CONTINUOUS
 10
17.9352822612
 20
8.4694775088
 11
17.9349049201
 21
8.4694640409
  0
LINE
  5
25B
100
AcDbEntity
  8
0
100
AcDbLine
 62
7
  6
CONTINUOUS
 10
17.9347630063
 20
8.4695127683
 11
17.9348891413
 21
8.4695154258
  0
LINE
  5
25C
100
AcDbEntity
  8
0
100
AcDbLine
 62
7
  6
CONTINUOUS
 10
17.9349049201
 20
8.4694640409
 11
17.9342038957
 21
8.4694579576
  0
LINE
  5
25D
100
AcDbEntity
  8
0
100
AcDbLine
 62
7
  6
CONTINUOUS
 10
17.9338483541
 20
8.469507881
 11
17.9344308053
 21
8.469508802
  0
LWPOLYLINE
  5
25E
100
AcDbEntity
  8
0
100
AcDbPolyline
 62
7
  6
CONTINUOUS
 90
4
 70
0
 10
6.1218558749
 20
7.8992589922
 10
6.7369445713
 20
7.8975798898
 10
7.3601393053
 20
7.8975920098
 10
7.9727771767
 20
7.899256166
  0
LWPOLYLINE
  5
25F
100
AcDbEntity
  8
0
100
AcDbPolyline
 62
7
  6
CONTINUOUS
 90
4
 70
0
 10
14.1218544202
 20
7.8992578297
 10
14.7362042019
 20
7.8975862316
 10
15.3594009837
 20
7.8975857967
 10
15.9727782566
 20
7.8992570076
  0
LINE
  5
260
100
AcDbEntity
  8
0
100
AcDbLine
 62
7
  6
CONTINUOUS
 10
17.9329969188
 20
8.4695104147
 11
17.9338483541
 21
8.469507881
  0
LWPOLYLINE
  5
261
100
AcDbEntity
  8
0
100
AcDbPolyline
 62
7
  6
CONTINUOUS
 90
3
 70
0
 10
4.1602008442
 20
8.4695088352
 10
4.1604291535
 20
8.4695079028
 10
4.1616396024
 20
8.4695104143
  0
LINE
  5
262
100
AcDbEntity
  8
0
100
AcDbLine
 62
7
  6
CONTINUOUS
 10
4.1597195249
 20
8.469464335
 11
4.1604327811
 21
8.4694579264
  0
LINE
  5
263
100
AcDbEntity
  8
0
100
AcDbLine
 62
7
  6
CONTINUOUS
 10
4.1597355517
 20
8.4695157169
 11
4.1599074661
 21
8.4695121739
  0
LINE
  5
264
100
AcDbEntity
  8
0
100
AcDbLine
 62
7
  6
CONTINUOUS
 10
4.1593544324
 20
8.4694774778
 11
4.1597195249
 21
8.469464335
  0
LINE
  5
265
100
AcDbEntity
  8
0
100
AcDbLine
 62
7
  6
CONTINUOUS
 10
4.1427163958
 20
8.4798652503
 11
4.119315202
 21
8.4809220042
  0
LINE
  5
266
100
AcDbEntity
  8
0
100
AcDbLine
 62
7
  6
CONTINUOUS
 10
4.1358756115
 20
8.4705378829
 11
4.1593544324
 21
8.4694774778
  0
LWPOLYLINE
  5
267
100
AcDbEntity
  8
0
100
AcDbPolyline
 62
7
  6
CONTINUOUS
 90
5
 70
0
 10
14.1218515716
 20
9.7900273698
 10
14.1143411436
 20
9.7885291678
 10
14.1079995072
 20
9.7843721523
 10
14.1036608837
 20
9.7781531591
 10
14.1019356531
 20
9.770103435
  0
LWPOLYLINE
  5
268
100
AcDbEntity
  8
0
100
AcDbPolyline
 62
7
  6
CONTINUOUS
 90
4
 70
0
 10
4.1632189687
 20
8.4695181619
 10
4.8615048807
 20
8.4943614224
 10
5.6292797474
 20
8.5395661308
 10
6.4474063375
 20
8.5646470001
  0
LWPOLYLINE
  5
269
100
AcDbEntity
  8
0
100
AcDbPolyline
 62
7
  6
CONTINUOUS
 90
4
 70
0
 10
17.9314177079
 20
9.2197679411
 10
17.2331317963
 20
9.1949246806
 10
16.4653569295
 20
9.1497199722
 10
15.647230339
 20
9.1246391029
  0
LINE
  5
26A
100
AcDbEntity
  8
0
100
AcDbLine
 62
7
  6
CONTINUOUS
 10
4.1598736702
 20
9.2197733347
 11
4.1597475352
 21
9.2197706772
  0
LINE
  5
26B
100
AcDbEntity
  8
0
100
AcDbLine
 62
7
  6
CONTINUOUS
 10
4.1597317565
 20
9.2198220621
 11
4.1604327809
 21
9.2198281454
  0
LINE
  5
26C
100
AcDbEntity
  8
0
100
AcDbLine
 62
7
  6
CONTINUOUS
 10
4.1616396024
 20
8.4695104143
 11
4.1632148552
 21
8.469518134
  0
LINE
  5
26D
100
AcDbEntity
  8
0
100
AcDbLine
 62
7
  6
CONTINUOUS
 10
17.9333707089
 20
9.2197770542
 11
17.9314218214
 21
9.219767969
  0
LINE
  5
26E
100
AcDbEntity
  8
0
100
AcDbLine
 62
9
  6
CONTINUOUS
 10
17.9518340762
 20
8.5103362964
 11
17.9313145079
 21
8.510309162
  0
LINE
  5
26F
100
AcDbEntity
  8
0
100
AcDbLine
 62
9
  6
CONTINUOUS
 10
4.1428026003
 20
9.1789498065
 11
4.1633221686
 21
9.178976941
  0
LINE
  5
270
100
AcDbEntity
  8
0
100
AcDbLine
 62
7
  6
CONTINUOUS
 10
14.539303275
 20
8.5646430515
 11
15.6474159519
 21
8.564647514
  0
LINE
  5
271
100
AcDbEntity
  8
0
100
AcDbLine
 62
9
  6
CONTINUOUS
 10
6.4503048443
 20
8.5846430474
 11
7.5550924569
 21
8.5846430515
  0
LINE
  5
272
100
AcDbEntity
  8
0
100
AcDbLine
 62
9
  6
CONTINUOUS
 10
7.5618268293
 20
8.6140058791
 11
7.5782850575
 21
8.6140058791
  0
LINE
  5
273
100
AcDbEntity
  8
0
100
AcDbLine
 62
9
  6
CONTINUOUS
 10
14.5163516191
 20
8.6140058922
 11
14.5328098473
 21
8.6140058922
  0
LINE
  5
274
100
AcDbEntity
  8
0
100
AcDbLine
 62
9
  6
CONTINUOUS
 10
18.0962018998
 20
8.7151394437
 11
18.0893576152
 21
8.7151394437
  0
LINE
  5
275
100
AcDbEntity
  8
0
100
AcDbLine
 62
9
  6
CONTINUOUS
 10
4.0052790613
 20
8.7151394437
 11
3.9984347767
 21
8.7151394437
  0
LINE
  5
276
100
AcDbEntity
  8
0
100
AcDbLine
 62
9
  6
CONTINUOUS
 10
3.9959572035
 20
8.7247838654
 11
4.0028014881
 21
8.7247838654
  0
LINE
  5
277
100
AcDbEntity
  8
0
100
AcDbLine
 62
9
  6
CONTINUOUS
 10
18.0918351885
 20
8.7247838654
 11
18.0986794731
 21
8.7247838654
  0
LINE
  5
278
100
AcDbEntity
  8
0
100
AcDbLine
 62
9
  6
CONTINUOUS
 10
4.0034578363
 20
8.7440727088
 11
4.0062635837
 21
8.7440727088
  0
LINE
  5
279
100
AcDbEntity
  8
0
100
AcDbLine
 62
9
  6
CONTINUOUS
 10
3.9952892733
 20
8.7440727087
 11
3.9953008552
 21
8.7440727087
  0
LINE
  5
27A
100
AcDbEntity
  8
0
100
AcDbLine
 62
9
  6
CONTINUOUS
 10
18.0883730929
 20
8.7440727087
 11
18.0911788403
 21
8.7440727087
  0
LINE
  5
27B
100
AcDbEntity
  8
0
100
AcDbLine
 62
9
  6
CONTINUOUS
 10
18.0993358213
 20
8.7440727088
 11
18.0993474033
 21
8.7440727088
  0
LINE
  5
27C
100
AcDbEntity
  8
0
100
AcDbLine
 62
9
  6
CONTINUOUS
 10
7.6636749418
 20
8.7506296936
 11
7.6664183383
 21
8.7506296936
  0
LINE
  5
27D
100
AcDbEntity
  8
0
100
AcDbLine
 62
9
  6
CONTINUOUS
 10
14.4282183383
 20
8.7506296939
 11
14.4309617348
 21
8.7506296939
  0
LINE
  5
27E
100
AcDbEntity
  8
0
100
AcDbLine
 62
9
  6
CONTINUOUS
 10
4.1427506447
 20
8.8446430515
 11
6.4488183278
 21
8.8446430515
  0
LINE
  5
27F
100
AcDbEntity
  8
0
100
AcDbLine
 62
9
  6
CONTINUOUS
 10
15.6458183487
 20
8.8446430515
 11
17.9518860319
 21
8.8446430515
  0
LINE
  5
280
100
AcDbEntity
  8
0
100
AcDbLine
 62
9
  6
CONTINUOUS
 10
14.4309617348
 20
8.9386564094
 11
14.4282183383
 21
8.9386564094
  0
LINE
  5
281
100
AcDbEntity
  8
0
100
AcDbLine
 62
9
  6
CONTINUOUS
 10
7.6664183383
 20
8.9386564091
 11
7.6636749418
 21
8.9386564091
  0
LINE
  5
282
100
AcDbEntity
  8
0
100
AcDbLine
 62
9
  6
CONTINUOUS
 10
18.0911788403
 20
8.9452133942
 11
18.0883730929
 21
8.9452133942
  0
LINE
  5
283
100
AcDbEntity
  8
0
100
AcDbLine
 62
9
  6
CONTINUOUS
 10
18.0993474033
 20
8.9452133943
 11
18.0993358213
 21
8.9452133943
  0
LINE
  5
284
100
AcDbEntity
  8
0
100
AcDbLine
 62
9
  6
CONTINUOUS
 10
4.0062635837
 20
8.9452133943
 11
4.0034578363
 21
8.9452133943
  0
LINE
  5
285
100
AcDbEntity
  8
0
100
AcDbLine
 62
9
  6
CONTINUOUS
 10
3.9953008552
 20
8.9452133942
 11
3.9952892733
 21
8.9452133942
  0
LINE
  5
286
100
AcDbEntity
  8
0
100
AcDbLine
 62
9
  6
CONTINUOUS
 10
18.0986794731
 20
8.9645022376
 11
18.0918351885
 21
8.9645022376
  0
LINE
  5
287
100
AcDbEntity
  8
0
100
AcDbLine
 62
9
  6
CONTINUOUS
 10
4.0028014881
 20
8.9645022376
 11
3.9959572035
 21
8.9645022376
  0
LINE
  5
288
100
AcDbEntity
  8
0
100
AcDbLine
 62
9
  6
CONTINUOUS
 10
3.9984347767
 20
8.9741466593
 11
4.0052790613
 21
8.9741466593
  0
LINE
  5
289
100
AcDbEntity
  8
0
100
AcDbLine
 62
9
  6
CONTINUOUS
 10
18.0893576152
 20
8.9741466593
 11
18.0962018998
 21
8.9741466593
  0
LINE
  5
28A
100
AcDbEntity
  8
0
100
AcDbLine
 62
9
  6
CONTINUOUS
 10
14.5328098473
 20
9.0752802239
 11
14.5163516191
 21
9.0752802239
  0
LINE
  5
28B
100
AcDbEntity
  8
0
100
AcDbLine
 62
9
  6
CONTINUOUS
 10
7.5782850575
 20
9.0752802108
 11
7.5618268293
 21
9.0752802108
  0
LINE
  5
28C
100
AcDbEntity
  8
0
100
AcDbLine
 62
9
  6
CONTINUOUS
 10
15.6443318322
 20
9.1046430556
 11
14.5395442197
 21
9.1046430515
  0
LINE
  5
28D
100
AcDbEntity
  8
0
100
AcDbLine
 62
7
  6
CONTINUOUS
 10
7.5553333855
 20
9.1246430515
 11
6.4472207247
 21
9.124638589
  0
LINE
  5
28E
100
AcDbEntity
  8
0
100
AcDbLine
 62
7
  6
CONTINUOUS
 10
4.1607883224
 20
9.219778222
 11
4.1602058713
 21
9.219777301
  0
LINE
  5
28F
100
AcDbEntity
  8
0
100
AcDbLine
 62
9
  6
CONTINUOUS
 10
4.1428026105
 20
8.5103362927
 11
4.1633221686
 21
8.5103091591
  0
LINE
  5
290
100
AcDbEntity
  8
0
100
AcDbLine
 62
9
  6
CONTINUOUS
 10
17.951834066
 20
9.1789498103
 11
17.9313145079
 21
9.1789769439
  0
LINE
  5
291
100
AcDbEntity
  8
0
100
AcDbLine
 62
7
  6
CONTINUOUS
 10
6.4473312956
 20
8.5646472051
 11
7.5553334067
 21
8.5646430515
  0
LINE
  5
292
100
AcDbEntity
  8
0
100
AcDbLine
 62
7
  6
CONTINUOUS
 10
15.647305381
 20
9.1246388979
 11
14.5393032698
 21
9.1246430515
  0
LWPOLYLINE
  5
293
100
AcDbEntity
  8
0
100
AcDbPolyline
 62
7
  6
CONTINUOUS
 90
3
 70
0
 10
17.9344358324
 20
9.2197772678
 10
17.934207523
 20
9.2197782002
 10
17.9333707089
 20
9.2197770542
  0
LINE
  5
294
100
AcDbEntity
  8
0
100
AcDbLine
 62
7
  6
CONTINUOUS
 10
4.1631331064
 20
9.21976858
 11
4.1607883224
 21
9.219778222
  0
LINE
  5
295
100
AcDbEntity
  8
0
100
AcDbLine
 62
7
  6
CONTINUOUS
 10
17.9329969188
 20
8.4695104147
 11
17.9314218251
 21
8.4695181232
  0
LINE
  5
296
100
AcDbEntity
  8
0
100
AcDbLine
 62
7
  6
CONTINUOUS
 10
4.1631304455
 20
9.2197686045
 11
4.1632148515
 21
9.2197679798
  0
LINE
  5
297
100
AcDbEntity
  8
0
100
AcDbLine
 62
7
  6
CONTINUOUS
 10
17.9349171517
 20
9.219821768
 11
17.9342038955
 21
9.2198281766
  0
LINE
  5
298
100
AcDbEntity
  8
0
100
AcDbLine
 62
7
  6
CONTINUOUS
 10
17.9349011249
 20
9.2197703861
 11
17.9347292105
 21
9.219773929
  0
LWPOLYLINE
  5
299
100
AcDbEntity
  8
0
100
AcDbPolyline
 62
7
  6
CONTINUOUS
 90
4
 70
0
 10
15.6473125563
 20
8.5646472241
 10
16.4663208147
 20
8.5395135722
 10
17.2340930872
 20
8.4943089956
 10
17.9314177043
 20
8.4695181484
  0
LWPOLYLINE
  5
29A
100
AcDbEntity
  8
0
100
AcDbPolyline
 62
7
  6
CONTINUOUS
 90
4
 70
0
 10
6.4473241203
 20
9.1246388789
 10
5.6283158624
 20
9.1497725307
 10
4.86054359
 20
9.1949771074
 10
4.1632189723
 20
9.2197679545
  0
LINE
  5
29B
100
AcDbEntity
  8
0
100
AcDbLine
 62
7
  6
CONTINUOUS
 10
14.5223433251
 20
9.1152430303
 11
14.4312583722
 21
8.9695071058
  0
LINE
  5
29C
100
AcDbEntity
  8
0
100
AcDbLine
 62
9
  6
CONTINUOUS
 10
14.4309617348
 20
8.9386564091
 11
14.5163516191
 21
9.0752802239
  0
LINE
  5
29D
100
AcDbEntity
  8
0
100
AcDbLine
 62
7
  6
CONTINUOUS
 10
4.119315202
 20
9.2083640988
 11
4.1427163958
 21
9.2094208527
  0
LINE
  5
29E
100
AcDbEntity
  8
0
100
AcDbLine
 62
7
  6
CONTINUOUS
 10
4.1358478587
 20
9.2187468099
 11
4.1593544154
 21
9.2198085942
  0
LINE
  5
29F
100
AcDbEntity
  8
0
100
AcDbLine
 62
7
  6
CONTINUOUS
 10
4.1593544154
 20
9.2198085942
 11
4.1597317565
 21
9.2198220621
  0
LWPOLYLINE
  5
2A0
100
AcDbEntity
  8
0
100
AcDbPolyline
 62
7
  6
CONTINUOUS
 90
4
 70
0
 10
7.9727821658
 20
9.7900282737
 10
7.3584324104
 20
9.7916998715
 10
6.7352356674
 20
9.7917003063
 10
6.12185842
 20
9.7900290954
  0
LWPOLYLINE
  5
2A1
100
AcDbEntity
  8
0
100
AcDbPolyline
 62
7
  6
CONTINUOUS
 90
4
 70
0
 10
15.9727808795
 20
9.7900271105
 10
15.3576921625
 20
9.7917062131
 10
14.7344973953
 20
9.7916940932
 10
14.1218594999
 20
9.790029937
  0
LINE
  5
2A2
100
AcDbEntity
  8
0
100
AcDbLine
 62
7
  6
CONTINUOUS
 10
17.9352822441
 20
9.2198086252
 11
17.9349171517
 21
9.219821768
  0
LINE
  5
2A3
100
AcDbEntity
  8
0
100
AcDbLine
 62
7
  6
CONTINUOUS
 10
17.9519202808
 20
9.2094208527
 11
17.9753214746
 21
9.2083640988
  0
LINE
  5
2A4
100
AcDbEntity
  8
0
100
AcDbLine
 62
7
  6
CONTINUOUS
 10
17.9587610651
 20
9.2187482201
 11
17.9352822441
 21
9.2198086252
  0
LINE
  5
2A5
100
AcDbEntity
  8
0
100
AcDbLine
 62
7
  6
CONTINUOUS
 10
14.4282183383
 20
8.730378976
 11
14.4282183383
 21
8.958907127
  0
LINE
  5
2A6
100
AcDbEntity
  8
0
100
AcDbLine
 62
9
  6
CONTINUOUS
 10
14.4309617348
 20
8.9386564091
 11
14.4309617348
 21
8.7506296939
  0
LINE
  5
2A7
100
AcDbEntity
  8
0
100
AcDbLine
 62
9
  6
CONTINUOUS
 10
14.5163516191
 20
8.6140058791
 11
14.5163516191
 21
9.0752802239
  0
LINE
  5
2A8
100
AcDbEntity
  8
0
100
AcDbLine
 62
9
  6
CONTINUOUS
 10
14.5328098473
 20
8.6140058791
 11
14.5328098473
 21
9.0752802239
  0
LWPOLYLINE
  5
2A9
100
AcDbEntity
  8
0
100
AcDbPolyline
 62
7
  6
CONTINUOUS
 90
4
 70
0
 10
14.101934263
 20
9.7701067563
 10
14.1002551827
 20
9.1550192434
 10
14.1002672879
 20
8.5318237562
 10
14.1019314374
 20
7.9191834044
  0
LINE
  5
2AA
100
AcDbEntity
  8
0
100
AcDbLine
 62
7
  6
CONTINUOUS
 10
10.9340243027
 20
-3.5259250414
 11
10.9427954538
 21
-3.4972358988
  0
LINE
  5
2AB
100
AcDbEntity
  8
0
100
AcDbLine
 62
7
  6
CONTINUOUS
 10
11.1518412227
 20
-2.8134779982
 11
11.1606123739
 21
-2.7847888556
  0
LWPOLYLINE
  5
2AC
100
AcDbEntity
  8
0
100
AcDbPolyline
 62
7
  6
CONTINUOUS
 90
5
 70
0
 10
6.1218504919
 20
9.790026856
 10
6.1143400579
 20
9.7885286176
 10
6.1079984274
 20
9.7843715921
 10
6.1036597917
 20
9.7781526045
 10
6.1019345187
 20
9.7701027592
  0
LINE
  5
2AD
100
AcDbEntity
  8
0
100
AcDbLine
 62
7
  6
CONTINUOUS
 10
14.4312583722
 20
8.7197789972
 11
14.522343325
 21
8.5740430727
  0
LINE
  5
2AE
100
AcDbEntity
  8
0
100
AcDbLine
 62
9
  6
CONTINUOUS
 10
14.5163516191
 20
8.6140058791
 11
14.4309617348
 21
8.7506296939
  0
LWPOLYLINE
  5
2AF
100
AcDbEntity
  8
0
100
AcDbPolyline
 62
7
  6
CONTINUOUS
 90
5
 70
0
 10
14.1019337874
 20
7.9191754828
 10
14.1034319549
 20
7.9116649692
 10
14.1075889558
 20
7.9053232536
 10
14.1138079609
 20
7.9009845429
 10
14.1218577359
 20
7.8992592201
  0
LWPOLYLINE
  5
2B0
100
AcDbEntity
  8
0
100
AcDbPolyline
 62
7
  6
CONTINUOUS
 90
3
 70
0
 10
15.9944160797
 20
9.126256743
 10
15.9937872501
 20
9.4349223822
 10
15.9927035639
 20
9.7701018453
  0
LINE
  5
2B1
100
AcDbEntity
  8
0
100
AcDbLine
 62
9
  6
CONTINUOUS
 10
15.6458183487
 20
8.5846470385
 11
15.6458183848
 21
9.1046410717
  0
LWPOLYLINE
  5
2B2
100
AcDbEntity
  8
0
100
AcDbPolyline
 62
7
  6
CONTINUOUS
 90
3
 70
0
 10
15.992703548
 20
7.9191799672
 10
15.9937851053
 20
8.2535592677
 10
15.9943981685
 20
8.553995892
  0
LINE
  5
2B3
100
AcDbEntity
  8
0
100
AcDbLine
 62
7
  6
CONTINUOUS
 10
10.8653981077
 20
-3.4974991407
 11
10.8794822546
 21
-3.4710107129
  0
LINE
  5
2B4
100
AcDbEntity
  8
0
100
AcDbLine
 62
7
  6
CONTINUOUS
 10
11.215154422
 20
-2.8397031841
 11
11.2292385689
 21
-2.8132147563
  0
LINE
  5
2B5
100
AcDbEntity
  8
0
100
AcDbLine
 62
9
  6
CONTINUOUS
 10
18.0883730929
 20
8.7440727088
 11
17.9518340657
 21
8.5103362963
  0
LINE
  5
2B6
100
AcDbEntity
  8
0
100
AcDbLine
 62
9
  6
CONTINUOUS
 10
17.9519202808
 20
8.4798652503
 11
18.0893576152
 21
8.7151394437
  0
LINE
  5
2B7
100
AcDbEntity
  8
0
100
AcDbLine
 62
9
  6
CONTINUOUS
 10
18.0965339834
 20
8.7156771447
 11
18.0962018998
 21
8.7151394437
  0
LINE
  5
2B8
100
AcDbEntity
  8
0
100
AcDbLine
 62
9
  6
CONTINUOUS
 10
17.9753214746
 20
8.4809220042
 11
17.9756216618
 21
8.481397894
  0
LINE
  5
2B9
100
AcDbEntity
  8
0
100
AcDbLine
 62
9
  6
CONTINUOUS
 10
11.4009708278
 20
0.203448794
 11
11.1992078173
 21
0.0016857847
  0
LINE
  5
2BA
100
AcDbEntity
  8
0
100
AcDbLine
 62
9
  6
CONTINUOUS
 10
10.8902756049
 20
-0.307246429
 11
10.6885125958
 21
-0.509009438
  0
LINE
  5
2BB
100
AcDbEntity
  8
0
100
AcDbLine
 62
9
  6
CONTINUOUS
 10
10.6936658488
 20
-0.514162691
 11
10.8954288593
 21
-0.3123996817
  0
LINE
  5
2BC
100
AcDbEntity
  8
0
100
AcDbLine
 62
9
  6
CONTINUOUS
 10
11.2043610717
 20
-0.003467468
 11
11.4061240808
 21
0.198295541
  0
LWPOLYLINE
  5
2BD
100
AcDbEntity
  8
0
100
AcDbPolyline
 62
7
  6
CONTINUOUS
 90
5
 70
0
 10
15.9927013441
 20
9.7701097664
 10
15.9912032126
 20
9.7776200595
 10
15.9870463183
 20
9.7839616701
 10
15.980827465
 20
9.7883003432
 10
15.9727776424
 20
9.7900257201
  0
LWPOLYLINE
  5
2BE
100
AcDbEntity
  8
0
100
AcDbPolyline
 62
7
  6
CONTINUOUS
 90
3
 70
0
 10
18.0965312866
 20
8.7156718813
 10
18.0971796733
 20
8.7170511
 10
18.0983524287
 20
8.7207079369
  0
LINE
  5
2BF
100
AcDbEntity
  8
0
100
AcDbLine
 62
9
  6
CONTINUOUS
 10
18.0962018998
 20
8.7151394437
 11
17.9753214746
 21
8.4809220042
  0
LINE
  5
2C0
100
AcDbEntity
  8
0
100
AcDbLine
 62
7
  6
CONTINUOUS
 10
18.0965347468
 20
8.715678615
 11
17.9756230915
 21
8.4814006643
  0
LWPOLYLINE
  5
2C1
100
AcDbEntity
  8
0
100
AcDbPolyline
 62
7
  6
CONTINUOUS
 90
3
 70
0
 10
18.0990532757
 20
8.9628124594
 10
18.09884144
 20
8.965540255
 10
18.0983858172
 20
8.9684272784
  0
LWPOLYLINE
  5
2C2
100
AcDbEntity
  8
0
100
AcDbPolyline
 62
7
  6
CONTINUOUS
 90
3
 70
0
 10
18.0992922061
 20
8.9545723828
 10
18.099196854
 20
8.9592502689
 10
18.0990532757
 20
8.9628124594
  0
LINE
  5
2C3
100
AcDbEntity
  8
0
100
AcDbLine
 62
7
  6
CONTINUOUS
 10
18.0993390642
 20
8.9491549049
 11
18.0992922061
 21
8.9545723828
  0
LINE
  5
2C4
100
AcDbEntity
  8
0
100
AcDbLine
 62
9
  6
CONTINUOUS
 10
18.0883730929
 20
8.7440727088
 11
18.0883730929
 21
8.9452133942
  0
LINE
  5
2C5
100
AcDbEntity
  8
0
100
AcDbLine
 62
9
  6
CONTINUOUS
 10
18.0911788403
 20
8.9452133942
 11
18.0911788403
 21
8.7440727088
  0
LINE
  5
2C6
100
AcDbEntity
  8
0
100
AcDbLine
 62
9
  6
CONTINUOUS
 10
18.0993358213
 20
8.7440727088
 11
18.0993358213
 21
8.9452133942
  0
LINE
  5
2C7
100
AcDbEntity
  8
0
100
AcDbLine
 62
7
  6
CONTINUOUS
 10
18.0993474033
 20
8.7440727088
 11
18.0993390642
 21
8.9491549049
  0
LWPOLYLINE
  5
2C8
100
AcDbEntity
  8
0
100
AcDbPolyline
 62
7
  6
CONTINUOUS
 90
3
 70
0
 10
18.0992868928
 20
8.7343377227
 10
18.099336819
 20
8.7396592559
 10
18.0993474033
 20
8.7440727088
  0
LINE
  5
2C9
100
AcDbEntity
  8
0
100
AcDbLine
 62
7
  6
CONTINUOUS
 10
18.0991887467
 20
8.7297621026
 11
18.0992868928
 21
8.7343377227
  0
LINE
  5
2CA
100
AcDbEntity
  8
0
100
AcDbLine
 62
7
  6
CONTINUOUS
 10
18.099042711
 20
8.7262876223
 11
18.0991887467
 21
8.7297621026
  0
LWPOLYLINE
  5
2CB
100
AcDbEntity
  8
0
100
AcDbPolyline
 62
7
  6
CONTINUOUS
 90
3
 70
0
 10
18.0983524287
 20
8.7207079369
 10
18.0988256097
 20
8.7236007669
 10
18.099042711
 20
8.7262876223
  0
LINE
  5
2CC
100
AcDbEntity
  8
0
100
AcDbLine
 62
9
  6
CONTINUOUS
 10
17.9756216525
 20
9.207888227
 11
17.9753214746
 21
9.2083640988
  0
LINE
  5
2CD
100
AcDbEntity
  8
0
100
AcDbLine
 62
9
  6
CONTINUOUS
 10
18.0962018998
 20
8.9741466593
 11
18.0965328386
 21
8.9736111744
  0
LINE
  5
2CE
100
AcDbEntity
  8
0
100
AcDbLine
 62
9
  6
CONTINUOUS
 10
17.9518366539
 20
9.178945376
 11
18.0883730929
 21
8.9452133942
  0
LINE
  5
2CF
100
AcDbEntity
  8
0
100
AcDbLine
 62
9
  6
CONTINUOUS
 10
18.0893576152
 20
8.9741466593
 11
17.9519202808
 21
9.2094208527
  0
LWPOLYLINE
  5
2D0
100
AcDbEntity
  8
0
100
AcDbPolyline
 62
7
  6
CONTINUOUS
 90
4
 70
0
 10
17.9756232303
 20
9.2078852329
 10
17.9753127316
 20
9.2084633956
 10
17.9731108985
 20
9.2116405544
 10
17.9704514103
 20
9.214244395
  0
LINE
  5
2D1
100
AcDbEntity
  8
0
100
AcDbLine
 62
9
  6
CONTINUOUS
 10
17.9753214746
 20
9.2083640988
 11
18.0962018998
 21
8.9741466593
  0
LINE
  5
2D2
100
AcDbEntity
  8
0
100
AcDbLine
 62
7
  6
CONTINUOUS
 10
18.0965362711
 20
8.9736045346
 11
17.9756230252
 21
9.2078855673
  0
LINE
  5
2D3
100
AcDbEntity
  8
0
100
AcDbLine
 62
7
  6
CONTINUOUS
 10
18.097223852
 20
8.9721303536
 11
18.0965311108
 21
8.9736145629
  0
LINE
  5
2D4
100
AcDbEntity
  8
0
100
AcDbLine
 62
7
  6
CONTINUOUS
 10
18.0983858172
 20
8.9684272784
 11
18.097223852
 21
8.9721303536
  0
LINE
  5
2D5
100
AcDbEntity
  8
0
100
AcDbLine
 62
7
  6
CONTINUOUS
 10
10.7051761461
 20
-3.3372771791
 11
10.7316645738
 21
-3.3231930322
  0
LINE
  5
2D6
100
AcDbEntity
  8
0
100
AcDbLine
 62
7
  6
CONTINUOUS
 10
11.3629721027
 20
-2.9875208648
 11
11.3894605305
 21
-2.9734367179
  0
LINE
  5
2D7
100
AcDbEntity
  8
0
100
AcDbLine
 62
7
  6
CONTINUOUS
 10
10.6767502453
 20
-3.2686509841
 11
10.705439388
 21
-3.2598798329
  0
LINE
  5
2D8
100
AcDbEntity
  8
0
100
AcDbLine
 62
7
  6
CONTINUOUS
 10
11.3891972885
 20
-3.0508340641
 11
11.4178864312
 21
-3.0420629129
  0
ARC
  5
2D9
100
AcDbEntity
  8
0
100
AcDbCircle
 62
9
  6
CONTINUOUS
 10
-228.1908274628
 20
8.8443006404
 40
236.1994176372
100
AcDbArc
 50
359.7687506228
 51
0.2314157221
  0
ARC
  5
2DA
100
AcDbEntity
  8
0
100
AcDbCircle
 62
9
  6
CONTINUOUS
 10
7.0473182507
 20
-248.2329998972
 40
258.0724071338
100
AcDbArc
 50
89.7833114693
 51
90.2166886567
  0
ARC
  5
2DB
100
AcDbEntity
  8
0
100
AcDbCircle
 62
9
  6
CONTINUOUS
 10
7.0478300884
 20
-227.3762793643
 40
237.1821868756
100
AcDbArc
 50
89.7697495739
 51
90.2304974179
  0
ARC
  5
2DC
100
AcDbEntity
  8
0
100
AcDbCircle
 62
9
  6
CONTINUOUS
 10
7.0473183062
 20
-191.279517235
 40
201.0587323042
100
AcDbArc
 50
89.7391141742
 51
90.2608856049
  0
ARC
  5
2DD
100
AcDbEntity
  8
0
100
AcDbCircle
 62
9
  6
CONTINUOUS
 10
7.0782647442
 20
8.5846168445
 40
0.4768277144
100
AcDbArc
 50
359.0954311382
 51
0.0031490443
  0
ARC
  5
2DE
100
AcDbEntity
  8
0
100
AcDbCircle
 62
9
  6
CONTINUOUS
 10
7.344724659
 20
8.7201253592
 40
0.3204056762
100
AcDbArc
 50
4.2081257288
 51
5.4631391065
  0
ARC
  5
2DF
100
AcDbEntity
  8
0
100
AcDbCircle
 62
9
  6
CONTINUOUS
 10
7.4390144094
 20
8.7268823412
 40
0.2258743704
100
AcDbArc
 50
2.7138830888
 51
4.2538310477
  0
ARC
  5
2E0
100
AcDbEntity
  8
0
100
AcDbCircle
 62
9
  6
CONTINUOUS
 10
6.1589802671
 20
7.9563088992
 40
0.0964733542
100
AcDbArc
 50
222.6128132244
 51
227.3911552291
  0
ARC
  5
2E1
100
AcDbEntity
  8
0
100
AcDbCircle
 62
9
  6
CONTINUOUS
 10
4.1602650013
 20
8.4895498115
 40
0.0200403613
100
AcDbArc
 50
208.8930199299
 51
267.4027642281
  0
ARC
  5
2E2
100
AcDbEntity
  8
0
100
AcDbCircle
 62
7
  6
CONTINUOUS
 10
7.5553333883
 20
8.584643056
 40
0.02
100
AcDbArc
 50
269.9999919671
 51
327.9945969182
  0
ARC
  5
2E3
100
AcDbEntity
  8
0
100
AcDbCircle
 62
7
  6
CONTINUOUS
 10
5.9176567296
 20
7.7149814656
 40
0.02
100
AcDbArc
 50
180.0286610069
 51
269.9713402259
  0
ARC
  5
2E4
100
AcDbEntity
  8
0
100
AcDbCircle
 62
9
  6
CONTINUOUS
 10
7.55428357
 20
8.5828011338
 40
0.0181580835
100
AcDbArc
 50
270.0209269902
 51
273.2186377018
  0
ARC
  5
2E5
100
AcDbEntity
  8
0
100
AcDbCircle
 62
9
  6
CONTINUOUS
 10
10.9685106579
 20
-0.0765492681
 40
0.1070592033
100
AcDbArc
 50
133.0494864062
 51
136.9505138118
  0
ARC
  5
2E6
100
AcDbEntity
  8
0
100
AcDbCircle
 62
9
  6
CONTINUOUS
 10
10.9685106579
 20
-0.2341646289
 40
0.1070592033
100
AcDbArc
 50
223.0494864057
 51
226.9505138101
  0
ARC
  5
2E7
100
AcDbEntity
  8
0
100
AcDbCircle
 62
9
  6
CONTINUOUS
 10
10.7667475943
 20
0.1252137954
 40
0.1070591263
100
AcDbArc
 50
133.0494850032
 51
136.9505152147
  0
ARC
  5
2E8
100
AcDbEntity
  8
0
100
AcDbCircle
 62
9
  6
CONTINUOUS
 10
10.7667475888
 20
-0.435927698
 40
0.1070591185
100
AcDbArc
 50
223.0494848596
 51
226.9505153562
  0
ARC
  5
2E9
100
AcDbEntity
  8
0
100
AcDbCircle
 62
7
  6
CONTINUOUS
 10
10.7078079844
 20
0.1841534054
 40
0.04
100
AcDbArc
 50
90.0
 51
179.9999998702
  0
ARC
  5
2EA
100
AcDbEntity
  8
0
100
AcDbCircle
 62
7
  6
CONTINUOUS
 10
10.7078079844
 20
-0.4948673024
 40
0.04
100
AcDbArc
 50
180.0
 51
269.9999998693
  0
ARC
  5
2EB
100
AcDbEntity
  8
0
100
AcDbCircle
 62
9
  6
CONTINUOUS
 10
10.707811957
 20
-0.5000104699
 40
0.0200098864
100
AcDbArc
 50
225.0123710617
 51
269.9886251421
  0
ARC
  5
2EC
100
AcDbEntity
  8
0
100
AcDbCircle
 62
9
  6
CONTINUOUS
 10
10.702664817
 20
0.1841494326
 40
0.0200098864
100
AcDbArc
 50
135.0123708262
 51
179.9886245868
  0
ARC
  5
2ED
100
AcDbEntity
  8
0
100
AcDbCircle
 62
9
  6
CONTINUOUS
 10
10.7026645845
 20
-0.4948634683
 40
0.0200096463
100
AcDbArc
 50
180.0109783266
 51
224.9878204347
  0
ARC
  5
2EE
100
AcDbEntity
  8
0
100
AcDbCircle
 62
9
  6
CONTINUOUS
 10
10.7078118194
 20
0.1892968064
 40
0.0200096456
100
AcDbArc
 50
90.0109809125
 51
134.9878246571
  0
ARC
  5
2EF
100
AcDbEntity
  8
0
100
AcDbCircle
 62
9
  6
CONTINUOUS
 10
7.9356520237
 20
7.9563058852
 40
0.0964741958
100
AcDbArc
 50
312.6127843987
 51
317.3911942931
  0
ARC
  5
2F0
100
AcDbEntity
  8
0
100
AcDbCircle
 62
7
  6
CONTINUOUS
 10
7.6464183383
 20
8.730378976
 40
0.02
100
AcDbArc
 50
327.9946167887
 51
360.0
  0
ARC
  5
2F1
100
AcDbEntity
  8
0
100
AcDbCircle
 62
7
  6
CONTINUOUS
 10
8.1769799266
 20
7.7149814656
 40
0.02
100
AcDbArc
 50
270.0286597767
 51
359.9713403663
  0
ARC
  5
2F2
100
AcDbEntity
  8
0
100
AcDbCircle
 62
9
  6
CONTINUOUS
 10
-250.033416117
 20
8.8446431379
 40
258.0754987155
100
AcDbArc
 50
359.7833140919
 51
0.2166862638
  0
ARC
  5
2F3
100
AcDbEntity
  8
0
100
AcDbCircle
 62
9
  6
CONTINUOUS
 10
7.0473183312
 20
265.9224117916
 40
258.0725330047
100
AcDbArc
 50
269.7833115029
 51
270.2166887027
  0
ARC
  5
2F4
100
AcDbEntity
  8
0
100
AcDbCircle
 62
9
  6
CONTINUOUS
 10
7.0469800043
 20
244.0773961578
 40
236.1940249751
100
AcDbArc
 50
269.7687442484
 51
270.2314199143
  0
ARC
  5
2F5
100
AcDbEntity
  8
0
100
AcDbCircle
 62
9
  6
CONTINUOUS
 10
-193.0844698374
 20
8.8446429874
 40
201.0663714491
100
AcDbArc
 50
359.7391381981
 51
0.260861462
  0
ARC
  5
2F6
100
AcDbEntity
  8
0
100
AcDbCircle
 62
9
  6
CONTINUOUS
 10
7.0473182132
 20
208.9737635883
 40
201.0637038315
100
AcDbArc
 50
269.7391349641
 51
270.2608647635
  0
ARC
  5
2F7
100
AcDbEntity
  8
0
100
AcDbCircle
 62
9
  6
CONTINUOUS
 10
7.0989366634
 20
9.1048269081
 40
0.4561558321
100
AcDbArc
 50
359.976909029
 51
0.9656562014
  0
ARC
  5
2F8
100
AcDbEntity
  8
0
100
AcDbCircle
 62
9
  6
CONTINUOUS
 10
7.325636373
 20
8.9707814067
 40
0.3395616136
100
AcDbArc
 50
354.5712837027
 51
355.7358754203
  0
ARC
  5
2F9
100
AcDbEntity
  8
0
100
AcDbCircle
 62
9
  6
CONTINUOUS
 10
7.4229424372
 20
8.96338867
 40
0.2419752606
100
AcDbArc
 50
355.7683492411
 51
357.1977999037
  0
ARC
  5
2FA
100
AcDbEntity
  8
0
100
AcDbCircle
 62
7
  6
CONTINUOUS
 10
10.1989287938
 20
18.6931711889
 40
0.21
100
AcDbArc
 50
264.8708339359
 51
5.1291660639
  0
ARC
  5
2FB
100
AcDbEntity
  8
0
100
AcDbCircle
 62
7
  6
CONTINUOUS
 10
10.1989287938
 20
16.9961149141
 40
0.21
100
AcDbArc
 50
354.8708339361
 51
95.1291660641
  0
ARC
  5
2FC
100
AcDbEntity
  8
0
100
AcDbCircle
 62
7
  6
CONTINUOUS
 10
9.8474569312
 20
17.8446430515
 40
0.21
100
AcDbArc
 50
309.8708339358
 51
50.1291660642
  0
ARC
  5
2FD
100
AcDbEntity
  8
0
100
AcDbCircle
 62
9
  6
CONTINUOUS
 10
7.9356558675
 20
9.7329760882
 40
0.0964744577
100
AcDbArc
 50
42.6133714298
 51
47.3917091978
  0
ARC
  5
2FE
100
AcDbEntity
  8
0
100
AcDbCircle
 62
9
  6
CONTINUOUS
 10
6.1589824874
 20
9.7329788381
 40
0.0964736755
100
AcDbArc
 50
132.6109406132
 51
137.3894820221
  0
ARC
  5
2FF
100
AcDbEntity
  8
0
100
AcDbCircle
 62
9
  6
CONTINUOUS
 10
7.5533760486
 20
9.1042595768
 40
0.0207591486
100
AcDbArc
 50
29.8674288002
 51
45.0172175219
  0
ARC
  5
300
100
AcDbEntity
  8
0
100
AcDbCircle
 62
9
  6
CONTINUOUS
 10
4.0165502387
 20
8.964352505
 40
0.0206020958
100
AcDbArc
 50
160.49787409
 51
170.2301651627
  0
ARC
  5
301
100
AcDbEntity
  8
0
100
AcDbCircle
 62
9
  6
CONTINUOUS
 10
4.1602650012
 20
9.1997362915
 40
0.0200403614
100
AcDbArc
 50
92.5972884756
 51
151.1069800019
  0
ARC
  5
302
100
AcDbEntity
  8
0
100
AcDbCircle
 62
7
  6
CONTINUOUS
 10
7.5553333667
 20
9.1046430815
 40
0.02
100
AcDbArc
 50
32.0052952658
 51
89.9999462708
  0
ARC
  5
303
100
AcDbEntity
  8
0
100
AcDbCircle
 62
7
  6
CONTINUOUS
 10
7.6464183383
 20
8.958907127
 40
0.02
100
AcDbArc
 50
0.0
 51
32.0053832082
  0
ARC
  5
304
100
AcDbEntity
  8
0
100
AcDbCircle
 62
7
  6
CONTINUOUS
 10
5.9176567296
 20
9.9743046374
 40
0.02
100
AcDbArc
 50
90.0286597762
 51
179.971338994
  0
ARC
  5
305
100
AcDbEntity
  8
0
100
AcDbCircle
 62
7
  6
CONTINUOUS
 10
8.1769799266
 20
9.9743046374
 40
0.02
100
AcDbArc
 50
0.0286596315
 51
89.971340223
  0
ARC
  5
306
100
AcDbEntity
  8
0
100
AcDbCircle
 62
9
  6
CONTINUOUS
 10
7.5545825673
 20
9.1049683871
 40
0.0193599008
100
AcDbArc
 50
23.3093657814
 51
29.8265107156
  0
ARC
  5
307
100
AcDbEntity
  8
0
100
AcDbCircle
 62
9
  6
CONTINUOUS
 10
7.5542879423
 20
9.1066395885
 40
0.0180034632
100
AcDbArc
 50
86.7675763849
 51
89.9928091523
  0
CIRCLE
  5
308
100
AcDbEntity
  8
0
100
AcDbCircle
 62
7
  6
CONTINUOUS
 10
11.0473183383
 20
-3.1553569485
 40
0.79
  0
CIRCLE
  5
309
100
AcDbEntity
  8
0
100
AcDbCircle
 62
7
  6
CONTINUOUS
 10
11.0473183383
 20
-3.1553569485
 40
0.495
  0
CIRCLE
  5
30A
100
AcDbEntity
  8
0
100
AcDbCircle
 62
9
  6
CONTINUOUS
 10
11.0473183383
 20
-3.1553569485
 40
0.49
  0
CIRCLE
  5
30B
100
AcDbEntity
  8
0
100
AcDbCircle
 62
7
  6
CONTINUOUS
 10
11.0473183383
 20
-3.1553569485
 40
0.47
  0
CIRCLE
  5
30C
100
AcDbEntity
  8
0
100
AcDbCircle
 62
7
  6
CONTINUOUS
 10
11.0473183383
 20
-3.1553569485
 40
0.4625
  0
CIRCLE
  5
30D
100
AcDbEntity
  8
0
100
AcDbCircle
 62
9
  6
CONTINUOUS
 10
11.0473183383
 20
-3.1553569485
 40
0.4272880871
  0
CIRCLE
  5
30E
100
AcDbEntity
  8
0
100
AcDbCircle
 62
9
  6
CONTINUOUS
 10
11.0473183383
 20
-3.1553569485
 40
0.4181683849
  0
CIRCLE
  5
30F
100
AcDbEntity
  8
0
100
AcDbCircle
 62
7
  6
CONTINUOUS
 10
11.0473183383
 20
-3.1553569485
 40
0.396
  0
CIRCLE
  5
310
100
AcDbEntity
  8
0
100
AcDbCircle
 62
7
  6
CONTINUOUS
 10
11.0473183383
 20
-3.1553569485
 40
0.395
  0
CIRCLE
  5
311
100
AcDbEntity
  8
0
100
AcDbCircle
 62
7
  6
CONTINUOUS
 10
11.0473183383
 20
-3.1553569485
 40
0.3875
  0
ARC
  5
312
100
AcDbEntity
  8
0
100
AcDbCircle
 62
7
  6
CONTINUOUS
 10
11.0473183383
 20
-3.1553569485
 40
0.375
100
AcDbArc
 50
196.9999999999
 51
208.0000000005
  0
ARC
  5
313
100
AcDbEntity
  8
0
100
AcDbCircle
 62
7
  6
CONTINUOUS
 10
11.0473183383
 20
-3.1553569485
 40
0.375
100
AcDbArc
 50
106.9999999998
 51
117.9999999998
  0
ARC
  5
314
100
AcDbEntity
  8
0
100
AcDbCircle
 62
7
  6
CONTINUOUS
 10
11.0473183383
 20
-3.1553569485
 40
0.375
100
AcDbArc
 50
152.0000000006
 51
162.9999999998
  0
ARC
  5
315
100
AcDbEntity
  8
0
100
AcDbCircle
 62
7
  6
CONTINUOUS
 10
11.0473183383
 20
-3.1553569485
 40
0.375
100
AcDbArc
 50
286.9999999998
 51
297.9999999998
  0
ARC
  5
316
100
AcDbEntity
  8
0
100
AcDbCircle
 62
7
  6
CONTINUOUS
 10
11.0473183383
 20
-3.1553569485
 40
0.375
100
AcDbArc
 50
16.9999999999
 51
28.0000000005
  0
ARC
  5
317
100
AcDbEntity
  8
0
100
AcDbCircle
 62
7
  6
CONTINUOUS
 10
11.0473183383
 20
-3.1553569485
 40
0.375
100
AcDbArc
 50
241.9999999999
 51
253.0000000001
  0
ARC
  5
318
100
AcDbEntity
  8
0
100
AcDbCircle
 62
7
  6
CONTINUOUS
 10
11.0473183383
 20
-3.1553569485
 40
0.375
100
AcDbArc
 50
332.0000000006
 51
342.9999999998
  0
ARC
  5
319
100
AcDbEntity
  8
0
100
AcDbCircle
 62
7
  6
CONTINUOUS
 10
11.0473183383
 20
-3.1553569485
 40
0.375
100
AcDbArc
 50
61.9999999999
 51
73.0000000001
  0
ARC
  5
31A
100
AcDbEntity
  8
0
100
AcDbCircle
 62
7
  6
CONTINUOUS
 10
11.0473183383
 20
-3.1553569485
 40
0.3575
100
AcDbArc
 50
342.9999999998
 51
16.9999999998
  0
ARC
  5
31B
100
AcDbEntity
  8
0
100
AcDbCircle
 62
7
  6
CONTINUOUS
 10
11.0473183383
 20
-3.1553569485
 40
0.3575
100
AcDbArc
 50
297.9999999998
 51
332.0000000007
  0
ARC
  5
31C
100
AcDbEntity
  8
0
100
AcDbCircle
 62
7
  6
CONTINUOUS
 10
11.0473183383
 20
-3.1553569485
 40
0.3575
100
AcDbArc
 50
253.0000000001
 51
286.9999999998
  0
ARC
  5
31D
100
AcDbEntity
  8
0
100
AcDbCircle
 62
7
  6
CONTINUOUS
 10
11.0473183383
 20
-3.1553569485
 40
0.3575
100
AcDbArc
 50
208.0000000006
 51
241.9999999998
  0
ARC
  5
31E
100
AcDbEntity
  8
0
100
AcDbCircle
 62
7
  6
CONTINUOUS
 10
11.0473183383
 20
-3.1553569485
 40
0.3575
100
AcDbArc
 50
162.9999999998
 51
196.9999999998
  0
ARC
  5
31F
100
AcDbEntity
  8
0
100
AcDbCircle
 62
7
  6
CONTINUOUS
 10
11.0473183383
 20
-3.1553569485
 40
0.3575
100
AcDbArc
 50
117.9999999998
 51
152.0000000007
  0
ARC
  5
320
100
AcDbEntity
  8
0
100
AcDbCircle
 62
7
  6
CONTINUOUS
 10
11.0473183383
 20
-3.1553569485
 40
0.3575
100
AcDbArc
 50
73.0000000001
 51
106.9999999998
  0
ARC
  5
321
100
AcDbEntity
  8
0
100
AcDbCircle
 62
7
  6
CONTINUOUS
 10
11.0473183383
 20
-3.1553569485
 40
0.3575
100
AcDbArc
 50
28.0000000006
 51
61.9999999998
  0
CIRCLE
  5
322
100
AcDbEntity
  8
0
100
AcDbCircle
 62
7
  6
CONTINUOUS
 10
11.0473183383
 20
-3.1553569485
 40
0.3125
  0
CIRCLE
  5
323
100
AcDbEntity
  8
0
100
AcDbCircle
 62
7
  6
CONTINUOUS
 10
11.0473183383
 20
-0.1553569485
 40
0.656
  0
ARC
  5
324
100
AcDbEntity
  8
0
100
AcDbCircle
 62
9
  6
CONTINUOUS
 10
11.0473183383
 20
-0.1553569485
 40
0.4795772124
100
AcDbArc
 50
232.3891710643
 51
307.6054828969
  0
ARC
  5
325
100
AcDbEntity
  8
0
100
AcDbCircle
 62
9
  6
CONTINUOUS
 10
11.0473183383
 20
-0.1553569485
 40
0.4795772124
100
AcDbArc
 50
142.5087533268
 51
217.4949798159
  0
ARC
  5
326
100
AcDbEntity
  8
0
100
AcDbCircle
 62
9
  6
CONTINUOUS
 10
11.0473183383
 20
-0.1553569485
 40
0.4795772124
100
AcDbArc
 50
52.3891710643
 51
127.6054828969
  0
ARC
  5
327
100
AcDbEntity
  8
0
100
AcDbCircle
 62
9
  6
CONTINUOUS
 10
11.0473183383
 20
-0.1553569485
 40
0.4795772124
100
AcDbArc
 50
322.5087533268
 51
37.4949798159
  0
ARC
  5
328
100
AcDbEntity
  8
0
100
AcDbCircle
 62
7
  6
CONTINUOUS
 10
11.0473183383
 20
-0.1553569485
 40
0.46875
100
AcDbArc
 50
54.2562036027
 51
125.7471388933
  0
ARC
  5
329
100
AcDbEntity
  8
0
100
AcDbCircle
 62
7
  6
CONTINUOUS
 10
11.0473183383
 20
-0.1553569485
 40
0.46875
100
AcDbArc
 50
144.18447924
 51
215.8091630001
  0
ARC
  5
32A
100
AcDbEntity
  8
0
100
AcDbCircle
 62
7
  6
CONTINUOUS
 10
11.0473183383
 20
-0.1553569485
 40
0.46875
100
AcDbArc
 50
234.2562036027
 51
305.7471388933
  0
ARC
  5
32B
100
AcDbEntity
  8
0
100
AcDbCircle
 62
7
  6
CONTINUOUS
 10
11.0473183383
 20
-0.1553569485
 40
0.46875
100
AcDbArc
 50
324.18447924
 51
35.8091630001
  0
ARC
  5
32C
100
AcDbEntity
  8
0
100
AcDbCircle
 62
9
  6
CONTINUOUS
 10
11.1261260187
 20
-0.0765492681
 40
0.1070592033
100
AcDbArc
 50
43.0494864062
 51
46.9505138115
  0
ARC
  5
32D
100
AcDbEntity
  8
0
100
AcDbCircle
 62
9
  6
CONTINUOUS
 10
11.1261260187
 20
-0.2341646289
 40
0.1070592033
100
AcDbArc
 50
313.0494864056
 51
316.9505138142
  0
ARC
  5
32E
100
AcDbEntity
  8
0
100
AcDbCircle
 62
9
  6
CONTINUOUS
 10
11.3278890822
 20
-0.4359276925
 40
0.1070591263
100
AcDbArc
 50
313.0494850033
 51
316.9505152165
  0
ARC
  5
32F
100
AcDbEntity
  8
0
100
AcDbCircle
 62
9
  6
CONTINUOUS
 10
11.3278890878
 20
0.125213801
 40
0.1070591184
100
AcDbArc
 50
43.0494848595
 51
46.9505153581
  0
ARC
  5
330
100
AcDbEntity
  8
0
100
AcDbCircle
 62
7
  6
CONTINUOUS
 10
11.3868286922
 20
0.1841534054
 40
0.04
100
AcDbArc
 50
0.0
 51
89.9999998692
  0
ARC
  5
331
100
AcDbEntity
  8
0
100
AcDbCircle
 62
7
  6
CONTINUOUS
 10
11.3868286922
 20
-0.4948673024
 40
0.04
100
AcDbArc
 50
270.0
 51
359.9999998702
  0
ARC
  5
332
100
AcDbEntity
  8
0
100
AcDbCircle
 62
9
  6
CONTINUOUS
 10
11.3868247159
 20
0.1892965743
 40
0.0200098864
100
AcDbArc
 50
45.0123608203
 51
89.9886147212
  0
ARC
  5
333
100
AcDbEntity
  8
0
100
AcDbCircle
 62
9
  6
CONTINUOUS
 10
11.3919718601
 20
-0.4948633281
 40
0.0200098864
100
AcDbArc
 50
315.0123667991
 51
359.9886204195
  0
ARC
  5
334
100
AcDbEntity
  8
0
100
AcDbCircle
 62
9
  6
CONTINUOUS
 10
11.3919720945
 20
0.1841495719
 40
0.020009644
100
AcDbArc
 50
0.010976757
 51
44.9878243122
  0
ARC
  5
335
100
AcDbEntity
  8
0
100
AcDbCircle
 62
9
  6
CONTINUOUS
 10
11.3868248598
 20
-0.5000107064
 40
0.0200096419
100
AcDbArc
 50
270.0109734829
 51
314.9878254482
  0
ARC
  5
336
100
AcDbEntity
  8
0
100
AcDbCircle
 62
9
  6
CONTINUOUS
 10
14.1589808047
 20
7.9563100103
 40
0.0964744515
100
AcDbArc
 50
222.6133712727
 51
227.3917093492
  0
ARC
  5
337
100
AcDbEntity
  8
0
100
AcDbCircle
 62
9
  6
CONTINUOUS
 10
14.541260628
 20
8.5850265262
 40
0.0207591486
100
AcDbArc
 50
209.8674287994
 51
225.017217522
  0
ARC
  5
338
100
AcDbEntity
  8
0
100
AcDbCircle
 62
7
  6
CONTINUOUS
 10
14.5393033099
 20
8.5846430215
 40
0.02
100
AcDbArc
 50
212.0052952658
 51
269.9999462708
  0
ARC
  5
339
100
AcDbEntity
  8
0
100
AcDbCircle
 62
7
  6
CONTINUOUS
 10
14.4482183383
 20
8.730378976
 40
0.02
100
AcDbArc
 50
180.0
 51
212.0053832082
  0
ARC
  5
33A
100
AcDbEntity
  8
0
100
AcDbCircle
 62
7
  6
CONTINUOUS
 10
13.91765675
 20
7.7149814656
 40
0.02
100
AcDbArc
 50
180.0286596315
 51
269.9713402231
  0
ARC
  5
33B
100
AcDbEntity
  8
0
100
AcDbCircle
 62
9
  6
CONTINUOUS
 10
14.5400541093
 20
8.5843177159
 40
0.0193599008
100
AcDbArc
 50
203.3093658147
 51
209.8265107145
  0
ARC
  5
33C
100
AcDbEntity
  8
0
100
AcDbCircle
 62
9
  6
CONTINUOUS
 10
14.5403487343
 20
8.5826465145
 40
0.0180034632
100
AcDbArc
 50
266.7675763851
 51
269.9928091522
  0
ARC
  5
33D
100
AcDbEntity
  8
0
100
AcDbCircle
 62
9
  6
CONTINUOUS
 10
15.0473183454
 20
-248.2331256876
 40
258.0725330038
100
AcDbArc
 50
89.7833115029
 51
90.2166887027
  0
ARC
  5
33E
100
AcDbEntity
  8
0
100
AcDbCircle
 62
9
  6
CONTINUOUS
 10
15.0476566723
 20
-226.3881100548
 40
236.1940249751
100
AcDbArc
 50
89.7687442484
 51
90.2314199143
  0
ARC
  5
33F
100
AcDbEntity
  8
0
100
AcDbCircle
 62
9
  6
CONTINUOUS
 10
15.0473184634
 20
-191.2844774852
 40
201.0637038314
100
AcDbArc
 50
89.7391349641
 51
90.2608647635
  0
ARC
  5
340
100
AcDbEntity
  8
0
100
AcDbCircle
 62
9
  6
CONTINUOUS
 10
14.9957000131
 20
8.5844591949
 40
0.456155832
100
AcDbArc
 50
179.9769090289
 51
180.9656562015
  0
ARC
  5
341
100
AcDbEntity
  8
0
100
AcDbCircle
 62
9
  6
CONTINUOUS
 10
14.7690003036
 20
8.7185046963
 40
0.3395616137
100
AcDbArc
 50
174.5712837028
 51
175.7358754202
  0
ARC
  5
342
100
AcDbEntity
  8
0
100
AcDbCircle
 62
9
  6
CONTINUOUS
 10
14.6716942394
 20
8.725897433
 40
0.2419752606
100
AcDbArc
 50
175.7683492412
 51
177.1977999036
  0
ARC
  5
343
100
AcDbEntity
  8
0
100
AcDbCircle
 62
9
  6
CONTINUOUS
 10
15.9356541935
 20
7.9563072605
 40
0.0964736694
100
AcDbArc
 50
312.6109404623
 51
317.3894821758
  0
ARC
  5
344
100
AcDbEntity
  8
0
100
AcDbCircle
 62
9
  6
CONTINUOUS
 10
18.0780864379
 20
8.724933598
 40
0.0206020958
100
AcDbArc
 50
340.49787409
 51
350.2301651626
  0
ARC
  5
345
100
AcDbEntity
  8
0
100
AcDbCircle
 62
9
  6
CONTINUOUS
 10
17.9343716753
 20
8.4895498116
 40
0.0200403614
100
AcDbArc
 50
272.5972885034
 51
331.1069799698
  0
ARC
  5
346
100
AcDbEntity
  8
0
100
AcDbCircle
 62
7
  6
CONTINUOUS
 10
16.1769799469
 20
7.7149814656
 40
0.02
100
AcDbArc
 50
270.0286597763
 51
359.9713389941
  0
ARC
  5
347
100
AcDbEntity
  8
0
100
AcDbCircle
 62
9
  6
CONTINUOUS
 10
14.1589846485
 20
9.7329802222
 40
0.0964741896
100
AcDbArc
 50
132.612784247
 51
137.3911944485
  0
ARC
  5
348
100
AcDbEntity
  8
0
100
AcDbCircle
 62
7
  6
CONTINUOUS
 10
14.4482183383
 20
8.958907127
 40
0.02
100
AcDbArc
 50
147.9946167887
 51
180.0
  0
ARC
  5
349
100
AcDbEntity
  8
0
100
AcDbCircle
 62
7
  6
CONTINUOUS
 10
13.91765675
 20
9.9743046374
 40
0.02
100
AcDbArc
 50
90.0286597767
 51
179.9713403663
  0
ARC
  5
34A
100
AcDbEntity
  8
0
100
AcDbCircle
 62
7
  6
CONTINUOUS
 10
11.0474569312
 20
17.8446430515
 40
1.0775
100
AcDbArc
 50
143.6026297633
 51
171.3973702366
  0
ARC
  5
34B
100
AcDbEntity
  8
0
100
AcDbCircle
 62
7
  6
CONTINUOUS
 10
11.0474569312
 20
17.8446430515
 40
1.0775
100
AcDbArc
 50
98.6026297633
 51
126.3973702367
  0
ARC
  5
34C
100
AcDbEntity
  8
0
100
AcDbCircle
 62
7
  6
CONTINUOUS
 10
11.0474569312
 20
17.8446430515
 40
1.0775
100
AcDbArc
 50
53.6026297633
 51
81.3973702367
  0
ARC
  5
34D
100
AcDbEntity
  8
0
100
AcDbCircle
 62
7
  6
CONTINUOUS
 10
11.0474569312
 20
17.8446430515
 40
1.0775
100
AcDbArc
 50
8.6026297634
 51
36.3973702367
  0
ARC
  5
34E
100
AcDbEntity
  8
0
100
AcDbCircle
 62
7
  6
CONTINUOUS
 10
11.0474569312
 20
17.8446430515
 40
1.0775
100
AcDbArc
 50
278.6026297634
 51
306.3973702367
  0
ARC
  5
34F
100
AcDbEntity
  8
0
100
AcDbCircle
 62
7
  6
CONTINUOUS
 10
11.0474569312
 20
17.8446430515
 40
1.0775
100
AcDbArc
 50
233.6026297633
 51
261.3973702366
  0
ARC
  5
350
100
AcDbEntity
  8
0
100
AcDbCircle
 62
7
  6
CONTINUOUS
 10
11.0474569312
 20
17.8446430515
 40
1.0775
100
AcDbArc
 50
188.6026297634
 51
216.3973702367
  0
ARC
  5
351
100
AcDbEntity
  8
0
100
AcDbCircle
 62
7
  6
CONTINUOUS
 10
11.0474569312
 20
17.8446430515
 40
1.0775
100
AcDbArc
 50
323.6026297633
 51
351.3973702366
  0
ARC
  5
352
100
AcDbEntity
  8
0
100
AcDbCircle
 62
7
  6
CONTINUOUS
 10
11.0474569312
 20
17.8446430515
 40
1.0125
100
AcDbArc
 50
310.3973230526
 51
319.6117730258
  0
ARC
  5
353
100
AcDbEntity
  8
0
100
AcDbCircle
 62
7
  6
CONTINUOUS
 10
11.0474569312
 20
17.8446430515
 40
1.0125
100
AcDbArc
 50
265.1734325195
 51
274.8507121143
  0
ARC
  5
354
100
AcDbEntity
  8
0
100
AcDbCircle
 62
7
  6
CONTINUOUS
 10
11.0474569312
 20
17.8446430515
 40
1.0125
100
AcDbArc
 50
220.4263419138
 51
229.6352922597
  0
ARC
  5
355
100
AcDbEntity
  8
0
100
AcDbCircle
 62
7
  6
CONTINUOUS
 10
11.0474569312
 20
17.8446430515
 40
1.0125
100
AcDbArc
 50
175.4739221177
 51
184.4873382468
  0
ARC
  5
356
100
AcDbEntity
  8
0
100
AcDbCircle
 62
7
  6
CONTINUOUS
 10
11.0474569312
 20
17.8446430515
 40
1.0125
100
AcDbArc
 50
130.3973230526
 51
139.6117730258
  0
ARC
  5
357
100
AcDbEntity
  8
0
100
AcDbCircle
 62
7
  6
CONTINUOUS
 10
11.0474569312
 20
17.8446430515
 40
1.0125
100
AcDbArc
 50
85.1734325194
 51
94.8507121144
  0
ARC
  5
358
100
AcDbEntity
  8
0
100
AcDbCircle
 62
7
  6
CONTINUOUS
 10
11.0474569312
 20
17.8446430515
 40
1.0125
100
AcDbArc
 50
40.4263419138
 51
49.6352922597
  0
ARC
  5
359
100
AcDbEntity
  8
0
100
AcDbCircle
 62
7
  6
CONTINUOUS
 10
11.0474569312
 20
17.8446430515
 40
1.0125
100
AcDbArc
 50
355.4739221177
 51
4.4873382469
  0
CIRCLE
  5
35A
100
AcDbEntity
  8
0
100
AcDbCircle
 62
7
  6
CONTINUOUS
 10
11.0474569312
 20
17.8446430515
 40
0.935
  0
CIRCLE
  5
35B
100
AcDbEntity
  8
0
100
AcDbCircle
 62
9
  6
CONTINUOUS
 10
11.0474569312
 20
17.8446430515
 40
0.909136433
  0
ARC
  5
35C
100
AcDbEntity
  8
0
100
AcDbCircle
 62
7
  6
CONTINUOUS
 10
11.0474569312
 20
19.0446430515
 40
0.21
100
AcDbArc
 50
219.8708339353
 51
320.1291660647
  0
ARC
  5
35D
100
AcDbEntity
  8
0
100
AcDbCircle
 62
7
  6
CONTINUOUS
 10
11.8959850686
 20
18.6931711889
 40
0.21
100
AcDbArc
 50
174.8708339361
 51
275.129166064
  0
ARC
  5
35E
100
AcDbEntity
  8
0
100
AcDbCircle
 62
7
  6
CONTINUOUS
 10
11.8959850686
 20
16.9961149141
 40
0.21
100
AcDbArc
 50
84.870833936
 51
185.1291660639
  0
ARC
  5
35F
100
AcDbEntity
  8
0
100
AcDbCircle
 62
7
  6
CONTINUOUS
 10
11.0474569312
 20
16.6446430515
 40
0.21
100
AcDbArc
 50
39.8708339359
 51
140.1291660641
  0
ARC
  5
360
100
AcDbEntity
  8
0
100
AcDbCircle
 62
7
  6
CONTINUOUS
 10
12.2474569312
 20
17.8446430515
 40
0.21
100
AcDbArc
 50
129.8708339358
 51
230.1291660642
  0
ARC
  5
361
100
AcDbEntity
  8
0
100
AcDbCircle
 62
9
  6
CONTINUOUS
 10
15.0163719324
 20
9.1046692585
 40
0.4768277144
100
AcDbArc
 50
179.0954311382
 51
180.0031490443
  0
ARC
  5
362
100
AcDbEntity
  8
0
100
AcDbCircle
 62
9
  6
CONTINUOUS
 10
14.7499120176
 20
8.9691607438
 40
0.3204056762
100
AcDbArc
 50
184.2081257284
 51
185.4631391065
  0
ARC
  5
363
100
AcDbEntity
  8
0
100
AcDbCircle
 62
9
  6
CONTINUOUS
 10
14.6556222672
 20
8.9624037618
 40
0.2258743704
100
AcDbArc
 50
182.7138830882
 51
184.2538310472
  0
ARC
  5
364
100
AcDbEntity
  8
0
100
AcDbCircle
 62
9
  6
CONTINUOUS
 10
15.9356564138
 20
9.7329772081
 40
0.0964733482
100
AcDbArc
 50
42.6128130681
 51
47.3911553787
  0
ARC
  5
365
100
AcDbEntity
  8
0
100
AcDbCircle
 62
9
  6
CONTINUOUS
 10
17.9343716753
 20
9.1997362915
 40
0.0200403613
100
AcDbArc
 50
28.8930199355
 51
87.4027642451
  0
ARC
  5
366
100
AcDbEntity
  8
0
100
AcDbCircle
 62
7
  6
CONTINUOUS
 10
14.5393032883
 20
9.104643047
 40
0.02
100
AcDbArc
 50
89.9999919671
 51
147.9945969182
  0
ARC
  5
367
100
AcDbEntity
  8
0
100
AcDbCircle
 62
7
  6
CONTINUOUS
 10
16.1769799469
 20
9.9743046374
 40
0.02
100
AcDbArc
 50
0.0286610069
 51
89.9713402259
  0
ARC
  5
368
100
AcDbEntity
  8
0
100
AcDbCircle
 62
9
  6
CONTINUOUS
 10
14.5403531066
 20
9.1064849692
 40
0.0181580835
100
AcDbArc
 50
90.0209269901
 51
93.2186377018
  0
ARC
  5
369
100
AcDbEntity
  8
0
100
AcDbCircle
 62
9
  6
CONTINUOUS
 10
15.0473184259
 20
265.9222860003
 40
258.0724071339
100
AcDbArc
 50
269.7833114693
 51
270.2166886568
  0
ARC
  5
36A
100
AcDbEntity
  8
0
100
AcDbCircle
 62
9
  6
CONTINUOUS
 10
15.0468065881
 20
245.0655654673
 40
237.1821868755
100
AcDbArc
 50
269.7697495739
 51
270.2304974179
  0
ARC
  5
36B
100
AcDbEntity
  8
0
100
AcDbCircle
 62
9
  6
CONTINUOUS
 10
15.0473183704
 20
208.968803338
 40
201.0587323042
100
AcDbArc
 50
269.7391141742
 51
270.2608856049
  0
ARC
  5
36C
100
AcDbEntity
  8
0
100
AcDbCircle
 62
9
  6
CONTINUOUS
 10
272.1280527942
 20
8.8446429651
 40
258.0754987161
100
AcDbArc
 50
179.7833140919
 51
180.2166862637
  0
ARC
  5
36D
100
AcDbEntity
  8
0
100
AcDbCircle
 62
9
  6
CONTINUOUS
 10
250.2854641393
 20
8.8449854626
 40
236.199417637
100
AcDbArc
 50
179.7687506228
 51
180.2314157221
  0
ARC
  5
36E
100
AcDbEntity
  8
0
100
AcDbCircle
 62
9
  6
CONTINUOUS
 10
215.1791065142
 20
8.8446431156
 40
201.0663714493
100
AcDbArc
 50
179.7391381981
 51
180.260861462
  0
SPLINE
  5
36F
100
AcDbEntity
  8
0
100
AcDbSpline
 62
9
  6
CONTINUOUS
 70
0
 71
3
 72
20
 73
16
 74
0
 42
0.0000001
 43
0.0000001
 44
0.0000000001
 40
0.0
 40
0.0
 40
0.0
 40
0.0
 40
0.1839961191
 40
0.3653068393
 40
0.5353121362
 40
0.6133737405
 40
0.685375429
 40
0.750390744
 40
0.8079765844
 40
0.8578414933
 40
0.899769522
 40
0.9338242635
 40
0.9608257003
 40
0.9821626756
 40
1.0
 40
1.0
 40
1.0
 40
1.0
 10
10.6936661269
 20
-0.5141629774
 30
0.0
 10
10.6928932485
 20
-0.5148845731
 30
0.0
 10
10.6913363798
 20
-0.516293507
 30
0.0
 10
10.6889861405
 20
-0.5182794312
 30
0.0
 10
10.6870350129
 20
-0.5197917315
 30
0.0
 10
10.6855364969
 20
-0.5208587305
 30
0.0
 10
10.6845071967
 20
-0.5215434812
 30
0.0
 10
10.6835519641
 20
-0.5221256889
 30
0.0
 10
10.6826816988
 20
-0.5226009311
 30
0.0
 10
10.6819045725
 20
-0.5229671051
 30
0.0
 10
10.6812271755
 20
-0.523223355
 30
0.0
 10
10.6806516786
 20
-0.5233689784
 30
0.0
 10
10.6801768394
 20
-0.5234083277
 30
0.0
 10
10.6797959156
 20
-0.5233456372
 30
0.0
 10
10.6795967511
 20
-0.5232246115
 30
0.0
 10
10.6795242683
 20
-0.5231521287
 30
0.0
  0
SPLINE
  5
370
100
AcDbEntity
  8
0
100
AcDbSpline
 62
9
  6
CONTINUOUS
 70
0
 71
3
 72
20
 73
16
 74
0
 42
0.0000001
 43
0.0000001
 44
0.0000000001
 40
0.0
 40
0.0
 40
0.0
 40
0.0
 40
0.1839960122
 40
0.3653066572
 40
0.5353119155
 40
0.6133735116
 40
0.6853751978
 40
0.7503905217
 40
0.8079763834
 40
0.8578413192
 40
0.8997693739
 40
0.9338241473
 40
0.9608256264
 40
0.9821626441
 40
1.0
 40
1.0
 40
1.0
 40
1.0
 10
10.6885123449
 20
-0.5090091871
 30
0.0
 10
10.6877907506
 20
-0.5097820673
 30
0.0
 10
10.6863818195
 20
-0.5113389396
 30
0.0
 10
10.6843958997
 20
-0.5136891846
 30
0.0
 10
10.6828836029
 20
-0.5156403169
 30
0.0
 10
10.6818166067
 20
-0.5171388365
 30
0.0
 10
10.6811318578
 20
-0.5181681394
 30
0.0
 10
10.6805496519
 20
-0.5191233745
 30
0.0
 10
10.6800744113
 20
-0.5199936419
 30
0.0
 10
10.6797082387
 20
-0.5207707702
 30
0.0
 10
10.67945199
 20
-0.521448169
 30
0.0
 10
10.6793063679
 20
-0.5220236673
 30
0.0
 10
10.6792670195
 20
-0.5224985077
 30
0.0
 10
10.6793297107
 20
-0.5228794324
 30
0.0
 10
10.6794507369
 20
-0.5230785974
 30
0.0
 10
10.6795232199
 20
-0.5231510804
 30
0.0
  0
SPLINE
  5
371
100
AcDbEntity
  8
0
100
AcDbSpline
 62
9
  6
CONTINUOUS
 70
0
 71
3
 72
20
 73
16
 74
0
 42
0.0000001
 43
0.0000001
 44
0.0000000001
 40
0.0
 40
0.0
 40
0.0
 40
0.0
 40
0.1839960036
 40
0.3653066408
 40
0.5353118909
 40
0.613373486
 40
0.6853751751
 40
0.7503904998
 40
0.8079763582
 40
0.8578412931
 40
0.8997693554
 40
0.933824137
 40
0.9608256183
 40
0.9821626386
 40
1.0
 40
1.0
 40
1.0
 40
1.0
 10
10.6885123486
 20
0.1982952938
 30
0.0
 10
10.6877907545
 20
0.1990681742
 30
0.0
 10
10.6863818238
 20
0.2006250469
 30
0.0
 10
10.6843959045
 20
0.2029752925
 30
0.0
 10
10.6828836083
 20
0.2049264253
 30
0.0
 10
10.6818166125
 20
0.2064249453
 30
0.0
 10
10.6811318639
 20
0.2074542484
 30
0.0
 10
10.6805496582
 20
0.2084094837
 30
0.0
 10
10.6800744178
 20
0.2092797514
 30
0.0
 10
10.6797082455
 20
0.2100568799
 30
0.0
 10
10.6794519969
 20
0.2107342788
 30
0.0
 10
10.6793063748
 20
0.2113097774
 30
0.0
 10
10.6792670266
 20
0.2117846179
 30
0.0
 10
10.679329718
 20
0.2121655426
 30
0.0
 10
10.6794507442
 20
0.2123647076
 30
0.0
 10
10.6795232272
 20
0.2124371907
 30
0.0
  0
SPLINE
  5
372
100
AcDbEntity
  8
0
100
AcDbSpline
 62
9
  6
CONTINUOUS
 70
0
 71
3
 72
20
 73
16
 74
0
 42
0.0000001
 43
0.0000001
 44
0.0000000001
 40
0.0
 40
0.0
 40
0.0
 40
0.0
 40
0.0178373213
 40
0.0391742968
 40
0.0661757342
 40
0.10023047
 40
0.1421584933
 40
0.1920234048
 40
0.2496092495
 40
0.3146245642
 40
0.3866262498
 40
0.4646878545
 40
0.6346931566
 40
0.8160038795
 40
1.0
 40
1.0
 40
1.0
 40
1.0
 10
10.6795242712
 20
0.2124382346
 30
0.0
 10
10.6795967539
 20
0.2125107174
 30
0.0
 10
10.6797959184
 20
0.2126317431
 30
0.0
 10
10.6801768422
 20
0.2126944335
 30
0.0
 10
10.6806516814
 20
0.2126550841
 30
0.0
 10
10.6812271783
 20
0.2125094608
 30
0.0
 10
10.6819045752
 20
0.2122532108
 30
0.0
 10
10.6826817015
 20
0.2118870366
 30
0.0
 10
10.6835519666
 20
0.2114117943
 30
0.0
 10
10.6845071992
 20
0.2108295866
 30
0.0
 10
10.6855364994
 20
0.2101448357
 30
0.0
 10
10.6870350152
 20
0.2090778366
 30
0.0
 10
10.6889861426
 20
0.207565536
 30
0.0
 10
10.6913363818
 20
0.2055796115
 30
0.0
 10
10.6928932503
 20
0.2041706774
 30
0.0
 10
10.6936661286
 20
0.2034490817
 30
0.0
  0
SPLINE
  5
373
100
AcDbEntity
  8
0
100
AcDbSpline
 62
9
  6
CONTINUOUS
 70
0
 71
3
 72
20
 73
16
 74
0
 42
0.0000001
 43
0.0000001
 44
0.0000000001
 40
0.0
 40
0.0
 40
0.0
 40
0.0
 40
0.1839961191
 40
0.3653068393
 40
0.5353121362
 40
0.6133737405
 40
0.6853754291
 40
0.750390744
 40
0.8079765844
 40
0.8578414933
 40
0.899769522
 40
0.9338242635
 40
0.9608257003
 40
0.9821626756
 40
1.0
 40
1.0
 40
1.0
 40
1.0
 10
11.4009705497
 20
0.2034490804
 30
0.0
 10
11.4017434281
 20
0.2041706761
 30
0.0
 10
11.4033002967
 20
0.20557961
 30
0.0
 10
11.4056505361
 20
0.2075655342
 30
0.0
 10
11.4076016637
 20
0.2090778345
 30
0.0
 10
11.4091001796
 20
0.2101448335
 30
0.0
 10
11.4101294799
 20
0.2108295842
 30
0.0
 10
11.4110847125
 20
0.2114117919
 30
0.0
 10
11.4119549777
 20
0.2118870341
 30
0.0
 10
11.412732104
 20
0.212253208
 30
0.0
 10
11.4134095011
 20
0.212509458
 30
0.0
 10
11.413984998
 20
0.2126550814
 30
0.0
 10
11.4144598372
 20
0.2126944307
 30
0.0
 10
11.414840761
 20
0.2126317402
 30
0.0
 10
11.4150399255
 20
0.2125107145
 30
0.0
 10
11.4151124083
 20
0.2124382317
 30
0.0
  0
SPLINE
  5
374
100
AcDbEntity
  8
0
100
AcDbSpline
 62
9
  6
CONTINUOUS
 70
0
 71
3
 72
20
 73
16
 74
0
 42
0.0000001
 43
0.0000001
 44
0.0000000001
 40
0.0
 40
0.0
 40
0.0
 40
0.0
 40
0.1839960122
 40
0.3653066572
 40
0.5353119155
 40
0.6133735116
 40
0.6853751978
 40
0.7503905217
 40
0.8079763834
 40
0.8578413192
 40
0.8997693739
 40
0.9338241473
 40
0.9608256264
 40
0.9821626441
 40
1.0
 40
1.0
 40
1.0
 40
1.0
 10
11.4061243317
 20
0.1982952901
 30
0.0
 10
11.406845926
 20
0.1990681703
 30
0.0
 10
11.4082548571
 20
0.2006250426
 30
0.0
 10
11.4102407769
 20
0.2029752876
 30
0.0
 10
11.4117530736
 20
0.2049264199
 30
0.0
 10
11.4128200698
 20
0.2064249395
 30
0.0
 10
11.4135048187
 20
0.2074542424
 30
0.0
 10
11.4140870246
 20
0.2084094774
 30
0.0
 10
11.4145622653
 20
0.2092797449
 30
0.0
 10
11.4149284379
 20
0.2100568732
 30
0.0
 10
11.4151846865
 20
0.210734272
 30
0.0
 10
11.4153303087
 20
0.2113097703
 30
0.0
 10
11.415369657
 20
0.2117846107
 30
0.0
 10
11.4153069658
 20
0.2121655354
 30
0.0
 10
11.4151859396
 20
0.2123647004
 30
0.0
 10
11.4151134566
 20
0.2124371834
 30
0.0
  0
SPLINE
  5
375
100
AcDbEntity
  8
0
100
AcDbSpline
 62
9
  6
CONTINUOUS
 70
0
 71
3
 72
20
 73
16
 74
0
 42
0.0000001
 43
0.0000001
 44
0.0000000001
 40
0.0
 40
0.0
 40
0.0
 40
0.0
 40
0.1839960037
 40
0.3653066408
 40
0.5353118909
 40
0.613373486
 40
0.6853751751
 40
0.7503904998
 40
0.8079763582
 40
0.8578412931
 40
0.8997693554
 40
0.933824137
 40
0.9608256183
 40
0.9821626386
 40
1.0
 40
1.0
 40
1.0
 40
1.0
 10
11.406124328
 20
-0.5090091908
 30
0.0
 10
11.4068459221
 20
-0.5097820712
 30
0.0
 10
11.4082548528
 20
-0.511338944
 30
0.0
 10
11.410240772
 20
-0.5136891895
 30
0.0
 10
11.4117530682
 20
-0.5156403223
 30
0.0
 10
11.412820064
 20
-0.5171388423
 30
0.0
 10
11.4135048127
 20
-0.5181681455
 30
0.0
 10
11.4140870184
 20
-0.5191233807
 30
0.0
 10
11.4145622587
 20
-0.5199936484
 30
0.0
 10
11.4149284311
 20
-0.5207707769
 30
0.0
 10
11.4151846796
 20
-0.5214481758
 30
0.0
 10
11.4153303017
 20
-0.5220236744
 30
0.0
 10
11.4153696499
 20
-0.5224985149
 30
0.0
 10
11.4153069585
 20
-0.5228794396
 30
0.0
 10
11.4151859323
 20
-0.5230786046
 30
0.0
 10
11.4151134493
 20
-0.5231510877
 30
0.0
  0
SPLINE
  5
376
100
AcDbEntity
  8
0
100
AcDbSpline
 62
9
  6
CONTINUOUS
 70
0
 71
3
 72
20
 73
16
 74
0
 42
0.0000001
 43
0.0000001
 44
0.0000000001
 40
0.0
 40
0.0
 40
0.0
 40
0.0
 40
0.0178373213
 40
0.0391742968
 40
0.0661757342
 40
0.10023047
 40
0.1421584933
 40
0.1920234048
 40
0.2496092495
 40
0.3146245642
 40
0.3866262498
 40
0.4646878545
 40
0.6346931566
 40
0.8160038795
 40
1.0
 40
1.0
 40
1.0
 40
1.0
 10
11.4151124054
 20
-0.5231521316
 30
0.0
 10
11.4150399226
 20
-0.5232246144
 30
0.0
 10
11.4148407581
 20
-0.5233456401
 30
0.0
 10
11.4144598343
 20
-0.5234083305
 30
0.0
 10
11.4139849952
 20
-0.5233689812
 30
0.0
 10
11.4134094983
 20
-0.5232233578
 30
0.0
 10
11.4127321013
 20
-0.5229671078
 30
0.0
 10
11.4119549751
 20
-0.5226009336
 30
0.0
 10
11.4110847099
 20
-0.5221256913
 30
0.0
 10
11.4101294774
 20
-0.5215434836
 30
0.0
 10
11.4091001772
 20
-0.5208587327
 30
0.0
 10
11.4076016614
 20
-0.5197917336
 30
0.0
 10
11.4056505339
 20
-0.518279433
 30
0.0
 10
11.4033002948
 20
-0.5162935086
 30
0.0
 10
11.4017434263
 20
-0.5148845744
 30
0.0
 10
11.400970548
 20
-0.5141629787
 30
0.0
  0
LINE
  5
377
100
AcDbEntity
  8
0
100
AcDbLine
 62
7
  6
CONTINUOUS
 10
4.1604323184
 20
8.4695107364
 11
4.1617703477
 21
8.4695112363
  0
LINE
  5
378
100
AcDbEntity
  8
0
100
AcDbLine
 62
7
  6
CONTINUOUS
 10
4.1617703477
 20
8.4695112363
 11
4.1632148552
 21
8.4695181339
  0
LINE
  5
379
100
AcDbEntity
  8
0
100
AcDbLine
 62
7
  6
CONTINUOUS
 10
4.1409992515
 20
9.2183055562
 11
4.1594257208
 21
9.216504278
  0
LINE
  5
37A
100
AcDbEntity
  8
0
100
AcDbLine
 62
7
  6
CONTINUOUS
 10
4.1632148508
 20
9.2197679692
 11
4.1604323159
 21
9.2197753667
  0
SPLINE
  5
37B
100
AcDbEntity
  8
0
100
AcDbSpline
 62
7
  6
CONTINUOUS
 70
0
 71
3
 72
9
 73
5
 74
0
 42
0.0000001
 43
0.0000001
 44
0.0000000001
 40
0.0
 40
0.0
 40
0.0
 40
0.0
 40
0.5
 40
1.0
 40
1.0
 40
1.0
 40
1.0
 10
8.1969799241
 20
7.7149714615
 30
0.0
 10
8.1971682594
 20
8.09148777
 30
0.0
 10
8.1974179243
 20
8.8446430515
 30
0.0
 10
8.1971682594
 20
9.597798333
 30
0.0
 10
8.1969799241
 20
9.9743146415
 30
0.0
  0
SPLINE
  5
37C
100
AcDbEntity
  8
0
100
AcDbSpline
 62
7
  6
CONTINUOUS
 70
0
 71
3
 72
9
 73
5
 74
0
 42
0.0000001
 43
0.0000001
 44
0.0000000001
 40
0.0
 40
0.0
 40
0.0
 40
0.0
 40
0.4999999987
 40
1.0
 40
1.0
 40
1.0
 40
1.0
 10
8.1769899307
 20
9.9943046349
 30
0.0
 10
7.8004736233
 20
9.9944929712
 30
0.0
 10
7.04731834
 20
9.9947426397
 30
0.0
 10
6.2941630422
 20
9.9944929712
 30
0.0
 10
5.9176467255
 20
9.9943046349
 30
0.0
  0
LINE
  5
37D
100
AcDbEntity
  8
0
100
AcDbLine
 62
7
  6
CONTINUOUS
 10
5.8973682938
 20
8.5477849639
 11
5.8976567321
 21
7.714971461
  0
LINE
  5
37E
100
AcDbEntity
  8
0
100
AcDbLine
 62
7
  6
CONTINUOUS
 10
5.8976567321
 20
9.974314642
 11
5.8973682961
 21
9.1415156877
  0
SPLINE
  5
37F
100
AcDbEntity
  8
0
100
AcDbSpline
 62
7
  6
CONTINUOUS
 70
0
 71
3
 72
9
 73
5
 74
0
 42
0.0000001
 43
0.0000001
 44
0.0000000001
 40
0.0
 40
0.0
 40
0.0
 40
0.0
 40
0.5000000013
 40
1.0
 40
1.0
 40
1.0
 40
1.0
 10
5.9176467255
 20
7.6949814681
 30
0.0
 10
6.2941630422
 20
7.6947931318
 30
0.0
 10
7.04731834
 20
7.6945434632
 30
0.0
 10
7.8004736233
 20
7.6947931318
 30
0.0
 10
8.1769899307
 20
7.6949814681
 30
0.0
  0
SPLINE
  5
380
100
AcDbEntity
  8
0
100
AcDbSpline
 62
9
  6
CONTINUOUS
 70
0
 71
3
 72
19
 73
15
 74
0
 42
0.0000001
 43
0.0000001
 44
0.0000000001
 40
0.0
 40
0.0
 40
0.0
 40
0.0
 40
0.0626938329
 40
0.1253881289
 40
0.188077876
 40
0.2507594933
 40
0.3134290369
 40
0.3760818822
 40
0.5013166605
 40
0.5638856593
 40
0.6264115989
 40
0.7512937412
 40
0.8758647575
 40
1.0
 40
1.0
 40
1.0
 40
1.0
 10
6.448818315
 20
8.5846470385
 30
0.0
 10
6.4010718841
 20
8.5849422739
 30
0.0
 10
6.3055725366
 20
8.5847501494
 30
0.0
 10
6.162348353
 20
8.5824182855
 30
0.0
 10
6.0191741508
 20
8.5783052591
 30
0.0
 10
5.8760723911
 20
8.5726523373
 30
0.0
 10
5.7330543935
 20
8.5657509476
 30
0.0
 10
5.5425173706
 20
8.5552863229
 30
0.0
 10
5.352127605
 20
8.543605288
 30
0.0
 10
5.1618540453
 20
8.5316319948
 30
0.0
 10
4.9718348299
 20
8.5198962026
 30
0.0
 10
4.734612501
 20
8.5063957408
 30
0.0
 10
4.4503387913
 20
8.4941923815
 30
0.0
 10
4.2609440504
 20
8.4901217555
 30
0.0
 10
4.166405428
 20
8.4894731587
 30
0.0
  0
SPLINE
  5
381
100
AcDbEntity
  8
0
100
AcDbSpline
 62
9
  6
CONTINUOUS
 70
0
 71
3
 72
9
 73
5
 74
0
 42
0.0000001
 43
0.0000001
 44
0.0000000001
 40
0.0
 40
0.0
 40
0.0
 40
0.0
 40
0.2512856209
 40
1.0
 40
1.0
 40
1.0
 40
1.0
 10
4.166405423
 20
8.4894731572
 30
0.0
 10
4.1659109719
 20
8.4911700428
 30
0.0
 10
4.1641628567
 20
8.4979834283
 30
0.0
 10
4.1633283677
 20
8.5050429665
 30
0.0
 10
4.1633221634
 20
8.5103091619
 30
0.0
  0
LINE
  5
382
100
AcDbEntity
  8
0
100
AcDbLine
 62
9
  6
CONTINUOUS
 10
4.1428183572
 20
8.5103407446
 11
4.1428326426
 21
8.8446430384
  0
SPLINE
  5
383
100
AcDbEntity
  8
0
100
AcDbSpline
 62
9
  6
CONTINUOUS
 70
0
 71
3
 72
9
 73
5
 74
0
 42
0.0000001
 43
0.0000001
 44
0.0000000001
 40
0.0
 40
0.0
 40
0.0
 40
0.0
 40
0.4980743903
 40
1.0
 40
1.0
 40
1.0
 40
1.0
 10
4.1445696811
 20
8.4838954103
 30
0.0
 10
4.1435682308
 20
8.4881947065
 30
0.0
 10
4.1422419398
 20
8.4970004008
 30
0.0
 10
4.1423621535
 20
8.5059096309
 30
0.0
 10
4.1428026109
 20
8.5103362963
 30
0.0
  0
SPLINE
  5
384
100
AcDbEntity
  8
0
100
AcDbSpline
 62
9
  6
CONTINUOUS
 70
0
 71
3
 72
14
 73
10
 74
0
 42
0.0000001
 43
0.0000001
 44
0.0000000001
 40
0.0
 40
0.0
 40
0.0
 40
0.0
 40
0.2490241316
 40
0.376561768
 40
0.5042204787
 40
0.6309491055
 40
0.7562364935
 40
0.8795700271
 40
1.0
 40
1.0
 40
1.0
 40
1.0
 10
4.119315202
 20
8.4809220039
 30
0.0
 10
4.1201297419
 20
8.4794411873
 30
0.0
 10
4.1216793459
 20
8.4773628875
 30
0.0
 10
4.1241880544
 20
8.4750284788
 30
0.0
 10
4.1262956877
 20
8.4735061984
 30
0.0
 10
4.1285740825
 20
8.4722856565
 30
0.0
 10
4.1309697694
 20
8.4713979282
 30
0.0
 10
4.1334137868
 20
8.4708244702
 30
0.0
 10
4.1350624696
 20
8.4706402709
 30
0.0
 10
4.135878717
 20
8.4705983238
 30
0.0
  0
SPLINE
  5
385
100
AcDbEntity
  8
0
100
AcDbSpline
 62
9
  6
CONTINUOUS
 70
0
 71
3
 72
14
 73
10
 74
0
 42
0.0000001
 43
0.0000001
 44
0.0000000001
 40
0.0
 40
0.0
 40
0.0
 40
0.0
 40
0.0533583505
 40
0.1347561271
 40
0.2441822809
 40
0.3773109455
 40
0.5280793846
 40
0.6878111938
 40
1.0
 40
1.0
 40
1.0
 40
1.0
 10
4.1445697021
 20
8.4838953949
 30
0.0
 10
4.1449687152
 20
8.4839361399
 30
0.0
 10
4.1459693202
 20
8.4841011451
 30
0.0
 10
4.1477676535
 20
8.4844675972
 30
0.0
 10
4.1501403974
 20
8.4850168722
 30
0.0
 10
4.1530096464
 20
8.4857301594
 30
0.0
 10
4.1562347276
 20
8.486578594
 30
0.0
 10
4.1607488706
 20
8.4878161783
 30
0.0
 10
4.1641568744
 20
8.4888016426
 30
0.0
 10
4.1664054329
 20
8.4894731418
 30
0.0
  0
LINE
  5
386
100
AcDbEntity
  8
0
100
AcDbLine
 62
9
  6
CONTINUOUS
 10
7.9727767489
 20
9.7900239578
 11
7.9628020149
 21
9.7771945208
  0
SPLINE
  5
387
100
AcDbEntity
  8
0
100
AcDbSpline
 62
9
  6
CONTINUOUS
 70
0
 71
3
 72
12
 73
8
 74
0
 42
0.0000001
 43
0.0000001
 44
0.0000000001
 40
0.0
 40
0.0
 40
0.0
 40
0.0
 40
0.1026695231
 40
0.2051855025
 40
0.4251378343
 40
0.6858978776
 40
1.0
 40
1.0
 40
1.0
 40
1.0
 10
4.1427163958
 20
8.4798652503
 30
0.0
 10
4.1426635983
 20
8.4800169197
 30
0.0
 10
4.1425895308
 20
8.4803322169
 30
0.0
 10
4.1425807828
 20
8.4810020017
 30
0.0
 10
4.1428593973
 20
8.4818934716
 30
0.0
 10
4.143564606
 20
8.4829293333
 30
0.0
 10
4.1442027331
 20
8.4835686914
 30
0.0
 10
4.1445696811
 20
8.4838954103
 30
0.0
  0
SPLINE
  5
388
100
AcDbEntity
  8
0
100
AcDbSpline
 62
9
  6
CONTINUOUS
 70
0
 71
3
 72
14
 73
10
 74
0
 42
0.0000001
 43
0.0000001
 44
0.0000000001
 40
0.0
 40
0.0
 40
0.0
 40
0.0
 40
0.0524074408
 40
0.1230069375
 40
0.2143115446
 40
0.3280434269
 40
0.4648045075
 40
0.62395238
 40
1.0
 40
1.0
 40
1.0
 40
1.0
 10
7.6633783044
 20
8.7197789972
 30
0.0
 10
7.6635447683
 20
8.7200453424
 30
0.0
 10
7.6638430365
 20
8.7207264953
 30
0.0
 10
7.6641786229
 20
8.7219680016
 30
0.0
 10
7.6644536254
 20
8.7235990957
 30
0.0
 10
7.664657807
 20
8.725638242
 30
0.0
 10
7.6647834761
 20
8.728090857
 30
0.0
 10
7.6648394848
 20
8.7321182239
 30
0.0
 10
7.6647411336
 20
8.7353259184
 30
0.0
 10
7.6646354461
 20
8.7375771507
 30
0.0
  0
SPLINE
  5
389
100
AcDbEntity
  8
0
100
AcDbSpline
 62
9
  6
CONTINUOUS
 70
0
 71
3
 72
9
 73
5
 74
0
 42
0.0000001
 43
0.0000001
 44
0.0000000001
 40
0.0
 40
0.0
 40
0.0
 40
0.0
 40
0.4996749232
 40
1.0
 40
1.0
 40
1.0
 40
1.0
 10
7.5723623694
 20
9.1126289617
 30
0.0
 10
7.5747581865
 20
9.1067548751
 30
0.0
 10
7.5783180137
 20
9.0944504613
 30
0.0
 10
7.5788838844
 20
9.0816040706
 30
0.0
 10
7.5782850575
 20
9.0752802239
 30
0.0
  0
SPLINE
  5
38A
100
AcDbEntity
  8
0
100
AcDbSpline
 62
9
  6
CONTINUOUS
 70
0
 71
3
 72
9
 73
5
 74
0
 42
0.0000001
 43
0.0000001
 44
0.0000000001
 40
0.0
 40
0.0
 40
0.0
 40
0.0
 40
0.2443688787
 40
1.0
 40
1.0
 40
1.0
 40
1.0
 10
7.5553030948
 20
9.1246144084
 30
0.0
 10
7.5558396179
 20
9.1245842981
 30
0.0
 10
7.5580288995
 20
9.1243658514
 30
0.0
 10
7.5601806237
 20
9.1237807532
 30
0.0
 10
7.561718924
 20
9.123152535
 30
0.0
  0
SPLINE
  5
38B
100
AcDbEntity
  8
0
100
AcDbSpline
 62
9
  6
CONTINUOUS
 70
0
 71
3
 72
9
 73
5
 74
0
 42
0.0000001
 43
0.0000001
 44
0.0000000001
 40
0.0
 40
0.0
 40
0.0
 40
0.0
 40
0.4993326381
 40
1.0
 40
1.0
 40
1.0
 40
1.0
 10
7.561718924
 20
9.123152535
 30
0.0
 10
7.5628965271
 20
9.12267162
 30
0.0
 10
7.5651710975
 20
9.1214813878
 30
0.0
 10
7.5671481201
 20
9.1198441829
 30
0.0
 10
7.5680505716
 20
9.1189429219
 30
0.0
  0
LINE
  5
38C
100
AcDbEntity
  8
0
100
AcDbLine
 62
9
  6
CONTINUOUS
 10
7.5723623459
 20
9.1126290149
 11
7.555092437
 21
9.1046430948
  0
SPLINE
  5
38D
100
AcDbEntity
  8
0
100
AcDbSpline
 62
9
  6
CONTINUOUS
 70
0
 71
3
 72
16
 73
12
 74
0
 42
0.0000001
 43
0.0000001
 44
0.0000000001
 40
0.0
 40
0.0
 40
0.0
 40
0.0
 40
0.0078847418
 40
0.0218641172
 40
0.0723239642
 40
0.1537422247
 40
0.2659136437
 40
0.4081959895
 40
0.5791140805
 40
0.7769572409
 40
1.0
 40
1.0
 40
1.0
 40
1.0
 10
7.5542902015
 20
9.1246430544
 30
0.0
 10
7.5543051883
 20
9.124643055
 30
0.0
 10
7.5543412162
 20
9.1246117538
 30
0.0
 10
7.5543950711
 20
9.1244877714
 30
0.0
 10
7.5544604182
 20
9.1242143348
 30
0.0
 10
7.5545297813
 20
9.1237573391
 30
0.0
 10
7.554600326
 20
9.1231219453
 30
0.0
 10
7.5546682735
 20
9.1223165329
 30
0.0
 10
7.5547335666
 20
9.1213472363
 30
0.0
 10
7.5547951028
 20
9.1202240758
 30
0.0
 10
7.55483116
 20
9.1194248779
 30
0.0
 10
7.5548486803
 20
9.1190012962
 30
0.0
  0
LINE
  5
38E
100
AcDbEntity
  8
0
100
AcDbLine
 62
9
  6
CONTINUOUS
 10
7.5548486803
 20
9.1190012962
 11
7.5550277107
 21
9.1125145399
  0
LINE
  5
38F
100
AcDbEntity
  8
0
100
AcDbLine
 62
9
  6
CONTINUOUS
 10
7.5550924561
 20
9.1046430475
 11
6.4502665823
 21
9.1046410443
  0
SPLINE
  5
390
100
AcDbEntity
  8
0
100
AcDbSpline
 62
7
  6
CONTINUOUS
 70
0
 71
3
 72
15
 73
11
 74
0
 42
0.0000001
 43
0.0000001
 44
0.0000000001
 40
0.0
 40
0.0
 40
0.0
 40
0.0
 40
0.0283141255
 40
0.0514487178
 40
0.0816280586
 40
0.119101286
 40
0.1639568701
 40
0.2758370824
 40
0.5857217001
 40
1.0
 40
1.0
 40
1.0
 40
1.0
 10
6.4488182645
 20
9.1246430512
 30
0.0
 10
6.4488751138
 20
9.1246431327
 30
0.0
 10
6.4489619916
 20
9.124555102
 30
0.0
 10
6.4490366169
 20
9.1244154276
 30
0.0
 10
6.4491061781
 20
9.1242444943
 30
0.0
 10
6.4491734135
 20
9.1240294246
 30
0.0
 10
6.449270739
 20
9.1236513737
 30
0.0
 10
6.4494481886
 20
9.1227310616
 30
0.0
 10
6.4496536149
 20
9.1210636676
 30
0.0
 10
6.4497760577
 20
9.1196148431
 30
0.0
 10
6.4498357281
 20
9.1187851954
 30
0.0
  0
SPLINE
  5
391
100
AcDbEntity
  8
0
100
AcDbSpline
 62
7
  6
CONTINUOUS
 70
0
 71
3
 72
10
 73
6
 74
0
 42
0.0000001
 43
0.0000001
 44
0.0000000001
 40
0.0
 40
0.0
 40
0.0
 40
0.0
 40
0.2144374892
 40
0.4590623621
 40
1.0
 40
1.0
 40
1.0
 40
1.0
 10
6.4498357281
 20
9.1187851954
 30
0.0
 10
6.4499082893
 20
9.1177763151
 30
0.0
 10
6.4500318526
 20
9.1156142275
 30
0.0
 10
6.4502088017
 20
9.1109004711
 30
0.0
 10
6.4502574853
 20
9.1071945883
 30
0.0
 10
6.4502571492
 20
9.1046430241
 30
0.0
  0
LINE
  5
392
100
AcDbEntity
  8
0
100
AcDbLine
 62
9
  6
CONTINUOUS
 10
6.4502571492
 20
9.1046430241
 11
6.4488183174
 21
9.1046390645
  0
LINE
  5
393
100
AcDbEntity
  8
0
100
AcDbLine
 62
9
  6
CONTINUOUS
 10
7.9728906711
 20
7.8993177783
 11
8.0009807115
 21
7.8852997023
  0
SPLINE
  5
394
100
AcDbEntity
  8
0
100
AcDbSpline
 62
9
  6
CONTINUOUS
 70
0
 71
3
 72
14
 73
10
 74
0
 42
0.0000001
 43
0.0000001
 44
0.0000000001
 40
0.0
 40
0.0
 40
0.0
 40
0.0
 40
0.2490001568
 40
0.3765256193
 40
0.5041771382
 40
0.6309045563
 40
0.7561952817
 40
0.8795416043
 40
1.0
 40
1.0
 40
1.0
 40
1.0
 10
4.1193152021
 20
9.2083640991
 30
0.0
 10
4.1201285592
 20
9.2098427654
 30
0.0
 10
4.1216754551
 20
9.2119182628
 30
0.0
 10
4.12417951
 20
9.2142504009
 30
0.0
 10
4.1262831912
 20
9.2157718401
 30
0.0
 10
4.1285573397
 20
9.2169927601
 30
0.0
 10
4.1309489549
 20
9.2178817659
 30
0.0
 10
4.1333892933
 20
9.2184572709
 30
0.0
 10
4.1350357731
 20
9.2186433285
 30
0.0
 10
4.1358510483
 20
9.2186863384
 30
0.0
  0
SPLINE
  5
395
100
AcDbEntity
  8
0
100
AcDbSpline
 62
9
  6
CONTINUOUS
 70
0
 71
3
 72
12
 73
8
 74
0
 42
0.0000001
 43
0.0000001
 44
0.0000000001
 40
0.0
 40
0.0
 40
0.0
 40
0.0
 40
0.3140952738
 40
0.5748333149
 40
0.7948011734
 40
0.8973377262
 40
1.0
 40
1.0
 40
1.0
 40
1.0
 10
4.1445696826
 20
9.2053907073
 30
0.0
 10
4.1442027817
 20
9.2057174704
 30
0.0
 10
4.1435646414
 20
9.2063567366
 30
0.0
 10
4.1428592457
 20
9.2073924824
 30
0.0
 10
4.1425807139
 20
9.2082840369
 30
0.0
 10
4.1425895606
 20
9.2089538674
 30
0.0
 10
4.142663612
 20
9.2092691888
 30
0.0
 10
4.1427163958
 20
9.2094208527
 30
0.0
  0
SPLINE
  5
396
100
AcDbEntity
  8
0
100
AcDbSpline
 62
9
  6
CONTINUOUS
 70
0
 71
3
 72
14
 73
10
 74
0
 42
0.0000001
 43
0.0000001
 44
0.0000000001
 40
0.0
 40
0.0
 40
0.0
 40
0.0
 40
0.3121882814
 40
0.4719198528
 40
0.622688154
 40
0.7558168231
 40
0.8652431451
 40
0.9466412363
 40
1.0
 40
1.0
 40
1.0
 40
1.0
 10
4.1664054165
 20
9.1998129232
 30
0.0
 10
4.1641568633
 20
9.2004844196
 30
0.0
 10
4.1607488674
 20
9.2014698799
 30
0.0
 10
4.156234734
 20
9.2027074596
 30
0.0
 10
4.1530096578
 20
9.2035558918
 30
0.0
 10
4.1501404108
 20
9.2042691776
 30
0.0
 10
4.1477676651
 20
9.2048184526
 30
0.0
 10
4.1459693267
 20
9.2051849061
 30
0.0
 10
4.1449687173
 20
9.2053499125
 30
0.0
 10
4.1445697015
 20
9.2053906587
 30
0.0
  0
SPLINE
  5
397
100
AcDbEntity
  8
0
100
AcDbSpline
 62
9
  6
CONTINUOUS
 70
0
 71
3
 72
14
 73
10
 74
0
 42
0.0000001
 43
0.0000001
 44
0.0000000001
 40
0.0
 40
0.0
 40
0.0
 40
0.0
 40
0.2452391039
 40
0.3724518585
 40
0.5002210727
 40
0.6274736544
 40
0.7538100559
 40
0.878435294
 40
1.0
 40
1.0
 40
1.0
 40
1.0
 10
4.1445696922
 20
9.205390658
 30
0.0
 10
4.1450698742
 20
9.2071636967
 30
0.0
 10
4.1462351081
 20
9.2097576537
 30
0.0
 10
4.1484096048
 20
9.2128301531
 30
0.0
 10
4.1503838342
 20
9.2149308012
 30
0.0
 10
4.1526566572
 20
9.2166946911
 30
0.0
 10
4.155158427
 20
9.2180645931
 30
0.0
 10
4.1577880651
 20
9.219046646
 30
0.0
 10
4.159600959
 20
9.2194475163
 30
0.0
 10
4.1605045735
 20
9.2195794548
 30
0.0
  0
LINE
  5
398
100
AcDbEntity
  8
0
100
AcDbLine
 62
9
  6
CONTINUOUS
 10
4.1605045735
 20
9.2195794548
 11
4.1631304577
 21
9.2197685681
  0
SPLINE
  5
399
100
AcDbEntity
  8
0
100
AcDbSpline
 62
9
  6
CONTINUOUS
 70
0
 71
3
 72
19
 73
15
 74
0
 42
0.0000001
 43
0.0000001
 44
0.0000000001
 40
0.0
 40
0.0
 40
0.0
 40
0.0
 40
0.1784123425
 40
0.3597487155
 40
0.533594489
 40
0.6886167286
 40
0.7556717385
 40
0.8147505413
 40
0.8654616428
 40
0.9074701643
 40
0.9407328022
 40
0.9661123798
 40
0.9850792508
 40
1.0
 40
1.0
 40
1.0
 40
1.0
 10
4.1664054371
 20
9.1998129232
 30
0.0
 10
4.1664163898
 20
9.2010427933
 30
0.0
 10
4.1663994605
 20
9.2035231723
 30
0.0
 10
4.1662564278
 20
9.2071996462
 30
0.0
 10
4.1659810569
 20
9.210706875
 30
0.0
 10
4.165644872
 20
9.2134172083
 30
0.0
 10
4.1653031798
 20
9.2153255288
 30
0.0
 10
4.1650377262
 20
9.216515837
 30
0.0
 10
4.1647568348
 20
9.217524519
 30
0.0
 10
4.1644661158
 20
9.2183438837
 30
0.0
 10
4.164167592
 20
9.2189723349
 30
0.0
 10
4.1638644284
 20
9.2194165653
 30
0.0
 10
4.1635553507
 20
9.2196940023
 30
0.0
 10
4.1633217721
 20
9.2197669373
 30
0.0
 10
4.1632189182
 20
9.2197679548
 30
0.0
  0
SPLINE
  5
39A
100
AcDbEntity
  8
0
100
AcDbSpline
 62
9
  6
CONTINUOUS
 70
0
 71
3
 72
21
 73
17
 74
0
 42
0.0000001
 43
0.0000001
 44
0.0000000001
 40
0.0
 40
0.0
 40
0.0
 40
0.0
 40
0.0626937008
 40
0.125387854
 40
0.1880774531
 40
0.2507589407
 40
0.3134283266
 40
0.3760810512
 40
0.5013155759
 40
0.5638844251
 40
0.6264102554
 40
0.6888833419
 40
0.7512925437
 40
0.8136244873
 40
0.8758646534
 40
1.0
 40
1.0
 40
1.0
 40
1.0
 10
6.448818338
 20
9.1046390646
 30
0.0
 10
6.4010719142
 20
9.1043462234
 30
0.0
 10
6.3055726591
 20
9.104539776
 30
0.0
 10
6.1623484925
 20
9.1068665167
 30
0.0
 10
6.0191742178
 20
9.1109747439
 30
0.0
 10
5.8760726208
 20
9.1166299542
 30
0.0
 10
5.733055007
 20
9.1235377705
 30
0.0
 10
5.5425182999
 20
9.13400606
 30
0.0
 10
5.352128051
 20
9.1456782317
 30
0.0
 10
5.1618547835
 20
9.1576538074
 30
0.0
 10
5.0192752728
 20
9.1664588094
 30
0.0
 10
4.876789433
 20
9.1748012033
 30
0.0
 10
4.7344097154
 20
9.182402942
 30
0.0
 10
4.5921565911
 20
9.1890053801
 30
0.0
 10
4.4028745135
 20
9.196117473
 30
0.0
 10
4.2609442346
 20
9.1991555986
 30
0.0
 10
4.1664054374
 20
9.1998129587
 30
0.0
  0
SPLINE
  5
39B
100
AcDbEntity
  8
0
100
AcDbSpline
 62
9
  6
CONTINUOUS
 70
0
 71
3
 72
9
 73
5
 74
0
 42
0.0000001
 43
0.0000001
 44
0.0000000001
 40
0.0
 40
0.0
 40
0.0
 40
0.0
 40
0.2490338764
 40
1.0
 40
1.0
 40
1.0
 40
1.0
 10
4.1633221607
 20
9.1789769411
 30
0.0
 10
4.1633242255
 20
9.1807287514
 30
0.0
 10
4.1636063092
 20
9.1877616241
 30
0.0
 10
4.1649276133
 20
9.1947412613
 30
0.0
 10
4.1664054249
 20
9.1998129609
 30
0.0
  0
LINE
  5
39C
100
AcDbEntity
  8
0
100
AcDbLine
 62
9
  6
CONTINUOUS
 10
4.1633027363
 20
8.8446430515
 11
4.1633273929
 21
9.1789769393
  0
SPLINE
  5
39D
100
AcDbEntity
  8
0
100
AcDbSpline
 62
9
  6
CONTINUOUS
 70
0
 71
3
 72
9
 73
5
 74
0
 42
0.0000001
 43
0.0000001
 44
0.0000000001
 40
0.0
 40
0.0
 40
0.0
 40
0.0
 40
0.501925295
 40
1.0
 40
1.0
 40
1.0
 40
1.0
 10
4.1428026109
 20
9.1789498067
 30
0.0
 10
4.14236213
 20
9.18337647
 30
0.0
 10
4.1422419274
 20
9.1922857065
 30
0.0
 10
4.1435681948
 20
9.2010914138
 30
0.0
 10
4.1445696826
 20
9.2053907073
 30
0.0
  0
LINE
  5
39E
100
AcDbEntity
  8
0
100
AcDbLine
 62
9
  6
CONTINUOUS
 10
4.1427605261
 20
8.8446430384
 11
4.1428026003
 21
9.1789498066
  0
SPLINE
  5
39F
100
AcDbEntity
  8
0
100
AcDbSpline
 62
9
  6
CONTINUOUS
 70
0
 71
3
 72
16
 73
12
 74
0
 42
0.0000001
 43
0.0000001
 44
0.0000000001
 40
0.0
 40
0.0
 40
0.0
 40
0.0
 40
0.1847187545
 40
0.3619090716
 40
0.5262588805
 40
0.6718042609
 40
0.7933013702
 40
0.8879484874
 40
0.9559815702
 40
0.9807706347
 40
1.0
 40
1.0
 40
1.0
 40
1.0
 10
4.0062635837
 20
8.7440727088
 30
0.0
 10
4.0060880158
 20
8.7422938531
 30
0.0
 10
4.0057589758
 20
8.7388071286
 30
0.0
 10
4.0053387078
 20
8.7337318363
 30
0.0
 10
4.005018401
 20
8.7290290167
 30
0.0
 10
4.0048154178
 20
8.7248591907
 30
0.0
 10
4.0047383349
 20
8.7213591316
 30
0.0
 10
4.0047863832
 20
8.7186093372
 30
0.0
 10
4.0049250987
 20
8.7167974028
 30
0.0
 10
4.0051091468
 20
8.7157281995
 30
0.0
 10
4.0052177884
 20
8.7153151463
 30
0.0
 10
4.0052790613
 20
8.7151394437
 30
0.0
  0
SPLINE
  5
3A0
100
AcDbEntity
  8
0
100
AcDbSpline
 62
9
  6
CONTINUOUS
 70
0
 71
3
 72
8
 73
4
 74
0
 42
0.0000001
 43
0.0000001
 44
0.0000000001
 40
0.0
 40
0.0
 40
0.0
 40
0.0
 40
1.0
 40
1.0
 40
1.0
 40
1.0
 10
4.0052790613
 20
8.7151394437
 30
0.0
 10
4.0036791891
 20
8.7180476108
 30
0.0
 10
4.0028014881
 20
8.7214646748
 30
0.0
 10
4.0028014881
 20
8.7247838654
 30
0.0
  0
SPLINE
  5
3A1
100
AcDbEntity
  8
0
100
AcDbSpline
 62
9
  6
CONTINUOUS
 70
0
 71
3
 72
20
 73
16
 74
0
 42
0.0000001
 43
0.0000001
 44
0.0000000001
 40
0.0
 40
0.0
 40
0.0
 40
0.0
 40
0.2065914023
 40
0.4041623314
 40
0.5854055213
 40
0.7400125959
 40
0.8041061398
 40
0.8587799478
 40
0.9040364819
 40
0.9398832423
 40
0.9664829694
 40
0.984600129
 40
0.9907876932
 40
0.9952555146
 40
1.0
 40
1.0
 40
1.0
 40
1.0
 10
4.0034578363
 20
8.7440727088
 30
0.0
 10
4.003457836
 20
8.7427401932
 30
0.0
 10
4.0034528265
 20
8.7401333402
 30
0.0
 10
4.0034257551
 20
8.7363575405
 30
0.0
 10
4.003375446
 20
8.7329173094
 30
0.0
 10
4.0033126531
 20
8.7303383491
 30
0.0
 10
4.0032453129
 20
8.7285763176
 30
0.0
 10
4.0031928448
 20
8.7275196847
 30
0.0
 10
4.0031361792
 20
8.7266455716
 30
0.0
 10
4.0030773428
 20
8.7259536949
 30
0.0
 10
4.0030149518
 20
8.7254367051
 30
0.0
 10
4.0029600424
 20
8.7251147198
 30
0.0
 10
4.0029084252
 20
8.7249330981
 30
0.0
 10
4.0028746093
 20
8.7248456668
 30
0.0
 10
4.00283209
 20
8.7247838716
 30
0.0
 10
4.0028014881
 20
8.7247838654
 30
0.0
  0
SPLINE
  5
3A2
100
AcDbEntity
  8
0
100
AcDbSpline
 62
9
  6
CONTINUOUS
 70
0
 71
3
 72
20
 73
16
 74
0
 42
0.0000001
 43
0.0000001
 44
0.0000000001
 40
0.0
 40
0.0
 40
0.0
 40
0.0
 40
0.004744355
 40
0.0092120495
 40
0.0153994972
 40
0.0335166053
 40
0.0601167655
 40
0.0959646032
 40
0.1412225073
 40
0.1958974982
 40
0.2599915577
 40
0.4145969837
 40
0.5958375467
 40
0.7934077141
 40
1.0
 40
1.0
 40
1.0
 40
1.0
 10
3.9959572035
 20
8.7247838654
 30
0.0
 10
3.9959266023
 20
8.7247838713
 30
0.0
 10
3.9958840824
 20
8.724845663
 30
0.0
 10
3.9958502667
 20
8.7249330923
 30
0.0
 10
3.9957986492
 20
8.7251147117
 30
0.0
 10
3.9957437398
 20
8.725436699
 30
0.0
 10
3.9956813484
 20
8.7259536982
 30
0.0
 10
3.9956225115
 20
8.7266455935
 30
0.0
 10
3.9955658452
 20
8.72751973
 30
0.0
 10
3.9955133764
 20
8.7285763828
 30
0.0
 10
3.9954460362
 20
8.7303384148
 30
0.0
 10
3.995383244
 20
8.7329173509
 30
0.0
 10
3.9953329366
 20
8.7363575497
 30
0.0
 10
3.9953058654
 20
8.7401333335
 30
0.0
 10
3.9953008555
 20
8.7427401874
 30
0.0
 10
3.9953008552
 20
8.7440727088
 30
0.0
  0
SPLINE
  5
3A3
100
AcDbEntity
  8
0
100
AcDbSpline
 62
9
  6
CONTINUOUS
 70
0
 71
3
 72
20
 73
16
 74
0
 42
0.0000001
 43
0.0000001
 44
0.0000000001
 40
0.0
 40
0.0
 40
0.0
 40
0.0
 40
0.2065914027
 40
0.4041623322
 40
0.5854055223
 40
0.740012597
 40
0.8041061409
 40
0.8587799489
 40
0.9040364828
 40
0.939883243
 40
0.9664829699
 40
0.9846001293
 40
0.9907876933
 40
0.9952555147
 40
1.0
 40
1.0
 40
1.0
 40
1.0
 10
3.9953008552
 20
8.9452133942
 30
0.0
 10
3.9953008555
 20
8.9465459098
 30
0.0
 10
3.9953058651
 20
8.9491527628
 30
0.0
 10
3.9953329365
 20
8.9529285626
 30
0.0
 10
3.9953832456
 20
8.9563687937
 30
0.0
 10
3.9954460384
 20
8.9589477539
 30
0.0
 10
3.9955133786
 20
8.9607097854
 30
0.0
 10
3.9955658467
 20
8.9617664184
 30
0.0
 10
3.9956225123
 20
8.9626405314
 30
0.0
 10
3.9956813488
 20
8.9633324081
 30
0.0
 10
3.9957437397
 20
8.9638493979
 30
0.0
 10
3.9957986491
 20
8.9641713832
 30
0.0
 10
3.9958502663
 20
8.9643530049
 30
0.0
 10
3.9958840822
 20
8.9644404362
 30
0.0
 10
3.9959266015
 20
8.9645022314
 30
0.0
 10
3.9959572035
 20
8.9645022376
 30
0.0
  0
SPLINE
  5
3A4
100
AcDbEntity
  8
0
100
AcDbSpline
 62
9
  6
CONTINUOUS
 70
0
 71
3
 72
20
 73
16
 74
0
 42
0.0000001
 43
0.0000001
 44
0.0000000001
 40
0.0
 40
0.0
 40
0.0
 40
0.0
 40
0.004744355
 40
0.0092120495
 40
0.0153994972
 40
0.0335166053
 40
0.0601167655
 40
0.0959646032
 40
0.1412225073
 40
0.1958974982
 40
0.2599915577
 40
0.4145969837
 40
0.5958375468
 40
0.7934077141
 40
1.0
 40
1.0
 40
1.0
 40
1.0
 10
4.0028014881
 20
8.9645022376
 30
0.0
 10
4.0028320892
 20
8.9645022317
 30
0.0
 10
4.0028746091
 20
8.96444044
 30
0.0
 10
4.0029084248
 20
8.9643530107
 30
0.0
 10
4.0029600423
 20
8.9641713913
 30
0.0
 10
4.0030149517
 20
8.963849404
 30
0.0
 10
4.0030773431
 20
8.9633324048
 30
0.0
 10
4.00313618
 20
8.9626405095
 30
0.0
 10
4.0031928463
 20
8.961766373
 30
0.0
 10
4.0032453151
 20
8.9607097202
 30
0.0
 10
4.0033126553
 20
8.9589476882
 30
0.0
 10
4.0033754475
 20
8.9563687521
 30
0.0
 10
4.0034257549
 20
8.9529285533
 30
0.0
 10
4.0034528261
 20
8.9491527695
 30
0.0
 10
4.003457836
 20
8.9465459156
 30
0.0
 10
4.0034578363
 20
8.9452133942
 30
0.0
  0
SPLINE
  5
3A5
100
AcDbEntity
  8
0
100
AcDbSpline
 62
9
  6
CONTINUOUS
 70
0
 71
3
 72
9
 73
5
 74
0
 42
0.0000001
 43
0.0000001
 44
0.0000000001
 40
0.0
 40
0.0
 40
0.0
 40
0.0
 40
0.2486265101
 40
1.0
 40
1.0
 40
1.0
 40
1.0
 10
3.9959572035
 20
8.7247838654
 30
0.0
 10
3.9959572035
 20
8.7242507678
 30
0.0
 10
3.9960481068
 20
8.7221073483
 30
0.0
 10
3.9964875528
 20
8.7199804314
 30
0.0
 10
3.9969945098
 20
8.7184511995
 30
0.0
  0
LINE
  5
3A6
100
AcDbEntity
  8
0
100
AcDbLine
 62
9
  6
CONTINUOUS
 10
3.9969945098
 20
8.7184511995
 11
3.9984347767
 21
8.7151394437
  0
SPLINE
  5
3A7
100
AcDbEntity
  8
0
100
AcDbSpline
 62
9
  6
CONTINUOUS
 70
0
 71
3
 72
15
 73
11
 74
0
 42
0.0000001
 43
0.0000001
 44
0.0000000001
 40
0.0
 40
0.0
 40
0.0
 40
0.0
 40
0.0242035631
 40
0.0442185783
 40
0.0708266978
 40
0.1045764965
 40
0.1458779644
 40
0.2524828641
 40
0.5647553389
 40
1.0
 40
1.0
 40
1.0
 40
1.0
 10
6.4474063773
 20
8.5646469999
 30
0.0
 10
6.4474548545
 20
8.564646744
 30
0.0
 10
6.4475309117
 20
8.56471946
 30
0.0
 10
6.4475975644
 20
8.5648396965
 30
0.0
 10
6.4476606152
 20
8.5649898809
 30
0.0
 10
6.4477225563
 20
8.5651833745
 30
0.0
 10
6.4478148266
 20
8.5655357472
 30
0.0
 10
6.4479896891
 20
8.5664411722
 30
0.0
 10
6.4481960652
 20
8.5681408519
 30
0.0
 10
6.4483209545
 20
8.5696328477
 30
0.0
 10
6.4483822893
 20
8.5705024488
 30
0.0
  0
SPLINE
  5
3A8
100
AcDbEntity
  8
0
100
AcDbSpline
 62
9
  6
CONTINUOUS
 70
0
 71
3
 72
10
 73
6
 74
0
 42
0.0000001
 43
0.0000001
 44
0.0000000001
 40
0.0
 40
0.0
 40
0.0
 40
0.0
 40
0.2249809568
 40
0.4775223115
 40
1.0
 40
1.0
 40
1.0
 40
1.0
 10
6.4483822893
 20
8.5705024488
 30
0.0
 10
6.4484569676
 20
8.5715612335
 30
0.0
 10
6.4485822573
 20
8.5738108498
 30
0.0
 10
6.4487586356
 20
8.5785254809
 30
0.0
 10
6.4488116554
 20
8.5821821026
 30
0.0
 10
6.4488183383
 20
8.5846470385
 30
0.0
  0
SPLINE
  5
3A9
100
AcDbEntity
  8
0
100
AcDbSpline
 62
9
  6
CONTINUOUS
 70
0
 71
3
 72
9
 73
5
 74
0
 42
0.0000001
 43
0.0000001
 44
0.0000000001
 40
0.0
 40
0.0
 40
0.0
 40
0.0
 40
0.4880422023
 40
1.0
 40
1.0
 40
1.0
 40
1.0
 10
4.1631330787
 20
8.4695175469
 30
0.0
 10
4.1617960812
 20
8.4695112933
 30
0.0
 10
4.1590497801
 20
8.4698292879
 30
0.0
 10
4.1564319267
 20
8.4707102635
 30
0.0
 10
4.1551577714
 20
8.4712964533
 30
0.0
  0
SPLINE
  5
3AA
100
AcDbEntity
  8
0
100
AcDbSpline
 62
9
  6
CONTINUOUS
 70
0
 71
3
 72
11
 73
7
 74
0
 42
0.0000001
 43
0.0000001
 44
0.0000000001
 40
0.0
 40
0.0
 40
0.0
 40
0.0
 40
0.2516804122
 40
0.5055052912
 40
0.7575168234
 40
1.0
 40
1.0
 40
1.0
 40
1.0
 10
4.1551577714
 20
8.4712964533
 30
0.0
 10
4.1538668269
 20
8.4718903672
 30
0.0
 10
4.1513920938
 20
8.4733738942
 30
0.0
 10
4.1483356436
 20
8.4764177668
 30
0.0
 10
4.146001078
 20
8.4799695457
 30
0.0
 10
4.1449414054
 20
8.4825777363
 30
0.0
 10
4.1445696847
 20
8.4838953895
 30
0.0
  0
LINE
  5
3AB
100
AcDbEntity
  8
0
100
AcDbLine
 62
9
  6
CONTINUOUS
 10
6.4488183382
 20
8.5846470385
 11
6.4503048445
 21
8.584643024
  0
LINE
  5
3AC
100
AcDbEntity
  8
0
100
AcDbLine
 62
9
  6
CONTINUOUS
 10
6.1020063544
 20
7.91908881
 11
6.0879783713
 21
7.8909871437
  0
SPLINE
  5
3AD
100
AcDbEntity
  8
0
100
AcDbSpline
 62
9
  6
CONTINUOUS
 70
0
 71
3
 72
15
 73
11
 74
0
 42
0.0000001
 43
0.0000001
 44
0.0000000001
 40
0.0
 40
0.0
 40
0.0
 40
0.0
 40
0.0483209943
 40
0.1095042855
 40
0.1911090275
 40
0.2978482909
 40
0.4325636826
 40
0.5952218397
 40
0.7847778772
 40
1.0
 40
1.0
 40
1.0
 40
1.0
 10
4.1632189116
 20
8.4695181616
 30
0.0
 10
4.16332051
 20
8.4695191652
 30
0.0
 10
4.1635508098
 20
8.469590116
 30
0.0
 10
4.1638565678
 20
8.469860969
 30
0.0
 10
4.1641564599
 20
8.4702948864
 30
0.0
 10
4.1644519951
 20
8.4709085916
 30
0.0
 10
4.1647399906
 20
8.4717090065
 30
0.0
 10
4.1650185955
 20
8.4726948604
 30
0.0
 10
4.1652823812
 20
8.4738588949
 30
0.0
 10
4.1654354149
 20
8.4746963913
 30
0.0
 10
4.1655092491
 20
8.4751428701
 30
0.0
  0
SPLINE
  5
3AE
100
AcDbEntity
  8
0
100
AcDbSpline
 62
9
  6
CONTINUOUS
 70
0
 71
3
 72
11
 73
7
 74
0
 42
0.0000001
 43
0.0000001
 44
0.0000000001
 40
0.0
 40
0.0
 40
0.0
 40
0.0
 40
0.2241335734
 40
0.4765408744
 40
0.7403370455
 40
1.0
 40
1.0
 40
1.0
 40
1.0
 10
4.1655092491
 20
8.4751428701
 30
0.0
 10
4.1656844495
 20
8.476202314
 30
0.0
 10
4.1659706747
 20
8.4784690491
 30
0.0
 10
4.1662522038
 20
8.4820056763
 30
0.0
 10
4.1663989894
 20
8.4857208451
 30
0.0
 10
4.166416517
 20
8.4882291527
 30
0.0
 10
4.1664054388
 20
8.4894731587
 30
0.0
  0
LINE
  5
3AF
100
AcDbEntity
  8
0
100
AcDbLine
 62
9
  6
CONTINUOUS
 10
7.992698097
 20
7.9191849106
 11
7.9798681991
 21
7.9291597987
  0
LINE
  5
3B0
100
AcDbEntity
  8
0
100
AcDbLine
 62
9
  6
CONTINUOUS
 10
7.9728676083
 20
9.7899505979
 11
8.000967483
 21
9.8039813038
  0
SPLINE
  5
3B1
100
AcDbEntity
  8
0
100
AcDbSpline
 62
9
  6
CONTINUOUS
 70
0
 71
3
 72
11
 73
7
 74
0
 42
0.0000001
 43
0.0000001
 44
0.0000000001
 40
0.0
 40
0.0
 40
0.0
 40
0.0
 40
0.2646018281
 40
0.5088940018
 40
0.7480520397
 40
1.0
 40
1.0
 40
1.0
 40
1.0
 10
7.5723623695
 20
8.5766571411
 30
0.0
 10
7.5724674745
 20
8.5764401061
 30
0.0
 10
7.5726332756
 20
8.5760026623
 30
0.0
 10
7.5727173595
 20
8.5753182921
 30
0.0
 10
7.5726095422
 20
8.5746476928
 30
0.0
 10
7.5724150461
 20
8.5742377849
 30
0.0
 10
7.5722933515
 20
8.5740430727
 30
0.0
  0
LINE
  5
3B2
100
AcDbEntity
  8
0
100
AcDbLine
 62
9
  6
CONTINUOUS
 10
7.9926243819
 20
7.9190964795
 11
8.0066563613
 21
7.8909939071
  0
LINE
  5
3B3
100
AcDbEntity
  8
0
100
AcDbLine
 62
9
  6
CONTINUOUS
 10
6.1217471585
 20
9.7899675768
 11
6.0936573566
 21
9.8039859465
  0
LINE
  5
3B4
100
AcDbEntity
  8
0
100
AcDbLine
 62
9
  6
CONTINUOUS
 10
6.121861466
 20
7.8992633033
 11
6.131836408
 21
7.912093067
  0
LINE
  5
3B5
100
AcDbEntity
  8
0
100
AcDbLine
 62
9
  6
CONTINUOUS
 10
6.1020102984
 20
9.770192447
 11
6.0879804845
 21
9.798292586
  0
SPLINE
  5
3B6
100
AcDbEntity
  8
0
100
AcDbSpline
 62
9
  6
CONTINUOUS
 70
0
 71
3
 72
8
 73
4
 74
0
 42
0.0000001
 43
0.0000001
 44
0.0000000001
 40
0.0
 40
0.0
 40
0.0
 40
0.0
 40
1.0
 40
1.0
 40
1.0
 40
1.0
 10
4.0028014881
 20
8.9645022376
 30
0.0
 10
4.0028014881
 20
8.9678214282
 30
0.0
 10
4.0036791891
 20
8.9712384922
 30
0.0
 10
4.0052790613
 20
8.9741466593
 30
0.0
  0
SPLINE
  5
3B7
100
AcDbEntity
  8
0
100
AcDbSpline
 62
9
  6
CONTINUOUS
 70
0
 71
3
 72
16
 73
12
 74
0
 42
0.0000001
 43
0.0000001
 44
0.0000000001
 40
0.0
 40
0.0
 40
0.0
 40
0.0
 40
0.0192286682
 40
0.0440162901
 40
0.1120425973
 40
0.2066874358
 40
0.328182582
 40
0.4737265605
 40
0.6380751823
 40
0.8152734068
 40
1.0
 40
1.0
 40
1.0
 40
1.0
 10
4.0052790613
 20
8.9741466593
 30
0.0
 10
4.005217791
 20
8.9739709629
 30
0.0
 10
4.005109149
 20
8.9735579315
 30
0.0
 10
4.0049251104
 20
8.9724888137
 30
0.0
 10
4.0047863987
 20
8.9706769815
 30
0.0
 10
4.0047383301
 20
8.967927294
 30
0.0
 10
4.0048154046
 20
8.964427289
 30
0.0
 10
4.0050183779
 20
8.9602575067
 30
0.0
 10
4.0053386672
 20
8.955554634
 30
0.0
 10
4.0057589685
 20
8.950479203
 30
0.0
 10
4.0060880059
 20
8.9469923252
 30
0.0
 10
4.0062635837
 20
8.9452133942
 30
0.0
  0
LINE
  5
3B8
100
AcDbEntity
  8
0
100
AcDbLine
 62
9
  6
CONTINUOUS
 10
7.9926436877
 20
9.770215622
 11
8.006661848
 21
9.7983059087
  0
LINE
  5
3B9
100
AcDbEntity
  8
0
100
AcDbLine
 62
9
  6
CONTINUOUS
 10
3.9984347767
 20
8.9741466593
 11
3.9971301035
 21
8.9712303465
  0
LINE
  5
3BA
100
AcDbEntity
  8
0
100
AcDbLine
 62
9
  6
CONTINUOUS
 10
3.9962469273
 20
8.9678484886
 11
3.9959572034
 21
8.9645022376
  0
SPLINE
  5
3BB
100
AcDbEntity
  8
0
100
AcDbSpline
 62
9
  6
CONTINUOUS
 70
0
 71
3
 72
14
 73
10
 74
0
 42
0.0000001
 43
0.0000001
 44
0.0000000001
 40
0.0
 40
0.0
 40
0.0
 40
0.0
 40
0.3760383147
 40
0.5352747711
 40
0.6721219559
 40
0.7858990317
 40
0.8771955165
 40
0.9477174118
 40
1.0
 40
1.0
 40
1.0
 40
1.0
 10
7.6646283585
 20
8.9515589537
 30
0.0
 10
7.6647366944
 20
8.9538288434
 30
0.0
 10
7.664838519
 20
8.9570637098
 30
0.0
 10
7.6647858172
 20
8.9611257513
 30
0.0
 10
7.6646615205
 20
8.9636002978
 30
0.0
 10
7.6644577083
 20
8.9656574219
 30
0.0
 10
7.6641822337
 20
8.9673021976
 30
0.0
 10
7.6638455226
 20
8.9685531915
 30
0.0
 10
7.6635457585
 20
8.9692391766
 30
0.0
 10
7.6633783044
 20
8.9695071058
 30
0.0
  0
SPLINE
  5
3BC
100
AcDbEntity
  8
0
100
AcDbSpline
 62
9
  6
CONTINUOUS
 70
0
 71
3
 72
11
 73
7
 74
0
 42
0.0000001
 43
0.0000001
 44
0.0000000001
 40
0.0
 40
0.0
 40
0.0
 40
0.0
 40
0.2519480766
 40
0.4911064641
 40
0.7353983268
 40
1.0
 40
1.0
 40
1.0
 40
1.0
 10
7.5722933515
 20
9.1152430303
 30
0.0
 10
7.5724150463
 20
9.1150483181
 30
0.0
 10
7.5726095423
 20
9.1146384096
 30
0.0
 10
7.5727173597
 20
9.1139678102
 30
0.0
 10
7.5726332753
 20
9.1132834401
 30
0.0
 10
7.5724674744
 20
9.1128459966
 30
0.0
 10
7.5723623694
 20
9.1126289617
 30
0.0
  0
LINE
  5
3BD
100
AcDbEntity
  8
0
100
AcDbLine
 62
9
  6
CONTINUOUS
 10
6.1019374417
 20
9.7701005375
 11
6.1147682219
 21
9.7601250142
  0
SPLINE
  5
3BE
100
AcDbEntity
  8
0
100
AcDbSpline
 62
9
  6
CONTINUOUS
 70
0
 71
3
 72
9
 73
5
 74
0
 42
0.0000001
 43
0.0000001
 44
0.0000000001
 40
0.0
 40
0.0
 40
0.0
 40
0.0
 40
0.2433647043
 40
1.0
 40
1.0
 40
1.0
 40
1.0
 10
7.572362276
 20
8.5766569241
 30
0.0
 10
7.5721168119
 20
8.5760850926
 30
0.0
 10
7.5709889686
 20
8.5737881066
 30
0.0
 10
7.5694195346
 20
8.5717103374
 30
0.0
 10
7.5680505682
 20
8.5703431775
 30
0.0
  0
SPLINE
  5
3BF
100
AcDbEntity
  8
0
100
AcDbSpline
 62
9
  6
CONTINUOUS
 70
0
 71
3
 72
9
 73
5
 74
0
 42
0.0000001
 43
0.0000001
 44
0.0000000001
 40
0.0
 40
0.0
 40
0.0
 40
0.0
 40
0.5006673576
 40
1.0
 40
1.0
 40
1.0
 40
1.0
 10
7.5680505682
 20
8.5703431775
 30
0.0
 10
7.5671481188
 20
8.569441919
 30
0.0
 10
7.5651711011
 20
8.5678047183
 30
0.0
 10
7.5628965371
 20
8.566614488
 30
0.0
 10
7.5617189372
 20
8.5661335733
 30
0.0
  0
SPLINE
  5
3C0
100
AcDbEntity
  8
0
100
AcDbSpline
 62
9
  6
CONTINUOUS
 70
0
 71
3
 72
9
 73
5
 74
0
 42
0.0000001
 43
0.0000001
 44
0.0000000001
 40
0.0
 40
0.0
 40
0.0
 40
0.0
 40
0.2553627368
 40
1.0
 40
1.0
 40
1.0
 40
1.0
 10
7.5617189372
 20
8.5661335733
 30
0.0
 10
7.5611990668
 20
8.5659212658
 30
0.0
 10
7.5591295051
 20
8.5651756541
 30
0.0
 10
7.5569379883
 20
8.5647634453
 30
0.0
 10
7.5553030789
 20
8.5646716937
 30
0.0
  0
SPLINE
  5
3C1
100
AcDbEntity
  8
0
100
AcDbSpline
 62
9
  6
CONTINUOUS
 70
0
 71
3
 72
18
 73
14
 74
0
 42
0.0000001
 43
0.0000001
 44
0.0000000001
 40
0.0
 40
0.0
 40
0.0
 40
0.0
 40
0.2040723238
 40
0.3917238786
 40
0.559361666
 40
0.7037133279
 40
0.8220494088
 40
0.8706324575
 40
0.9117611245
 40
0.9453042476
 40
0.9711827856
 40
0.9893640635
 40
1.0
 40
1.0
 40
1.0
 40
1.0
 10
7.5550330348
 20
8.5770891419
 30
0.0
 10
7.555019187
 20
8.5762414386
 30
0.0
 10
7.5549873557
 20
8.5746143203
 30
0.0
 10
7.5549244865
 20
8.5722912878
 30
0.0
 10
7.5548496637
 20
8.5702168359
 30
0.0
 10
7.5547642422
 20
8.5684310748
 30
0.0
 10
7.5546822142
 20
8.5671403543
 30
0.0
 10
7.5546096789
 20
8.566279104
 30
0.0
 10
7.5545575338
 20
8.5657695195
 30
0.0
 10
7.5545042277
 20
8.5653555394
 30
0.0
 10
7.5544515094
 20
8.5650363536
 30
0.0
 10
7.554398152
 20
8.564817329
 30
0.0
 10
7.554356873
 20
8.5647012207
 30
0.0
 10
7.5543289899
 20
8.5646669422
 30
0.0
  0
LINE
  5
3C2
100
AcDbEntity
  8
0
100
AcDbLine
 62
9
  6
CONTINUOUS
 10
6.0544138807
 20
9.820652629
 11
6.0527559681
 21
9.1367471083
  0
LINE
  5
3C3
100
AcDbEntity
  8
0
100
AcDbLine
 62
9
  6
CONTINUOUS
 10
5.8979461999
 20
9.9776961151
 11
5.8995066148
 21
9.9761297516
  0
LINE
  5
3C4
100
AcDbEntity
  8
0
100
AcDbLine
 62
9
  6
CONTINUOUS
 10
5.8995066148
 20
9.9761297516
 11
6.0544615404
 21
9.8206524663
  0
LINE
  5
3C5
100
AcDbEntity
  8
0
100
AcDbLine
 62
9
  6
CONTINUOUS
 10
8.1803714903
 20
9.994015285
 11
8.1788050336
 21
9.992454767
  0
LINE
  5
3C6
100
AcDbEntity
  8
0
100
AcDbLine
 62
9
  6
CONTINUOUS
 10
8.1788050336
 20
9.992454767
 11
8.0233270536
 21
9.8374990476
  0
SPLINE
  5
3C7
100
AcDbEntity
  8
0
100
AcDbSpline
 62
9
  6
CONTINUOUS
 70
0
 71
3
 72
14
 73
10
 74
0
 42
0.0000001
 43
0.0000001
 44
0.0000000001
 40
0.0
 40
0.0
 40
0.0
 40
0.0
 40
0.1108689741
 40
0.23092564
 40
0.4874961432
 40
0.6201032361
 40
0.7519611505
 40
0.8797083753
 40
1.0
 40
1.0
 40
1.0
 40
1.0
 10
6.1318381334
 20
7.9120944025
 30
0.0
 10
6.1309400842
 20
7.9123349361
 30
0.0
 10
6.1291053057
 20
7.9129768004
 30
0.0
 10
6.1254383963
 20
7.9147969804
 30
0.0
 10
6.1219742158
 20
7.9173904798
 30
0.0
 10
6.1190682173
 20
7.9206668643
 30
0.0
 10
6.1172044245
 20
7.9233874564
 30
0.0
 10
6.1157362298
 20
7.9262231394
 30
0.0
 10
6.1150301472
 20
7.9281891142
 30
0.0
 10
6.1147691801
 20
7.9291634902
 30
0.0
  0
SPLINE
  5
3C8
100
AcDbEntity
  8
0
100
AcDbSpline
 62
9
  6
CONTINUOUS
 70
0
 71
3
 72
18
 73
14
 74
0
 42
0.0000001
 43
0.0000001
 44
0.0000000001
 40
0.0
 40
0.0
 40
0.0
 40
0.0
 40
0.1997790734
 40
0.383035464
 40
0.5472723599
 40
0.6898427681
 40
0.8081886226
 40
0.8576280246
 40
0.9002573701
 40
0.9358693535
 40
0.9643904833
 40
0.9857807089
 40
1.0
 40
1.0
 40
1.0
 40
1.0
 10
6.1318876308
 20
7.9121437154
 30
0.0
 10
6.1755177154
 20
7.9556111537
 30
0.0
 10
6.2591782873
 20
8.0389422145
 30
0.0
 10
6.378737174
 20
8.1579770639
 30
0.0
 10
6.4858240531
 20
8.2645426003
 30
0.0
 10
6.5787432694
 20
8.3569767556
 30
0.0
 10
6.6465796066
 20
8.4244456668
 30
0.0
 10
6.6925659303
 20
8.4701934787
 30
0.0
 10
6.7204655899
 20
8.4979586212
 30
0.0
 10
6.7437860978
 20
8.5211832388
 30
0.0
 10
6.7624580199
 20
8.5397968855
 30
0.0
 10
6.7764473944
 20
8.5537665321
 30
0.0
 10
6.784205245
 20
8.5615333858
 30
0.0
 10
6.7872954285
 20
8.5646423576
 30
0.0
  0
SPLINE
  5
3C9
100
AcDbEntity
  8
0
100
AcDbSpline
 62
9
  6
CONTINUOUS
 70
0
 71
3
 72
18
 73
14
 74
0
 42
0.0000001
 43
0.0000001
 44
0.0000000001
 40
0.0
 40
0.0
 40
0.0
 40
0.0
 40
0.0142162837
 40
0.0356018703
 40
0.0641170267
 40
0.0997219997
 40
0.1423436404
 40
0.191775167
 40
0.3101070342
 40
0.4526704836
 40
0.6169164252
 40
0.80020055
 40
1.0
 40
1.0
 40
1.0
 40
1.0
 10
7.3073407284
 20
8.5646428407
 30
0.0
 10
7.3104302168
 20
8.5615344844
 30
0.0
 10
7.318186335
 20
8.5537692302
 30
0.0
 10
7.3321726664
 20
8.539802475
 30
0.0
 10
7.3508406943
 20
8.5211926127
 30
0.0
 10
7.3741566729
 20
8.49797248
 30
0.0
 10
7.4020514331
 20
8.4702122808
 30
0.0
 10
7.4480313869
 20
8.4244709794
 30
0.0
 10
7.5158615575
 20
8.3570084522
 30
0.0
 10
7.6087782143
 20
8.2645769045
 30
0.0
 10
7.7158715594
 20
8.1580048085
 30
0.0
 10
7.8354428039
 20
8.0389573707
 30
0.0
 10
7.9191138083
 20
7.9556157483
 30
0.0
 10
7.9627483164
 20
7.9121438398
 30
0.0
  0
LINE
  5
3CA
100
AcDbEntity
  8
0
100
AcDbLine
 62
9
  6
CONTINUOUS
 10
7.3432561125
 20
8.5687016078
 11
7.979866263
 21
7.92916209
  0
SPLINE
  5
3CB
100
AcDbEntity
  8
0
100
AcDbSpline
 62
9
  6
CONTINUOUS
 70
0
 71
3
 72
14
 73
10
 74
0
 42
0.0000001
 43
0.0000001
 44
0.0000000001
 40
0.0
 40
0.0
 40
0.0
 40
0.0
 40
0.1202931261
 40
0.2480411728
 40
0.3798993609
 40
0.5125062902
 40
0.7690755537
 40
0.8891314931
 40
1.0
 40
1.0
 40
1.0
 40
1.0
 10
7.979866263
 20
7.92916209
 30
0.0
 10
7.9796052783
 20
7.9281877704
 30
0.0
 10
7.9788991791
 20
7.9262219188
 30
0.0
 10
7.9774309998
 20
7.9233864264
 30
0.0
 10
7.9755672653
 20
7.920666033
 30
0.0
 10
7.9726614025
 20
7.9173899043
 30
0.0
 10
7.9691974315
 20
7.9147966078
 30
0.0
 10
7.9655307595
 20
7.9129765659
 30
0.0
 10
7.9636961039
 20
7.9123347467
 30
0.0
 10
7.9627981146
 20
7.9120942272
 30
0.0
  0
LINE
  5
3CC
100
AcDbEntity
  8
0
100
AcDbLine
 62
9
  6
CONTINUOUS
 10
7.3440127497
 20
9.1213408356
 11
7.9798176261
 21
9.7600733839
  0
SPLINE
  5
3CD
100
AcDbEntity
  8
0
100
AcDbSpline
 62
9
  6
CONTINUOUS
 70
0
 71
3
 72
16
 73
12
 74
0
 42
0.0000001
 43
0.0000001
 44
0.0000000001
 40
0.0
 40
0.0
 40
0.0
 40
0.0
 40
0.0142141476
 40
0.0356026056
 40
0.0641491556
 40
0.0997940192
 40
0.1918576617
 40
0.3102455547
 40
0.452775522
 40
0.6170433206
 40
1.0
 40
1.0
 40
1.0
 40
1.0
 10
7.3073405738
 20
9.1246433852
 30
0.0
 10
7.3104315623
 20
9.1277497943
 30
0.0
 10
7.3181882063
 20
9.1355160218
 30
0.0
 10
7.3321809871
 20
9.1494924852
 30
0.0
 10
7.3508659083
 20
9.1681206435
 30
0.0
 10
7.3850020329
 20
9.2021121035
 30
0.0
 10
7.4387906122
 20
9.2556220361
 30
0.0
 10
7.5159486305
 20
9.3323645952
 30
0.0
 10
7.6088826255
 20
9.4248123617
 30
0.0
 10
7.7596160861
 20
9.5748133034
 30
0.0
 10
7.8791547992
 20
9.6938658446
 30
0.0
 10
7.9627994028
 20
9.7771913552
 30
0.0
  0
SPLINE
  5
3CE
100
AcDbEntity
  8
0
100
AcDbSpline
 62
9
  6
CONTINUOUS
 70
0
 71
3
 72
14
 73
10
 74
0
 42
0.0000001
 43
0.0000001
 44
0.0000000001
 40
0.0
 40
0.0
 40
0.0
 40
0.0
 40
0.1202931301
 40
0.2480411735
 40
0.3798993535
 40
0.5125062738
 40
0.7690755323
 40
0.8891314784
 40
1.0
 40
1.0
 40
1.0
 40
1.0
 10
7.9627994028
 20
9.7771913552
 30
0.0
 10
7.9637737219
 20
9.7769303684
 30
0.0
 10
7.965739572
 20
9.7762242652
 30
0.0
 10
7.9685750613
 20
9.7747560802
 30
0.0
 10
7.9712954506
 20
9.7728923403
 30
0.0
 10
7.9745715731
 20
9.769986471
 30
0.0
 10
7.977164862
 20
9.7665224944
 30
0.0
 10
7.9789848954
 20
9.7628558182
 30
0.0
 10
7.9796267103
 20
9.7610211609
 30
0.0
 10
7.9798672276
 20
9.7601231709
 30
0.0
  0
SPLINE
  5
3CF
100
AcDbEntity
  8
0
100
AcDbSpline
 62
9
  6
CONTINUOUS
 70
0
 71
3
 72
18
 73
14
 74
0
 42
0.0000001
 43
0.0000001
 44
0.0000000001
 40
0.0
 40
0.0
 40
0.0
 40
0.0
 40
0.014216221
 40
0.0356010028
 40
0.0641152074
 40
0.0997196763
 40
0.1423416719
 40
0.1917741627
 40
0.3101082012
 40
0.4526721721
 40
0.6169174359
 40
0.8002008184
 40
1.0
 40
1.0
 40
1.0
 40
1.0
 10
6.7872958748
 20
9.1246433303
 30
0.0
 10
6.7842061342
 20
9.1277518814
 30
0.0
 10
6.7764495944
 20
9.1355175232
 30
0.0
 10
6.7624625876
 20
9.1494849482
 30
0.0
 10
6.7437936349
 20
9.168095752
 30
0.0
 10
6.7204761122
 20
9.1913174206
 30
0.0
 10
6.692579013
 20
9.2190798939
 30
0.0
 10
6.6465947251
 20
9.2648253996
 30
0.0
 10
6.5787585137
 20
9.3322938306
 30
0.0
 10
6.4858343645
 20
9.4247329443
 30
0.0
 10
6.3787330538
 20
9.5313130292
 30
0.0
 10
6.2591529221
 20
9.6503690983
 30
0.0
 10
6.1754756879
 20
9.7337168271
 30
0.0
 10
6.1318379048
 20
9.7771920074
 30
0.0
  0
LINE
  5
3D0
100
AcDbEntity
  8
0
100
AcDbLine
 62
9
  6
CONTINUOUS
 10
6.7513772836
 20
9.1205877741
 11
6.1147697301
 21
9.7601236824
  0
SPLINE
  5
3D1
100
AcDbEntity
  8
0
100
AcDbSpline
 62
9
  6
CONTINUOUS
 70
0
 71
3
 72
14
 73
10
 74
0
 42
0.0000001
 43
0.0000001
 44
0.0000000001
 40
0.0
 40
0.0
 40
0.0
 40
0.0
 40
0.1202927447
 40
0.2480405711
 40
0.3798986735
 40
0.5125056296
 40
0.7690752024
 40
0.8891313426
 40
1.0
 40
1.0
 40
1.0
 40
1.0
 10
6.1147697301
 20
9.7601236824
 30
0.0
 10
6.1150307077
 20
9.7610980163
 30
0.0
 10
6.1157367971
 20
9.7630638994
 30
0.0
 10
6.1172049723
 20
9.7658994415
 30
0.0
 10
6.1190687137
 20
9.7686198873
 30
0.0
 10
6.1219746011
 20
9.7718960849
 30
0.0
 10
6.125438617
 20
9.7744894386
 30
0.0
 10
6.1291053429
 20
9.7763095224
 30
0.0
 10
6.1309400273
 20
9.7769513569
 30
0.0
 10
6.1318380308
 20
9.7771918819
 30
0.0
  0
LINE
  5
3D2
100
AcDbEntity
  8
0
100
AcDbLine
 62
9
  6
CONTINUOUS
 10
6.112956169
 20
9.1262322634
 11
6.1129697662
 21
9.1348988318
  0
LINE
  5
3D3
100
AcDbEntity
  8
0
100
AcDbLine
 62
9
  6
CONTINUOUS
 10
6.1129697662
 20
9.1348988318
 11
6.1148166967
 21
9.7601206687
  0
LINE
  5
3D4
100
AcDbEntity
  8
0
100
AcDbLine
 62
9
  6
CONTINUOUS
 10
6.7507418418
 20
8.5680116984
 11
6.1147686597
 21
7.9291627677
  0
LINE
  5
3D5
100
AcDbEntity
  8
0
100
AcDbLine
 62
9
  6
CONTINUOUS
 10
6.1148201412
 20
7.9291629794
 11
6.1129731684
 21
8.5543951367
  0
LINE
  5
3D6
100
AcDbEntity
  8
0
100
AcDbLine
 62
9
  6
CONTINUOUS
 10
6.1129731684
 20
8.5543951367
 11
6.1129594924
 21
8.5631127292
  0
LINE
  5
3D7
100
AcDbEntity
  8
0
100
AcDbLine
 62
9
  6
CONTINUOUS
 10
6.114770545
 20
7.9291642379
 11
6.1019348034
 21
7.9191837145
  0
SPLINE
  5
3D8
100
AcDbEntity
  8
0
100
AcDbSpline
 62
7
  6
CONTINUOUS
 70
0
 71
3
 72
15
 73
11
 74
0
 42
0.0000001
 43
0.0000001
 44
0.0000000001
 40
0.0
 40
0.0
 40
0.0
 40
0.0
 40
0.0283567026
 40
0.0515125423
 40
0.08170969
 40
0.1191968094
 40
0.1640622641
 40
0.275950178
 40
0.5858039311
 40
1.0
 40
1.0
 40
1.0
 40
1.0
 10
6.4488184131
 20
8.5646430514
 30
0.0
 10
6.4488753601
 20
8.5646429696
 30
0.0
 10
6.4489624441
 20
8.5647309282
 30
0.0
 10
6.4490375474
 20
8.564870588
 30
0.0
 10
6.4491076013
 20
8.5650414718
 30
0.0
 10
6.449175458
 20
8.5652564865
 30
0.0
 10
6.4492738379
 20
8.5656344156
 30
0.0
 10
6.4494538035
 20
8.5665544183
 30
0.0
 10
6.4496637423
 20
8.5682213975
 30
0.0
 10
6.4497904183
 20
8.5696699385
 30
0.0
 10
6.4498526271
 20
8.5704994136
 30
0.0
  0
SPLINE
  5
3D9
100
AcDbEntity
  8
0
100
AcDbSpline
 62
7
  6
CONTINUOUS
 70
0
 71
3
 72
9
 73
5
 74
0
 42
0.0000001
 43
0.0000001
 44
0.0000000001
 40
0.0
 40
0.0
 40
0.0
 40
0.0
 40
0.459066108
 40
1.0
 40
1.0
 40
1.0
 40
1.0
 10
6.4498526271
 20
8.5704994136
 30
0.0
 10
6.4500145962
 20
8.5726590676
 30
0.0
 10
6.450231839
 20
8.5773734135
 30
0.0
 10
6.4503022469
 20
8.5820910815
 30
0.0
 10
6.4503048445
 20
8.584643024
 30
0.0
  0
LINE
  5
3DA
100
AcDbEntity
  8
0
100
AcDbLine
 62
9
  6
CONTINUOUS
 10
6.0713130162
 20
9.8375001147
 11
5.9158385226
 21
9.9924570718
  0
LINE
  5
3DB
100
AcDbEntity
  8
0
100
AcDbLine
 62
9
  6
CONTINUOUS
 10
5.9158385226
 20
9.9924570718
 11
5.914272956
 21
9.99401774
  0
SPLINE
  5
3DC
100
AcDbEntity
  8
0
100
AcDbSpline
 62
9
  6
CONTINUOUS
 70
0
 71
3
 72
16
 73
12
 74
0
 42
0.0000001
 43
0.0000001
 44
0.0000000001
 40
0.0
 40
0.0
 40
0.0
 40
0.0
 40
0.0330667252
 40
0.0573851951
 40
0.0882440182
 40
0.1708951222
 40
0.2822549893
 40
0.4221983787
 40
0.5895321675
 40
0.7826869283
 40
1.0
 40
1.0
 40
1.0
 40
1.0
 10
6.4472207247
 20
9.124638589
 30
0.0
 10
6.4472877385
 20
9.1246389165
 30
0.0
 10
6.4473957228
 20
9.1245599168
 30
0.0
 10
6.4474927322
 20
9.1244131921
 30
0.0
 10
6.4476167277
 20
9.1241605528
 30
0.0
 10
6.447752471
 20
9.1237245964
 30
0.0
 10
6.4478976193
 20
9.1230629839
 30
0.0
 10
6.4480290365
 20
9.1222244651
 30
0.0
 10
6.4481501587
 20
9.1212174045
 30
0.0
 10
6.4482613691
 20
9.1200516127
 30
0.0
 10
6.4483264031
 20
9.1192222567
 30
0.0
 10
6.4483583366
 20
9.1187829992
 30
0.0
  0
SPLINE
  5
3DD
100
AcDbEntity
  8
0
100
AcDbSpline
 62
9
  6
CONTINUOUS
 70
0
 71
3
 72
9
 73
5
 74
0
 42
0.0000001
 43
0.0000001
 44
0.0000000001
 40
0.0
 40
0.0
 40
0.0
 40
0.0
 40
0.459057036
 40
1.0
 40
1.0
 40
1.0
 40
1.0
 10
6.4483583366
 20
9.1187829992
 30
0.0
 10
6.4485153691
 20
9.1166229583
 30
0.0
 10
6.4487374097
 20
9.1119089307
 30
0.0
 10
6.4488114425
 20
9.1071911185
 30
0.0
 10
6.4488183174
 20
9.1046390645
 30
0.0
  0
LINE
  5
3DE
100
AcDbEntity
  8
0
100
AcDbLine
 62
9
  6
CONTINUOUS
 10
7.9627995328
 20
7.9120898733
 11
7.9727777208
 21
7.8992578574
  0
SPLINE
  5
3DF
100
AcDbEntity
  8
0
100
AcDbSpline
 62
9
  6
CONTINUOUS
 70
0
 71
3
 72
11
 73
7
 74
0
 42
0.0000001
 43
0.0000001
 44
0.0000000001
 40
0.0
 40
0.0
 40
0.0
 40
0.0
 40
0.2503736671
 40
0.5004516371
 40
0.7503136656
 40
1.0
 40
1.0
 40
1.0
 40
1.0
 10
7.5782850575
 20
8.6140058791
 30
0.0
 10
7.5785850393
 20
8.610835515
 30
0.0
 10
7.5787433369
 20
8.6044495752
 30
0.0
 10
7.5777555171
 20
8.5949344644
 30
0.0
 10
7.5756479645
 20
8.5856147924
 30
0.0
 10
7.5735617102
 20
8.5795977492
 30
0.0
 10
7.5723623695
 20
8.5766571411
 30
0.0
  0
LINE
  5
3E0
100
AcDbEntity
  8
0
100
AcDbLine
 62
9
  6
CONTINUOUS
 10
8.0401756488
 20
9.8206490219
 11
8.1951323028
 21
9.976122715
  0
LINE
  5
3E1
100
AcDbEntity
  8
0
100
AcDbLine
 62
9
  6
CONTINUOUS
 10
8.1951323028
 20
9.976122715
 11
8.1966929632
 21
9.9776882747
  0
LINE
  5
3E2
100
AcDbEntity
  8
0
100
AcDbLine
 62
9
  6
CONTINUOUS
 10
7.9798715173
 20
9.7601248438
 11
7.9927035474
 21
9.7701032439
  0
LINE
  5
3E3
100
AcDbEntity
  8
0
100
AcDbLine
 62
9
  6
CONTINUOUS
 10
8.1966905692
 20
7.7115899365
 11
8.1951300711
 21
7.7131563711
  0
LINE
  5
3E4
100
AcDbEntity
  8
0
100
AcDbLine
 62
9
  6
CONTINUOUS
 10
8.1951300711
 20
7.7131563711
 11
8.0401742335
 21
7.8686344564
  0
LINE
  5
3E5
100
AcDbEntity
  8
0
100
AcDbLine
 62
9
  6
CONTINUOUS
 10
7.5723622772
 20
8.5766569241
 11
7.5550923788
 21
8.5846428756
  0
LINE
  5
3E6
100
AcDbEntity
  8
0
100
AcDbLine
 62
9
  6
CONTINUOUS
 10
6.1318362688
 20
9.7771956407
 11
6.1218578743
 21
9.7900274037
  0
SPLINE
  5
3E7
100
AcDbEntity
  8
0
100
AcDbSpline
 62
9
  6
CONTINUOUS
 70
0
 71
3
 72
10
 73
6
 74
0
 42
0.0000001
 43
0.0000001
 44
0.0000000001
 40
0.0
 40
0.0
 40
0.0
 40
0.0
 40
0.4956229349
 40
0.7472945772
 40
1.0
 40
1.0
 40
1.0
 40
1.0
 10
7.5618266625
 20
8.6140058791
 30
0.0
 10
7.5618265409
 20
8.6089993582
 30
0.0
 10
7.5608329395
 20
8.601426497
 30
0.0
 10
7.5580036306
 20
8.5917233778
 30
0.0
 10
7.5561295932
 20
8.5869755628
 30
0.0
 10
7.5550923046
 20
8.5846431194
 30
0.0
  0
SPLINE
  5
3E8
100
AcDbEntity
  8
0
100
AcDbSpline
 62
9
  6
CONTINUOUS
 70
0
 71
3
 72
10
 73
6
 74
0
 42
0.0000001
 43
0.0000001
 44
0.0000000001
 40
0.0
 40
0.0
 40
0.0
 40
0.0
 40
0.2527174066
 40
0.5043867417
 40
1.0
 40
1.0
 40
1.0
 40
1.0
 10
7.5550923529
 20
9.1046430014
 30
0.0
 10
7.5561296522
 20
9.1023104276
 30
0.0
 10
7.5580037307
 20
9.0975625226
 30
0.0
 10
7.5608331391
 20
9.0878594214
 30
0.0
 10
7.5618266651
 20
9.0802866518
 30
0.0
 10
7.5618267143
 20
9.0752802239
 30
0.0
  0
LINE
  5
3E9
100
AcDbEntity
  8
0
100
AcDbLine
 62
9
  6
CONTINUOUS
 10
6.0527392153
 20
8.5625828484
 11
6.0527515935
 21
8.5525485523
  0
LINE
  5
3EA
100
AcDbEntity
  8
0
100
AcDbLine
 62
9
  6
CONTINUOUS
 10
6.0527515935
 20
8.5525485523
 11
6.0544094729
 21
7.8686364498
  0
LINE
  5
3EB
100
AcDbEntity
  8
0
100
AcDbLine
 62
9
  6
CONTINUOUS
 10
6.0544644792
 20
7.8686409133
 11
5.8995043217
 21
7.7131632601
  0
LINE
  5
3EC
100
AcDbEntity
  8
0
100
AcDbLine
 62
9
  6
CONTINUOUS
 10
5.8995043217
 20
7.7131632601
 11
5.8979436302
 21
7.7115976676
  0
LINE
  5
3ED
100
AcDbEntity
  8
0
100
AcDbLine
 62
9
  6
CONTINUOUS
 10
4.1633269932
 20
8.5103091635
 11
4.1633023373
 21
8.8446430515
  0
LINE
  5
3EE
100
AcDbEntity
  8
0
100
AcDbLine
 62
9
  6
CONTINUOUS
 10
6.093662989
 20
9.803988086
 11
6.071306766
 21
9.8375043758
  0
LINE
  5
3EF
100
AcDbEntity
  8
0
100
AcDbLine
 62
9
  6
CONTINUOUS
 10
6.0879805345
 20
9.7982925789
 11
6.0544626959
 21
9.8206497019
  0
SPLINE
  5
3F0
100
AcDbEntity
  8
0
100
AcDbSpline
 62
9
  6
CONTINUOUS
 70
0
 71
3
 72
15
 73
11
 74
0
 42
0.0000001
 43
0.0000001
 44
0.0000000001
 40
0.0
 40
0.0
 40
0.0
 40
0.0
 40
0.1154435175
 40
0.239253847
 40
0.3684028841
 40
0.500000949
 40
0.63159887
 40
0.7607475061
 40
0.8845572304
 40
1.0
 40
1.0
 40
1.0
 40
1.0
 10
6.0544626959
 20
9.8206497019
 30
0.0
 10
6.0547258275
 20
9.8215659119
 30
0.0
 10
6.0554172363
 20
9.8234242823
 30
0.0
 10
6.0568264627
 20
9.8261276466
 30
0.0
 10
6.0586182902
 20
9.828758164
 30
0.0
 10
6.0607576439
 20
9.8312030055
 30
0.0
 10
6.0632025058
 20
9.8333423309
 30
0.0
 10
6.0658330355
 20
9.8351341234
 30
0.0
 10
6.0685364043
 20
9.8365433101
 30
0.0
 10
6.0703947738
 20
9.8372346898
 30
0.0
 10
6.0713109817
 20
9.8374978062
 30
0.0
  0
LINE
  5
3F1
100
AcDbEntity
  8
0
100
AcDbLine
 62
9
  6
CONTINUOUS
 10
6.0879853545
 20
9.798289443
 11
6.0862600787
 21
9.1357187459
  0
LINE
  5
3F2
100
AcDbEntity
  8
0
100
AcDbLine
 62
9
  6
CONTINUOUS
 10
6.0879764762
 20
7.8909888735
 11
6.0544572399
 21
7.8686314261
  0
LINE
  5
3F3
100
AcDbEntity
  8
0
100
AcDbLine
 62
9
  6
CONTINUOUS
 10
6.0862383784
 20
8.5629315605
 11
6.0862509567
 21
8.5535756862
  0
LINE
  5
3F4
100
AcDbEntity
  8
0
100
AcDbLine
 62
9
  6
CONTINUOUS
 10
6.0862509567
 20
8.5535756862
 11
6.0879762611
 21
7.8909892244
  0
LINE
  5
3F5
100
AcDbEntity
  8
0
100
AcDbLine
 62
9
  6
CONTINUOUS
 10
6.0936688117
 20
7.8853050994
 11
6.0713107602
 21
7.851785933
  0
SPLINE
  5
3F6
100
AcDbEntity
  8
0
100
AcDbSpline
 62
9
  6
CONTINUOUS
 70
0
 71
3
 72
15
 73
11
 74
0
 42
0.0000001
 43
0.0000001
 44
0.0000000001
 40
0.0
 40
0.0
 40
0.0
 40
0.0
 40
0.1154430526
 40
0.2392533197
 40
0.3684025384
 40
0.5000008858
 40
0.6315990978
 40
0.7607479414
 40
0.8845576442
 40
1.0
 40
1.0
 40
1.0
 40
1.0
 10
6.0713107602
 20
7.851785933
 30
0.0
 10
6.0703945152
 20
7.8520490627
 30
0.0
 10
6.0685360704
 20
7.8527404807
 30
0.0
 10
6.065832597
 20
7.8541497479
 30
0.0
 10
6.0632019726
 20
7.8559416439
 30
0.0
 10
6.0607570371
 20
7.8580810917
 30
0.0
 10
6.0586176427
 20
7.8605260699
 30
0.0
 10
6.0568258082
 20
7.8631567254
 30
0.0
 10
6.0554166074
 20
7.8658602183
 30
0.0
 10
6.0547252366
 20
7.8677186697
 30
0.0
 10
6.0544621309
 20
7.8686349156
 30
0.0
  0
LINE
  5
3F7
100
AcDbEntity
  8
0
100
AcDbLine
 62
9
  6
CONTINUOUS
 10
8.0233240846
 20
7.8517858258
 11
8.1787980185
 21
7.6968290997
  0
LINE
  5
3F8
100
AcDbEntity
  8
0
100
AcDbLine
 62
9
  6
CONTINUOUS
 10
8.1787980185
 20
7.6968290997
 11
8.1803635868
 21
7.6952684311
  0
LINE
  5
3F9
100
AcDbEntity
  8
0
100
AcDbLine
 62
9
  6
CONTINUOUS
 10
6.0936584257
 20
7.8853003027
 11
6.121845026
 21
7.8993673468
  0
LINE
  5
3FA
100
AcDbEntity
  8
0
100
AcDbLine
 62
9
  6
CONTINUOUS
 10
6.121845026
 20
7.8993673468
 11
6.1220834218
 21
7.8994863237
  0
LINE
  5
3FB
100
AcDbEntity
  8
0
100
AcDbLine
 62
9
  6
CONTINUOUS
 10
5.9142652266
 20
7.6952709385
 11
5.9158315881
 21
7.6968313649
  0
LINE
  5
3FC
100
AcDbEntity
  8
0
100
AcDbLine
 62
9
  6
CONTINUOUS
 10
5.9158315881
 20
7.6968313649
 11
6.0713092044
 21
7.8517871443
  0
LINE
  5
3FD
100
AcDbEntity
  8
0
100
AcDbLine
 62
9
  6
CONTINUOUS
 10
8.0009749573
 20
7.885298139
 11
8.023330877
 21
7.8517814637
  0
LINE
  5
3FE
100
AcDbEntity
  8
0
100
AcDbLine
 62
9
  6
CONTINUOUS
 10
8.0009674776
 20
9.8039813917
 11
8.0233254823
 21
9.8375004744
  0
SPLINE
  5
3FF
100
AcDbEntity
  8
0
100
AcDbSpline
 62
9
  6
CONTINUOUS
 70
0
 71
3
 72
15
 73
11
 74
0
 42
0.0000001
 43
0.0000001
 44
0.0000000001
 40
0.0
 40
0.0
 40
0.0
 40
0.0
 40
0.1154439862
 40
0.2392549697
 40
0.3684046423
 40
0.5000031258
 40
0.6316011191
 40
0.7607494558
 40
0.8845584564
 40
1.0
 40
1.0
 40
1.0
 40
1.0
 10
8.0233254823
 20
9.8375004744
 30
0.0
 10
8.0242417206
 20
9.8372373318
 30
0.0
 10
8.0261001475
 20
9.83654589
 30
0.0
 10
8.0288035869
 20
9.8351365937
 30
0.0
 10
8.0314341677
 20
9.8333446777
 30
0.0
 10
8.0338790519
 20
9.8312052217
 30
0.0
 10
8.03601839
 20
9.8287602488
 30
0.0
 10
8.0378101661
 20
9.8261296106
 30
0.0
 10
8.03921931
 20
9.8234261453
 30
0.0
 10
8.0399106455
 20
9.8215677176
 30
0.0
 10
8.0401737348
 20
9.8206514851
 30
0.0
  0
LINE
  5
400
100
AcDbEntity
  8
0
100
AcDbLine
 62
9
  6
CONTINUOUS
 10
8.0066631153
 20
9.7983003023
 11
8.0401798964
 21
9.820656084
  0
LINE
  5
401
100
AcDbEntity
  8
0
100
AcDbLine
 62
9
  6
CONTINUOUS
 10
8.0066563978
 20
7.8909938975
 11
8.0401752129
 21
7.8686360682
  0
SPLINE
  5
402
100
AcDbEntity
  8
0
100
AcDbSpline
 62
9
  6
CONTINUOUS
 70
0
 71
3
 72
15
 73
11
 74
0
 42
0.0000001
 43
0.0000001
 44
0.0000000001
 40
0.0
 40
0.0
 40
0.0
 40
0.0
 40
0.1154436901
 40
0.2392543945
 40
0.3684038528
 40
0.5000022345
 40
0.6316002671
 40
0.7607487718
 40
0.8845580577
 40
1.0
 40
1.0
 40
1.0
 40
1.0
 10
8.0401752129
 20
7.8686360682
 30
0.0
 10
8.0399120761
 20
7.8677198351
 30
0.0
 10
8.0392206479
 20
7.8658614174
 30
0.0
 10
8.0378113754
 20
7.8631579878
 30
0.0
 10
8.0360194856
 20
7.8605274117
 30
0.0
 10
8.0338800566
 20
7.8580825256
 30
0.0
 10
8.0314351101
 20
7.8559431775
 30
0.0
 10
8.0288044955
 20
7.8541513841
 30
0.0
 10
8.0261010491
 20
7.8527422172
 30
0.0
 10
8.0242426316
 20
7.852050863
 30
0.0
 10
8.0233264028
 20
7.8517877635
 30
0.0
  0
LINE
  5
403
100
AcDbEntity
  8
0
100
AcDbLine
 62
7
  6
CONTINUOUS
 10
17.9342043582
 20
9.2197753666
 11
17.9328663289
 21
9.2197748667
  0
LINE
  5
404
100
AcDbEntity
  8
0
100
AcDbLine
 62
7
  6
CONTINUOUS
 10
17.9328663289
 20
9.2197748667
 11
17.9314218214
 21
9.2197679691
  0
LINE
  5
405
100
AcDbEntity
  8
0
100
AcDbLine
 62
7
  6
CONTINUOUS
 10
17.9536374255
 20
8.4709805469
 11
17.935210858
 21
8.4727818346
  0
LINE
  5
406
100
AcDbEntity
  8
0
100
AcDbLine
 62
7
  6
CONTINUOUS
 10
17.9314218258
 20
8.4695181338
 11
17.9342043607
 21
8.4695107363
  0
SPLINE
  5
407
100
AcDbEntity
  8
0
100
AcDbSpline
 62
7
  6
CONTINUOUS
 70
0
 71
3
 72
9
 73
5
 74
0
 42
0.0000001
 43
0.0000001
 44
0.0000000001
 40
0.0
 40
0.0
 40
0.0
 40
0.0
 40
0.5
 40
1.0
 40
1.0
 40
1.0
 40
1.0
 10
13.8976567525
 20
9.9743146415
 30
0.0
 10
13.8974684172
 20
9.597798333
 30
0.0
 10
13.8972187523
 20
8.8446430515
 30
0.0
 10
13.8974684172
 20
8.09148777
 30
0.0
 10
13.8976567525
 20
7.7149714615
 30
0.0
  0
SPLINE
  5
408
100
AcDbEntity
  8
0
100
AcDbSpline
 62
7
  6
CONTINUOUS
 70
0
 71
3
 72
9
 73
5
 74
0
 42
0.0000001
 43
0.0000001
 44
0.0000000001
 40
0.0
 40
0.0
 40
0.0
 40
0.0
 40
0.4999999987
 40
1.0
 40
1.0
 40
1.0
 40
1.0
 10
13.9176467459
 20
7.6949814681
 30
0.0
 10
14.2941630533
 20
7.6947931318
 30
0.0
 10
15.0473183365
 20
7.6945434632
 30
0.0
 10
15.8004736343
 20
7.6947931318
 30
0.0
 10
16.1769899511
 20
7.6949814681
 30
0.0
  0
LINE
  5
409
100
AcDbEntity
  8
0
100
AcDbLine
 62
7
  6
CONTINUOUS
 10
16.1972683828
 20
9.1415011391
 11
16.1969799444
 21
9.974314642
  0
LINE
  5
40A
100
AcDbEntity
  8
0
100
AcDbLine
 62
7
  6
CONTINUOUS
 10
16.1969799444
 20
7.714971461
 11
16.1972683804
 21
8.5477704153
  0
SPLINE
  5
40B
100
AcDbEntity
  8
0
100
AcDbSpline
 62
7
  6
CONTINUOUS
 70
0
 71
3
 72
9
 73
5
 74
0
 42
0.0000001
 43
0.0000001
 44
0.0000000001
 40
0.0
 40
0.0
 40
0.0
 40
0.0
 40
0.5000000013
 40
1.0
 40
1.0
 40
1.0
 40
1.0
 10
16.1769899511
 20
9.9943046349
 30
0.0
 10
15.8004736343
 20
9.9944929712
 30
0.0
 10
15.0473183365
 20
9.9947426397
 30
0.0
 10
14.2941630533
 20
9.9944929712
 30
0.0
 10
13.9176467459
 20
9.9943046349
 30
0.0
  0
SPLINE
  5
40C
100
AcDbEntity
  8
0
100
AcDbSpline
 62
9
  6
CONTINUOUS
 70
0
 71
3
 72
19
 73
15
 74
0
 42
0.0000001
 43
0.0000001
 44
0.0000000001
 40
0.0
 40
0.0
 40
0.0
 40
0.0
 40
0.0626938324
 40
0.1253881258
 40
0.1880778684
 40
0.2507594812
 40
0.313429016
 40
0.376081859
 40
0.5013166305
 40
0.5638856234
 40
0.6264115613
 40
0.7512936955
 40
0.8758647127
 40
1.0
 40
1.0
 40
1.0
 40
1.0
 10
15.6458183616
 20
9.1046390645
 30
0.0
 10
15.6935647945
 20
9.1043442032
 30
0.0
 10
15.7890641347
 20
9.1045361546
 30
0.0
 10
15.9322883203
 20
9.1068677845
 30
0.0
 10
16.0754625099
 20
9.1109809033
 30
0.0
 10
16.2185642788
 20
9.1166332442
 30
0.0
 10
16.3615822638
 20
9.1235347062
 30
0.0
 10
16.552119235
 20
9.1340000237
 30
0.0
 10
16.7425089922
 20
9.1456809961
 30
0.0
 10
16.9327825422
 20
9.1576542795
 30
0.0
 10
17.1228017636
 20
9.1693898006
 30
0.0
 10
17.3600240761
 20
9.1828903186
 30
0.0
 10
17.6442978093
 20
9.1950942615
 30
0.0
 10
17.8336925969
 20
9.199163603
 30
0.0
 10
17.9282312486
 20
9.1998129443
 30
0.0
  0
SPLINE
  5
40D
100
AcDbEntity
  8
0
100
AcDbSpline
 62
9
  6
CONTINUOUS
 70
0
 71
3
 72
9
 73
5
 74
0
 42
0.0000001
 43
0.0000001
 44
0.0000000001
 40
0.0
 40
0.0
 40
0.0
 40
0.0
 40
0.2512856209
 40
1.0
 40
1.0
 40
1.0
 40
1.0
 10
17.9282312536
 20
9.1998129458
 30
0.0
 10
17.9287257046
 20
9.1981160602
 30
0.0
 10
17.9304738198
 20
9.1913026747
 30
0.0
 10
17.9313083088
 20
9.1842431365
 30
0.0
 10
17.9313145132
 20
9.1789769411
 30
0.0
  0
LINE
  5
40E
100
AcDbEntity
  8
0
100
AcDbLine
 62
9
  6
CONTINUOUS
 10
17.9518183194
 20
9.1789453584
 11
17.951804034
 21
8.8446430646
  0
SPLINE
  5
40F
100
AcDbEntity
  8
0
100
AcDbSpline
 62
9
  6
CONTINUOUS
 70
0
 71
3
 72
9
 73
5
 74
0
 42
0.0000001
 43
0.0000001
 44
0.0000000001
 40
0.0
 40
0.0
 40
0.0
 40
0.0
 40
0.4980743903
 40
1.0
 40
1.0
 40
1.0
 40
1.0
 10
17.9500669955
 20
9.2053906927
 30
0.0
 10
17.9510684457
 20
9.2010913965
 30
0.0
 10
17.9523947367
 20
9.1922857022
 30
0.0
 10
17.952274523
 20
9.1833764721
 30
0.0
 10
17.9518340657
 20
9.1789498067
 30
0.0
  0
SPLINE
  5
410
100
AcDbEntity
  8
0
100
AcDbSpline
 62
9
  6
CONTINUOUS
 70
0
 71
3
 72
14
 73
10
 74
0
 42
0.0000001
 43
0.0000001
 44
0.0000000001
 40
0.0
 40
0.0
 40
0.0
 40
0.0
 40
0.2490241316
 40
0.376561768
 40
0.5042204787
 40
0.6309491055
 40
0.7562364935
 40
0.8795700271
 40
1.0
 40
1.0
 40
1.0
 40
1.0
 10
17.9753214746
 20
9.2083640991
 30
0.0
 10
17.9745069347
 20
9.2098449157
 30
0.0
 10
17.9729573306
 20
9.2119232155
 30
0.0
 10
17.9704486221
 20
9.2142576242
 30
0.0
 10
17.9683409888
 20
9.2157799046
 30
0.0
 10
17.9660625941
 20
9.2170004465
 30
0.0
 10
17.9636669071
 20
9.2178881748
 30
0.0
 10
17.9612228897
 20
9.2184616328
 30
0.0
 10
17.9595742069
 20
9.2186458321
 30
0.0
 10
17.9587579595
 20
9.2186877792
 30
0.0
  0
SPLINE
  5
411
100
AcDbEntity
  8
0
100
AcDbSpline
 62
9
  6
CONTINUOUS
 70
0
 71
3
 72
14
 73
10
 74
0
 42
0.0000001
 43
0.0000001
 44
0.0000000001
 40
0.0
 40
0.0
 40
0.0
 40
0.0
 40
0.0533583505
 40
0.1347561271
 40
0.2441822809
 40
0.3773109455
 40
0.5280793846
 40
0.6878111938
 40
1.0
 40
1.0
 40
1.0
 40
1.0
 10
17.9500669744
 20
9.2053907081
 30
0.0
 10
17.9496679613
 20
9.2053499631
 30
0.0
 10
17.9486673563
 20
9.2051849579
 30
0.0
 10
17.946869023
 20
9.2048185058
 30
0.0
 10
17.9444962791
 20
9.2042692308
 30
0.0
 10
17.9416270302
 20
9.2035559436
 30
0.0
 10
17.9384019489
 20
9.202707509
 30
0.0
 10
17.9338878059
 20
9.2014699247
 30
0.0
 10
17.9304798022
 20
9.2004844604
 30
0.0
 10
17.9282312437
 20
9.1998129612
 30
0.0
  0
LINE
  5
412
100
AcDbEntity
  8
0
100
AcDbLine
 62
9
  6
CONTINUOUS
 10
14.121859674
 20
7.8992621462
 11
14.1318344271
 21
7.9120916312
  0
SPLINE
  5
413
100
AcDbEntity
  8
0
100
AcDbSpline
 62
9
  6
CONTINUOUS
 70
0
 71
3
 72
12
 73
8
 74
0
 42
0.0000001
 43
0.0000001
 44
0.0000000001
 40
0.0
 40
0.0
 40
0.0
 40
0.0
 40
0.1026695231
 40
0.2051855025
 40
0.4251378343
 40
0.6858978776
 40
1.0
 40
1.0
 40
1.0
 40
1.0
 10
17.9519202808
 20
9.2094208527
 30
0.0
 10
17.9519730783
 20
9.2092691833
 30
0.0
 10
17.9520471457
 20
9.2089538861
 30
0.0
 10
17.9520558938
 20
9.2082841013
 30
0.0
 10
17.9517772792
 20
9.2073926314
 30
0.0
 10
17.9510720705
 20
9.2063567697
 30
0.0
 10
17.9504339434
 20
9.2057174116
 30
0.0
 10
17.9500669955
 20
9.2053906927
 30
0.0
  0
SPLINE
  5
414
100
AcDbEntity
  8
0
100
AcDbSpline
 62
9
  6
CONTINUOUS
 70
0
 71
3
 72
14
 73
10
 74
0
 42
0.0000001
 43
0.0000001
 44
0.0000000001
 40
0.0
 40
0.0
 40
0.0
 40
0.0
 40
0.0524074408
 40
0.1230069375
 40
0.2143115446
 40
0.3280434269
 40
0.4648045075
 40
0.62395238
 40
1.0
 40
1.0
 40
1.0
 40
1.0
 10
14.4312583722
 20
8.9695071058
 30
0.0
 10
14.4310919083
 20
8.9692407606
 30
0.0
 10
14.4307936401
 20
8.9685596077
 30
0.0
 10
14.4304580536
 20
8.9673181013
 30
0.0
 10
14.4301830512
 20
8.9656870073
 30
0.0
 10
14.4299788696
 20
8.963647861
 30
0.0
 10
14.4298532005
 20
8.961195246
 30
0.0
 10
14.4297971917
 20
8.957167879
 30
0.0
 10
14.4298955429
 20
8.9539601846
 30
0.0
 10
14.4300012304
 20
8.9517089523
 30
0.0
  0
SPLINE
  5
415
100
AcDbEntity
  8
0
100
AcDbSpline
 62
9
  6
CONTINUOUS
 70
0
 71
3
 72
9
 73
5
 74
0
 42
0.0000001
 43
0.0000001
 44
0.0000000001
 40
0.0
 40
0.0
 40
0.0
 40
0.0
 40
0.4996749232
 40
1.0
 40
1.0
 40
1.0
 40
1.0
 10
14.5222743071
 20
8.5766571413
 30
0.0
 10
14.5198784901
 20
8.5825312279
 30
0.0
 10
14.5163186628
 20
8.5948356417
 30
0.0
 10
14.5157527921
 20
8.6076820324
 30
0.0
 10
14.5163516191
 20
8.6140058791
 30
0.0
  0
SPLINE
  5
416
100
AcDbEntity
  8
0
100
AcDbSpline
 62
9
  6
CONTINUOUS
 70
0
 71
3
 72
9
 73
5
 74
0
 42
0.0000001
 43
0.0000001
 44
0.0000000001
 40
0.0
 40
0.0
 40
0.0
 40
0.0
 40
0.2443688787
 40
1.0
 40
1.0
 40
1.0
 40
1.0
 10
14.5393335818
 20
8.5646716946
 30
0.0
 10
14.5387970586
 20
8.5647018049
 30
0.0
 10
14.5366077771
 20
8.5649202516
 30
0.0
 10
14.5344560529
 20
8.5655053498
 30
0.0
 10
14.5329177526
 20
8.566133568
 30
0.0
  0
SPLINE
  5
417
100
AcDbEntity
  8
0
100
AcDbSpline
 62
9
  6
CONTINUOUS
 70
0
 71
3
 72
9
 73
5
 74
0
 42
0.0000001
 43
0.0000001
 44
0.0000000001
 40
0.0
 40
0.0
 40
0.0
 40
0.0
 40
0.4993326381
 40
1.0
 40
1.0
 40
1.0
 40
1.0
 10
14.5329177526
 20
8.566133568
 30
0.0
 10
14.5317401495
 20
8.566614483
 30
0.0
 10
14.5294655791
 20
8.5678047152
 30
0.0
 10
14.5274885564
 20
8.5694419201
 30
0.0
 10
14.526586105
 20
8.5703431811
 30
0.0
  0
LINE
  5
418
100
AcDbEntity
  8
0
100
AcDbLine
 62
9
  6
CONTINUOUS
 10
14.5222743307
 20
8.5766570881
 11
14.5395442395
 21
8.5846430081
  0
SPLINE
  5
419
100
AcDbEntity
  8
0
100
AcDbSpline
 62
9
  6
CONTINUOUS
 70
0
 71
3
 72
16
 73
12
 74
0
 42
0.0000001
 43
0.0000001
 44
0.0000000001
 40
0.0
 40
0.0
 40
0.0
 40
0.0
 40
0.0078847418
 40
0.0218641172
 40
0.0723239642
 40
0.1537422247
 40
0.2659136437
 40
0.4081959895
 40
0.5791140805
 40
0.7769572409
 40
1.0
 40
1.0
 40
1.0
 40
1.0
 10
14.540346475
 20
8.5646430486
 30
0.0
 10
14.5403314883
 20
8.564643048
 30
0.0
 10
14.5402954604
 20
8.5646743492
 30
0.0
 10
14.5402416054
 20
8.5647983316
 30
0.0
 10
14.5401762583
 20
8.5650717682
 30
0.0
 10
14.5401068953
 20
8.5655287639
 30
0.0
 10
14.5400363506
 20
8.5661641577
 30
0.0
 10
14.5399684031
 20
8.5669695701
 30
0.0
 10
14.53990311
 20
8.5679388667
 30
0.0
 10
14.5398415738
 20
8.5690620272
 30
0.0
 10
14.5398055166
 20
8.5698612251
 30
0.0
 10
14.5397879962
 20
8.5702848068
 30
0.0
  0
LINE
  5
41A
100
AcDbEntity
  8
0
100
AcDbLine
 62
9
  6
CONTINUOUS
 10
14.5397879962
 20
8.5702848068
 11
14.5396089659
 21
8.5767715631
  0
LINE
  5
41B
100
AcDbEntity
  8
0
100
AcDbLine
 62
9
  6
CONTINUOUS
 10
14.5395442205
 20
8.5846430555
 11
15.6443700943
 21
8.5846450587
  0
SPLINE
  5
41C
100
AcDbEntity
  8
0
100
AcDbSpline
 62
7
  6
CONTINUOUS
 70
0
 71
3
 72
15
 73
11
 74
0
 42
0.0000001
 43
0.0000001
 44
0.0000000001
 40
0.0
 40
0.0
 40
0.0
 40
0.0
 40
0.0283141255
 40
0.0514487178
 40
0.0816280586
 40
0.119101286
 40
0.1639568701
 40
0.2758370824
 40
0.5857217001
 40
1.0
 40
1.0
 40
1.0
 40
1.0
 10
15.645818412
 20
8.5646430518
 30
0.0
 10
15.6457615628
 20
8.5646429703
 30
0.0
 10
15.6456746849
 20
8.564731001
 30
0.0
 10
15.6456000597
 20
8.5648706754
 30
0.0
 10
15.6455304985
 20
8.5650416087
 30
0.0
 10
15.6454632631
 20
8.5652566784
 30
0.0
 10
15.6453659376
 20
8.5656347293
 30
0.0
 10
15.645188488
 20
8.5665550414
 30
0.0
 10
15.6449830617
 20
8.5682224354
 30
0.0
 10
15.6448606188
 20
8.5696712599
 30
0.0
 10
15.6448009485
 20
8.5705009076
 30
0.0
  0
SPLINE
  5
41D
100
AcDbEntity
  8
0
100
AcDbSpline
 62
7
  6
CONTINUOUS
 70
0
 71
3
 72
10
 73
6
 74
0
 42
0.0000001
 43
0.0000001
 44
0.0000000001
 40
0.0
 40
0.0
 40
0.0
 40
0.0
 40
0.2144374892
 40
0.4590623621
 40
1.0
 40
1.0
 40
1.0
 40
1.0
 10
15.6448009485
 20
8.5705009076
 30
0.0
 10
15.6447283872
 20
8.5715097879
 30
0.0
 10
15.6446048239
 20
8.5736718755
 30
0.0
 10
15.6444278749
 20
8.5783856319
 30
0.0
 10
15.6443791913
 20
8.5820915147
 30
0.0
 10
15.6443795274
 20
8.5846430789
 30
0.0
  0
LINE
  5
41E
100
AcDbEntity
  8
0
100
AcDbLine
 62
9
  6
CONTINUOUS
 10
15.6443795274
 20
8.5846430789
 11
15.6458183592
 21
8.5846470385
  0
LINE
  5
41F
100
AcDbEntity
  8
0
100
AcDbLine
 62
9
  6
CONTINUOUS
 10
14.1217457489
 20
9.789968451
 11
14.0936559629
 21
9.8039863984
  0
SPLINE
  5
420
100
AcDbEntity
  8
0
100
AcDbSpline
 62
9
  6
CONTINUOUS
 70
0
 71
3
 72
14
 73
10
 74
0
 42
0.0000001
 43
0.0000001
 44
0.0000000001
 40
0.0
 40
0.0
 40
0.0
 40
0.0
 40
0.2490001568
 40
0.3765256193
 40
0.5041771382
 40
0.6309045563
 40
0.7561952817
 40
0.8795416043
 40
1.0
 40
1.0
 40
1.0
 40
1.0
 10
17.9753214744
 20
8.4809220039
 30
0.0
 10
17.9745081173
 20
8.4794433376
 30
0.0
 10
17.9729612215
 20
8.4773678402
 30
0.0
 10
17.9704571666
 20
8.4750357021
 30
0.0
 10
17.9683534853
 20
8.4735142629
 30
0.0
 10
17.9660793369
 20
8.4722933428
 30
0.0
 10
17.9636877217
 20
8.4714043371
 30
0.0
 10
17.9612473833
 20
8.4708288321
 30
0.0
 10
17.9596009035
 20
8.4706427745
 30
0.0
 10
17.9587856282
 20
8.4705997646
 30
0.0
  0
SPLINE
  5
421
100
AcDbEntity
  8
0
100
AcDbSpline
 62
9
  6
CONTINUOUS
 70
0
 71
3
 72
12
 73
8
 74
0
 42
0.0000001
 43
0.0000001
 44
0.0000000001
 40
0.0
 40
0.0
 40
0.0
 40
0.0
 40
0.3140952738
 40
0.5748333149
 40
0.7948011734
 40
0.8973377262
 40
1.0
 40
1.0
 40
1.0
 40
1.0
 10
17.950066994
 20
8.4838953957
 30
0.0
 10
17.9504338948
 20
8.4835686325
 30
0.0
 10
17.9510720351
 20
8.4829293664
 30
0.0
 10
17.9517774309
 20
8.4818936206
 30
0.0
 10
17.9520559627
 20
8.4810020661
 30
0.0
 10
17.952047116
 20
8.4803322356
 30
0.0
 10
17.9519730645
 20
8.4800169142
 30
0.0
 10
17.9519202808
 20
8.4798652503
 30
0.0
  0
SPLINE
  5
422
100
AcDbEntity
  8
0
100
AcDbSpline
 62
9
  6
CONTINUOUS
 70
0
 71
3
 72
14
 73
10
 74
0
 42
0.0000001
 43
0.0000001
 44
0.0000000001
 40
0.0
 40
0.0
 40
0.0
 40
0.0
 40
0.3121882814
 40
0.4719198528
 40
0.622688154
 40
0.7558168231
 40
0.8652431451
 40
0.9466412363
 40
1.0
 40
1.0
 40
1.0
 40
1.0
 10
17.9282312601
 20
8.4894731798
 30
0.0
 10
17.9304798133
 20
8.4888016834
 30
0.0
 10
17.9338878092
 20
8.4878162231
 30
0.0
 10
17.9384019425
 20
8.4865786434
 30
0.0
 10
17.9416270188
 20
8.4857302112
 30
0.0
 10
17.9444962658
 20
8.4850169254
 30
0.0
 10
17.9468690114
 20
8.4844676504
 30
0.0
 10
17.9486673498
 20
8.4841011969
 30
0.0
 10
17.9496679593
 20
8.4839361905
 30
0.0
 10
17.9500669751
 20
8.4838954443
 30
0.0
  0
SPLINE
  5
423
100
AcDbEntity
  8
0
100
AcDbSpline
 62
9
  6
CONTINUOUS
 70
0
 71
3
 72
14
 73
10
 74
0
 42
0.0000001
 43
0.0000001
 44
0.0000000001
 40
0.0
 40
0.0
 40
0.0
 40
0.0
 40
0.2452391039
 40
0.3724518585
 40
0.5002210727
 40
0.6274736544
 40
0.7538100559
 40
0.878435294
 40
1.0
 40
1.0
 40
1.0
 40
1.0
 10
17.9500669844
 20
8.483895445
 30
0.0
 10
17.9495668024
 20
8.4821224063
 30
0.0
 10
17.9484015685
 20
8.4795284493
 30
0.0
 10
17.9462270718
 20
8.4764559499
 30
0.0
 10
17.9442528424
 20
8.4743553018
 30
0.0
 10
17.9419800194
 20
8.4725914119
 30
0.0
 10
17.9394782496
 20
8.4712215099
 30
0.0
 10
17.9368486114
 20
8.470239457
 30
0.0
 10
17.9350357176
 20
8.4698385866
 30
0.0
 10
17.934132103
 20
8.4697066482
 30
0.0
  0
LINE
  5
424
100
AcDbEntity
  8
0
100
AcDbLine
 62
9
  6
CONTINUOUS
 10
17.934132103
 20
8.4697066482
 11
17.9315062189
 21
8.4695175349
  0
SPLINE
  5
425
100
AcDbEntity
  8
0
100
AcDbSpline
 62
9
  6
CONTINUOUS
 70
0
 71
3
 72
19
 73
15
 74
0
 42
0.0000001
 43
0.0000001
 44
0.0000000001
 40
0.0
 40
0.0
 40
0.0
 40
0.0
 40
0.1784121364
 40
0.3597483655
 40
0.5335940852
 40
0.6886163603
 40
0.7556714152
 40
0.8147502729
 40
0.865461435
 40
0.9074700182
 40
0.9407327108
 40
0.9661123303
 40
0.9850792306
 40
1.0
 40
1.0
 40
1.0
 40
1.0
 10
17.9282312395
 20
8.4894731798
 30
0.0
 10
17.9282202868
 20
8.4882433111
 30
0.0
 10
17.9282372161
 20
8.4857629345
 30
0.0
 10
17.9283802484
 20
8.4820864634
 30
0.0
 10
17.9286556189
 20
8.4785792357
 30
0.0
 10
17.9289918035
 20
8.4758689022
 30
0.0
 10
17.9293334955
 20
8.4739605807
 30
0.0
 10
17.929598949
 20
8.4727702713
 30
0.0
 10
17.9298798405
 20
8.4717615882
 30
0.0
 10
17.9301705596
 20
8.4709422222
 30
0.0
 10
17.9304690835
 20
8.4703137698
 30
0.0
 10
17.9307722474
 20
8.4698695386
 30
0.0
 10
17.9310813254
 20
8.4695921009
 30
0.0
 10
17.9313149043
 20
8.4695191657
 30
0.0
 10
17.9314177584
 20
8.4695181482
 30
0.0
  0
SPLINE
  5
426
100
AcDbEntity
  8
0
100
AcDbSpline
 62
9
  6
CONTINUOUS
 70
0
 71
3
 72
21
 73
17
 74
0
 42
0.0000001
 43
0.0000001
 44
0.0000000001
 40
0.0
 40
0.0
 40
0.0
 40
0.0
 40
0.0626937025
 40
0.1253878569
 40
0.1880774548
 40
0.2507589391
 40
0.3134283202
 40
0.3760810433
 40
0.501315564
 40
0.5638844103
 40
0.626410239
 40
0.6888833246
 40
0.7512925213
 40
0.8136244626
 40
0.8758646277
 40
1.0
 40
1.0
 40
1.0
 40
1.0
 10
15.6458183386
 20
8.5846470384
 30
0.0
 10
15.6935647643
 20
8.5849397839
 30
0.0
 10
15.7890640212
 20
8.5847465433
 30
0.0
 10
15.932288189
 20
8.5824194995
 30
0.0
 10
16.075462443
 20
8.5783107535
 30
0.0
 10
16.2185640617
 20
8.5726563266
 30
0.0
 10
16.3615816929
 20
8.5657489687
 30
0.0
 10
16.552118379
 20
8.555280414
 30
0.0
 10
16.7425085692
 20
8.5436073899
 30
0.0
 10
16.9327818472
 20
8.5316320815
 30
0.0
 10
17.0753613644
 20
8.5228272484
 30
0.0
 10
17.2178471995
 20
8.5144848707
 30
0.0
 10
17.3602269145
 20
8.5068831945
 30
0.0
 10
17.502480028
 20
8.5002806835
 30
0.0
 10
17.6917621225
 20
8.4931684586
 30
0.0
 10
17.8336924255
 20
8.4901309732
 30
0.0
 10
17.9282312392
 20
8.4894731443
 30
0.0
  0
SPLINE
  5
427
100
AcDbEntity
  8
0
100
AcDbSpline
 62
9
  6
CONTINUOUS
 70
0
 71
3
 72
9
 73
5
 74
0
 42
0.0000001
 43
0.0000001
 44
0.0000000001
 40
0.0
 40
0.0
 40
0.0
 40
0.0
 40
0.2490338764
 40
1.0
 40
1.0
 40
1.0
 40
1.0
 10
17.9313145158
 20
8.5103091619
 30
0.0
 10
17.9313124511
 20
8.5085573516
 30
0.0
 10
17.9310303674
 20
8.5015244789
 30
0.0
 10
17.9297090632
 20
8.4945448417
 30
0.0
 10
17.9282312517
 20
8.4894731421
 30
0.0
  0
LINE
  5
428
100
AcDbEntity
  8
0
100
AcDbLine
 62
9
  6
CONTINUOUS
 10
17.9313339402
 20
8.8446430515
 11
17.9313092836
 21
8.5103091637
  0
SPLINE
  5
429
100
AcDbEntity
  8
0
100
AcDbSpline
 62
9
  6
CONTINUOUS
 70
0
 71
3
 72
9
 73
5
 74
0
 42
0.0000001
 43
0.0000001
 44
0.0000000001
 40
0.0
 40
0.0
 40
0.0
 40
0.0
 40
0.501925295
 40
1.0
 40
1.0
 40
1.0
 40
1.0
 10
17.9518340657
 20
8.5103362963
 30
0.0
 10
17.9522745466
 20
8.505909633
 30
0.0
 10
17.9523947492
 20
8.4970003965
 30
0.0
 10
17.9510684818
 20
8.4881946892
 30
0.0
 10
17.950066994
 20
8.4838953957
 30
0.0
  0
LINE
  5
42A
100
AcDbEntity
  8
0
100
AcDbLine
 62
9
  6
CONTINUOUS
 10
17.9518761505
 20
8.8446430646
 11
17.9518340762
 21
8.5103362963
  0
SPLINE
  5
42B
100
AcDbEntity
  8
0
100
AcDbSpline
 62
9
  6
CONTINUOUS
 70
0
 71
3
 72
16
 73
12
 74
0
 42
0.0000001
 43
0.0000001
 44
0.0000000001
 40
0.0
 40
0.0
 40
0.0
 40
0.0
 40
0.1847187545
 40
0.3619090716
 40
0.5262588805
 40
0.6718042609
 40
0.7933013702
 40
0.8879484874
 40
0.9559815702
 40
0.9807706347
 40
1.0
 40
1.0
 40
1.0
 40
1.0
 10
18.0883730929
 20
8.9452133942
 30
0.0
 10
18.0885486608
 20
8.9469922499
 30
0.0
 10
18.0888777007
 20
8.9504789744
 30
0.0
 10
18.0892979688
 20
8.9555542667
 30
0.0
 10
18.0896182756
 20
8.9602570863
 30
0.0
 10
18.0898212588
 20
8.9644269123
 30
0.0
 10
18.0898983416
 20
8.9679269714
 30
0.0
 10
18.0898502934
 20
8.9706767658
 30
0.0
 10
18.0897115778
 20
8.9724887002
 30
0.0
 10
18.0895275297
 20
8.9735579035
 30
0.0
 10
18.0894188882
 20
8.9739709567
 30
0.0
 10
18.0893576152
 20
8.9741466593
 30
0.0
  0
SPLINE
  5
42C
100
AcDbEntity
  8
0
100
AcDbSpline
 62
9
  6
CONTINUOUS
 70
0
 71
3
 72
8
 73
4
 74
0
 42
0.0000001
 43
0.0000001
 44
0.0000000001
 40
0.0
 40
0.0
 40
0.0
 40
0.0
 40
1.0
 40
1.0
 40
1.0
 40
1.0
 10
18.0893576152
 20
8.9741466593
 30
0.0
 10
18.0909574874
 20
8.9712384922
 30
0.0
 10
18.0918351885
 20
8.9678214282
 30
0.0
 10
18.0918351885
 20
8.9645022376
 30
0.0
  0
SPLINE
  5
42D
100
AcDbEntity
  8
0
100
AcDbSpline
 62
9
  6
CONTINUOUS
 70
0
 71
3
 72
20
 73
16
 74
0
 42
0.0000001
 43
0.0000001
 44
0.0000000001
 40
0.0
 40
0.0
 40
0.0
 40
0.0
 40
0.2065914023
 40
0.4041623314
 40
0.5854055213
 40
0.7400125959
 40
0.8041061398
 40
0.8587799478
 40
0.9040364819
 40
0.9398832423
 40
0.9664829694
 40
0.984600129
 40
0.9907876932
 40
0.9952555146
 40
1.0
 40
1.0
 40
1.0
 40
1.0
 10
18.0911788403
 20
8.9452133942
 30
0.0
 10
18.0911788406
 20
8.9465459098
 30
0.0
 10
18.0911838501
 20
8.9491527628
 30
0.0
 10
18.0912109215
 20
8.9529285625
 30
0.0
 10
18.0912612306
 20
8.9563687936
 30
0.0
 10
18.0913240235
 20
8.9589477539
 30
0.0
 10
18.0913913636
 20
8.9607097854
 30
0.0
 10
18.0914438318
 20
8.9617664183
 30
0.0
 10
18.0915004973
 20
8.9626405314
 30
0.0
 10
18.0915593338
 20
8.9633324081
 30
0.0
 10
18.0916217248
 20
8.9638493979
 30
0.0
 10
18.0916766342
 20
8.9641713832
 30
0.0
 10
18.0917282513
 20
8.9643530049
 30
0.0
 10
18.0917620672
 20
8.9644404362
 30
0.0
 10
18.0918045866
 20
8.9645022314
 30
0.0
 10
18.0918351885
 20
8.9645022376
 30
0.0
  0
SPLINE
  5
42E
100
AcDbEntity
  8
0
100
AcDbSpline
 62
9
  6
CONTINUOUS
 70
0
 71
3
 72
20
 73
16
 74
0
 42
0.0000001
 43
0.0000001
 44
0.0000000001
 40
0.0
 40
0.0
 40
0.0
 40
0.0
 40
0.004744355
 40
0.0092120495
 40
0.0153994972
 40
0.0335166053
 40
0.0601167655
 40
0.0959646032
 40
0.1412225073
 40
0.1958974982
 40
0.2599915577
 40
0.4145969837
 40
0.5958375467
 40
0.7934077141
 40
1.0
 40
1.0
 40
1.0
 40
1.0
 10
18.0986794731
 20
8.9645022376
 30
0.0
 10
18.0987100742
 20
8.9645022317
 30
0.0
 10
18.0987525942
 20
8.96444044
 30
0.0
 10
18.0987864099
 20
8.9643530107
 30
0.0
 10
18.0988380274
 20
8.9641713913
 30
0.0
 10
18.0988929368
 20
8.963849404
 30
0.0
 10
18.0989553282
 20
8.9633324048
 30
0.0
 10
18.099014165
 20
8.9626405095
 30
0.0
 10
18.0990708313
 20
8.961766373
 30
0.0
 10
18.0991233002
 20
8.9607097202
 30
0.0
 10
18.0991906404
 20
8.9589476882
 30
0.0
 10
18.0992534325
 20
8.9563687521
 30
0.0
 10
18.0993037399
 20
8.9529285533
 30
0.0
 10
18.0993308112
 20
8.9491527695
 30
0.0
 10
18.099335821
 20
8.9465459156
 30
0.0
 10
18.0993358213
 20
8.9452133942
 30
0.0
  0
SPLINE
  5
42F
100
AcDbEntity
  8
0
100
AcDbSpline
 62
9
  6
CONTINUOUS
 70
0
 71
3
 72
20
 73
16
 74
0
 42
0.0000001
 43
0.0000001
 44
0.0000000001
 40
0.0
 40
0.0
 40
0.0
 40
0.0
 40
0.2065914027
 40
0.4041623322
 40
0.5854055223
 40
0.740012597
 40
0.8041061409
 40
0.8587799489
 40
0.9040364828
 40
0.939883243
 40
0.9664829699
 40
0.9846001293
 40
0.9907876933
 40
0.9952555147
 40
1.0
 40
1.0
 40
1.0
 40
1.0
 10
18.0993358213
 20
8.7440727088
 30
0.0
 10
18.0993358211
 20
8.7427401932
 30
0.0
 10
18.0993308115
 20
8.7401333402
 30
0.0
 10
18.0993037401
 20
8.7363575404
 30
0.0
 10
18.099253431
 20
8.7329173093
 30
0.0
 10
18.0991906382
 20
8.7303383491
 30
0.0
 10
18.099123298
 20
8.7285763176
 30
0.0
 10
18.0990708298
 20
8.7275196846
 30
0.0
 10
18.0990141643
 20
8.7266455716
 30
0.0
 10
18.0989553278
 20
8.7259536949
 30
0.0
 10
18.0988929368
 20
8.7254367051
 30
0.0
 10
18.0988380274
 20
8.7251147198
 30
0.0
 10
18.0987864103
 20
8.7249330981
 30
0.0
 10
18.0987525944
 20
8.7248456668
 30
0.0
 10
18.0987100751
 20
8.7247838716
 30
0.0
 10
18.0986794731
 20
8.7247838654
 30
0.0
  0
SPLINE
  5
430
100
AcDbEntity
  8
0
100
AcDbSpline
 62
9
  6
CONTINUOUS
 70
0
 71
3
 72
20
 73
16
 74
0
 42
0.0000001
 43
0.0000001
 44
0.0000000001
 40
0.0
 40
0.0
 40
0.0
 40
0.0
 40
0.004744355
 40
0.0092120495
 40
0.0153994972
 40
0.0335166053
 40
0.0601167655
 40
0.0959646032
 40
0.1412225073
 40
0.1958974982
 40
0.2599915577
 40
0.4145969837
 40
0.5958375468
 40
0.7934077141
 40
1.0
 40
1.0
 40
1.0
 40
1.0
 10
18.0918351885
 20
8.7247838654
 30
0.0
 10
18.0918045874
 20
8.7247838713
 30
0.0
 10
18.0917620674
 20
8.724845663
 30
0.0
 10
18.0917282518
 20
8.7249330923
 30
0.0
 10
18.0916766343
 20
8.7251147117
 30
0.0
 10
18.0916217248
 20
8.725436699
 30
0.0
 10
18.0915593334
 20
8.7259536982
 30
0.0
 10
18.0915004966
 20
8.7266455935
 30
0.0
 10
18.0914438303
 20
8.72751973
 30
0.0
 10
18.0913913615
 20
8.7285763828
 30
0.0
 10
18.0913240212
 20
8.7303384148
 30
0.0
 10
18.0912612291
 20
8.7329173509
 30
0.0
 10
18.0912109217
 20
8.7363575497
 30
0.0
 10
18.0911838504
 20
8.7401333335
 30
0.0
 10
18.0911788406
 20
8.7427401874
 30
0.0
 10
18.0911788403
 20
8.7440727088
 30
0.0
  0
SPLINE
  5
431
100
AcDbEntity
  8
0
100
AcDbSpline
 62
9
  6
CONTINUOUS
 70
0
 71
3
 72
9
 73
5
 74
0
 42
0.0000001
 43
0.0000001
 44
0.0000000001
 40
0.0
 40
0.0
 40
0.0
 40
0.0
 40
0.2486265101
 40
1.0
 40
1.0
 40
1.0
 40
1.0
 10
18.0986794731
 20
8.9645022376
 30
0.0
 10
18.0986794731
 20
8.9650353352
 30
0.0
 10
18.0985885698
 20
8.9671787547
 30
0.0
 10
18.0981491237
 20
8.9693056716
 30
0.0
 10
18.0976421668
 20
8.9708349035
 30
0.0
  0
LINE
  5
432
100
AcDbEntity
  8
0
100
AcDbLine
 62
9
  6
CONTINUOUS
 10
18.0976421668
 20
8.9708349035
 11
18.0962018998
 21
8.9741466593
  0
SPLINE
  5
433
100
AcDbEntity
  8
0
100
AcDbSpline
 62
9
  6
CONTINUOUS
 70
0
 71
3
 72
15
 73
11
 74
0
 42
0.0000001
 43
0.0000001
 44
0.0000000001
 40
0.0
 40
0.0
 40
0.0
 40
0.0
 40
0.0242035832
 40
0.044218615
 40
0.0708267547
 40
0.1045765761
 40
0.1458780687
 40
0.2524830195
 40
0.5647555197
 40
1.0
 40
1.0
 40
1.0
 40
1.0
 10
15.6472302992
 20
9.1246391031
 30
0.0
 10
15.647181822
 20
9.124639359
 30
0.0
 10
15.6471057648
 20
9.1245666429
 30
0.0
 10
15.647039112
 20
9.1244464063
 30
0.0
 10
15.6469760613
 20
9.1242962217
 30
0.0
 10
15.6469141201
 20
9.124102728
 30
0.0
 10
15.6468218498
 20
9.1237503551
 30
0.0
 10
15.6466469873
 20
9.1228449299
 30
0.0
 10
15.6464406113
 20
9.1211452504
 30
0.0
 10
15.646315722
 20
9.1196532549
 30
0.0
 10
15.6462543873
 20
9.1187836542
 30
0.0
  0
SPLINE
  5
434
100
AcDbEntity
  8
0
100
AcDbSpline
 62
9
  6
CONTINUOUS
 70
0
 71
3
 72
10
 73
6
 74
0
 42
0.0000001
 43
0.0000001
 44
0.0000000001
 40
0.0
 40
0.0
 40
0.0
 40
0.0
 40
0.2249810669
 40
0.4775224729
 40
1.0
 40
1.0
 40
1.0
 40
1.0
 10
15.6462543873
 20
9.1187836542
 30
0.0
 10
15.6461797089
 20
9.117724869
 30
0.0
 10
15.6460544192
 20
9.115475252
 30
0.0
 10
15.645878041
 20
9.1107606208
 30
0.0
 10
15.6458250212
 20
9.1071039997
 30
0.0
 10
15.6458183382
 20
9.1046390645
 30
0.0
  0
SPLINE
  5
435
100
AcDbEntity
  8
0
100
AcDbSpline
 62
9
  6
CONTINUOUS
 70
0
 71
3
 72
9
 73
5
 74
0
 42
0.0000001
 43
0.0000001
 44
0.0000000001
 40
0.0
 40
0.0
 40
0.0
 40
0.0
 40
0.4880422023
 40
1.0
 40
1.0
 40
1.0
 40
1.0
 10
17.9315035979
 20
9.2197685561
 30
0.0
 10
17.9328405953
 20
9.2197748097
 30
0.0
 10
17.9355868965
 20
9.2194568151
 30
0.0
 10
17.9382047499
 20
9.2185758395
 30
0.0
 10
17.9394789051
 20
9.2179896497
 30
0.0
  0
SPLINE
  5
436
100
AcDbEntity
  8
0
100
AcDbSpline
 62
9
  6
CONTINUOUS
 70
0
 71
3
 72
11
 73
7
 74
0
 42
0.0000001
 43
0.0000001
 44
0.0000000001
 40
0.0
 40
0.0
 40
0.0
 40
0.0
 40
0.2516804122
 40
0.5055052912
 40
0.7575168234
 40
1.0
 40
1.0
 40
1.0
 40
1.0
 10
17.9394789051
 20
9.2179896497
 30
0.0
 10
17.9407698496
 20
9.2173957358
 30
0.0
 10
17.9432445828
 20
9.2159122088
 30
0.0
 10
17.946301033
 20
9.2128683362
 30
0.0
 10
17.9486355986
 20
9.2093165573
 30
0.0
 10
17.9496952712
 20
9.2067083667
 30
0.0
 10
17.9500669918
 20
9.2053907135
 30
0.0
  0
LINE
  5
437
100
AcDbEntity
  8
0
100
AcDbLine
 62
9
  6
CONTINUOUS
 10
15.6458183383
 20
9.1046390645
 11
15.6443318321
 21
9.104643079
  0
LINE
  5
438
100
AcDbEntity
  8
0
100
AcDbLine
 62
9
  6
CONTINUOUS
 10
15.9926304376
 20
9.7701972879
 11
16.0066583053
 21
9.7982989597
  0
SPLINE
  5
439
100
AcDbEntity
  8
0
100
AcDbSpline
 62
9
  6
CONTINUOUS
 70
0
 71
3
 72
15
 73
11
 74
0
 42
0.0000001
 43
0.0000001
 44
0.0000000001
 40
0.0
 40
0.0
 40
0.0
 40
0.0
 40
0.048321023
 40
0.1095043484
 40
0.1911091308
 40
0.2978484366
 40
0.4325638559
 40
0.5952220043
 40
0.7847779873
 40
1.0
 40
1.0
 40
1.0
 40
1.0
 10
17.931417765
 20
9.2197679413
 30
0.0
 10
17.9313161665
 20
9.2197669378
 30
0.0
 10
17.9310858666
 20
9.2196959869
 30
0.0
 10
17.9307801085
 20
9.2194251336
 30
0.0
 10
17.9304802163
 20
9.218991216
 30
0.0
 10
17.9301846811
 20
9.2183775104
 30
0.0
 10
17.9298966856
 20
9.2175770954
 30
0.0
 10
17.9296180808
 20
9.2165912414
 30
0.0
 10
17.9293542952
 20
9.2154272072
 30
0.0
 10
17.9292012615
 20
9.2145897111
 30
0.0
 10
17.9291274274
 20
9.2141432325
 30
0.0
  0
SPLINE
  5
43A
100
AcDbEntity
  8
0
100
AcDbSpline
 62
9
  6
CONTINUOUS
 70
0
 71
3
 72
11
 73
7
 74
0
 42
0.0000001
 43
0.0000001
 44
0.0000000001
 40
0.0
 40
0.0
 40
0.0
 40
0.0
 40
0.2241336881
 40
0.4765410417
 40
0.740337171
 40
1.0
 40
1.0
 40
1.0
 40
1.0
 10
17.9291274274
 20
9.2141432325
 30
0.0
 10
17.9289522269
 20
9.2130837881
 30
0.0
 10
17.9286660016
 20
9.2108170522
 30
0.0
 10
17.9283844726
 20
9.2072804245
 30
0.0
 10
17.9282376871
 20
9.2035652564
 30
0.0
 10
17.9282201595
 20
9.2010569497
 30
0.0
 10
17.9282312378
 20
9.1998129443
 30
0.0
  0
LINE
  5
43B
100
AcDbEntity
  8
0
100
AcDbLine
 62
9
  6
CONTINUOUS
 10
14.1019385806
 20
9.7701014411
 11
14.1147685255
 21
9.7601265342
  0
LINE
  5
43C
100
AcDbEntity
  8
0
100
AcDbLine
 62
9
  6
CONTINUOUS
 10
14.1217689982
 20
7.8993353404
 11
14.0936691935
 21
7.8853047992
  0
SPLINE
  5
43D
100
AcDbEntity
  8
0
100
AcDbSpline
 62
9
  6
CONTINUOUS
 70
0
 71
3
 72
11
 73
7
 74
0
 42
0.0000001
 43
0.0000001
 44
0.0000000001
 40
0.0
 40
0.0
 40
0.0
 40
0.0
 40
0.2646018281
 40
0.5088940018
 40
0.7480520397
 40
1.0
 40
1.0
 40
1.0
 40
1.0
 10
14.5222743071
 20
9.1126289619
 30
0.0
 10
14.5221692021
 20
9.1128459969
 30
0.0
 10
14.5220034009
 20
9.1132834407
 30
0.0
 10
14.5219193171
 20
9.1139678109
 30
0.0
 10
14.5220271343
 20
9.1146384102
 30
0.0
 10
14.5222216305
 20
9.1150483181
 30
0.0
 10
14.522343325
 20
9.1152430303
 30
0.0
  0
LINE
  5
43E
100
AcDbEntity
  8
0
100
AcDbLine
 62
9
  6
CONTINUOUS
 10
14.102012133
 20
9.7701896776
 11
14.0879803153
 21
9.7982921959
  0
LINE
  5
43F
100
AcDbEntity
  8
0
100
AcDbLine
 62
9
  6
CONTINUOUS
 10
15.9728897819
 20
7.8993183962
 11
16.0009793221
 21
7.8853001588
  0
LINE
  5
440
100
AcDbEntity
  8
0
100
AcDbLine
 62
9
  6
CONTINUOUS
 10
15.9727754311
 20
9.7900227988
 11
15.9628004725
 21
9.7771929934
  0
LINE
  5
441
100
AcDbEntity
  8
0
100
AcDbLine
 62
9
  6
CONTINUOUS
 10
15.9926265668
 20
7.9190935489
 11
16.006656192
 21
7.890993517
  0
SPLINE
  5
442
100
AcDbEntity
  8
0
100
AcDbSpline
 62
9
  6
CONTINUOUS
 70
0
 71
3
 72
8
 73
4
 74
0
 42
0.0000001
 43
0.0000001
 44
0.0000000001
 40
0.0
 40
0.0
 40
0.0
 40
0.0
 40
1.0
 40
1.0
 40
1.0
 40
1.0
 10
18.0918351885
 20
8.7247838654
 30
0.0
 10
18.0918351885
 20
8.7214646748
 30
0.0
 10
18.0909574874
 20
8.7180476108
 30
0.0
 10
18.0893576152
 20
8.7151394437
 30
0.0
  0
SPLINE
  5
443
100
AcDbEntity
  8
0
100
AcDbSpline
 62
9
  6
CONTINUOUS
 70
0
 71
3
 72
16
 73
12
 74
0
 42
0.0000001
 43
0.0000001
 44
0.0000000001
 40
0.0
 40
0.0
 40
0.0
 40
0.0
 40
0.0192286682
 40
0.0440162901
 40
0.1120425973
 40
0.2066874358
 40
0.328182582
 40
0.4737265605
 40
0.6380751823
 40
0.8152734068
 40
1.0
 40
1.0
 40
1.0
 40
1.0
 10
18.0893576152
 20
8.7151394437
 30
0.0
 10
18.0894188855
 20
8.7153151401
 30
0.0
 10
18.0895275275
 20
8.7157281715
 30
0.0
 10
18.0897115662
 20
8.7167972893
 30
0.0
 10
18.0898502779
 20
8.7186091215
 30
0.0
 10
18.0898983465
 20
8.721358809
 30
0.0
 10
18.0898212719
 20
8.724858814
 30
0.0
 10
18.0896182986
 20
8.7290285963
 30
0.0
 10
18.0892980093
 20
8.733731469
 30
0.0
 10
18.088877708
 20
8.7388069
 30
0.0
 10
18.0885486707
 20
8.7422937778
 30
0.0
 10
18.0883730929
 20
8.7440727088
 30
0.0
  0
LINE
  5
444
100
AcDbEntity
  8
0
100
AcDbLine
 62
9
  6
CONTINUOUS
 10
14.1019928589
 20
7.9190702166
 11
14.0879748312
 21
7.8909801919
  0
LINE
  5
445
100
AcDbEntity
  8
0
100
AcDbLine
 62
9
  6
CONTINUOUS
 10
18.0962018998
 20
8.7151394437
 11
18.0975065731
 21
8.7180557565
  0
LINE
  5
446
100
AcDbEntity
  8
0
100
AcDbLine
 62
9
  6
CONTINUOUS
 10
18.0983897492
 20
8.7214376144
 11
18.0986794731
 21
8.7247838654
  0
SPLINE
  5
447
100
AcDbEntity
  8
0
100
AcDbSpline
 62
9
  6
CONTINUOUS
 70
0
 71
3
 72
14
 73
10
 74
0
 42
0.0000001
 43
0.0000001
 44
0.0000000001
 40
0.0
 40
0.0
 40
0.0
 40
0.0
 40
0.3760383147
 40
0.5352747711
 40
0.6721219559
 40
0.7858990317
 40
0.8771955165
 40
0.9477174118
 40
1.0
 40
1.0
 40
1.0
 40
1.0
 10
14.430008318
 20
8.7377271493
 30
0.0
 10
14.4298999822
 20
8.7354572596
 30
0.0
 10
14.4297981576
 20
8.7322223932
 30
0.0
 10
14.4298508594
 20
8.7281603517
 30
0.0
 10
14.429975156
 20
8.7256858052
 30
0.0
 10
14.4301789683
 20
8.7236286811
 30
0.0
 10
14.4304544428
 20
8.7219839054
 30
0.0
 10
14.430791154
 20
8.7207329115
 30
0.0
 10
14.4310909181
 20
8.7200469264
 30
0.0
 10
14.4312583722
 20
8.7197789972
 30
0.0
  0
SPLINE
  5
448
100
AcDbEntity
  8
0
100
AcDbSpline
 62
9
  6
CONTINUOUS
 70
0
 71
3
 72
11
 73
7
 74
0
 42
0.0000001
 43
0.0000001
 44
0.0000000001
 40
0.0
 40
0.0
 40
0.0
 40
0.0
 40
0.2519480766
 40
0.4911064641
 40
0.7353983268
 40
1.0
 40
1.0
 40
1.0
 40
1.0
 10
14.522343325
 20
8.5740430727
 30
0.0
 10
14.5222216302
 20
8.5742377849
 30
0.0
 10
14.5220271343
 20
8.5746476934
 30
0.0
 10
14.5219193169
 20
8.5753182928
 30
0.0
 10
14.5220034013
 20
8.5760026629
 30
0.0
 10
14.5221692021
 20
8.5764401064
 30
0.0
 10
14.5222743071
 20
8.5766571413
 30
0.0
  0
LINE
  5
449
100
AcDbEntity
  8
0
100
AcDbLine
 62
9
  6
CONTINUOUS
 10
15.9926992339
 20
7.9191853287
 11
15.9798684088
 21
7.9291608699
  0
SPLINE
  5
44A
100
AcDbEntity
  8
0
100
AcDbSpline
 62
9
  6
CONTINUOUS
 70
0
 71
3
 72
9
 73
5
 74
0
 42
0.0000001
 43
0.0000001
 44
0.0000000001
 40
0.0
 40
0.0
 40
0.0
 40
0.0
 40
0.2433647054
 40
1.0
 40
1.0
 40
1.0
 40
1.0
 10
14.5222744008
 20
9.1126291795
 30
0.0
 10
14.5225198649
 20
9.1132010109
 30
0.0
 10
14.5236477082
 20
9.1154979967
 30
0.0
 10
14.5252171421
 20
9.1175757657
 30
0.0
 10
14.5265861084
 20
9.1189429255
 30
0.0
  0
SPLINE
  5
44B
100
AcDbEntity
  8
0
100
AcDbSpline
 62
9
  6
CONTINUOUS
 70
0
 71
3
 72
9
 73
5
 74
0
 42
0.0000001
 43
0.0000001
 44
0.0000000001
 40
0.0
 40
0.0
 40
0.0
 40
0.0
 40
0.5006673576
 40
1.0
 40
1.0
 40
1.0
 40
1.0
 10
14.5265861084
 20
9.1189429255
 30
0.0
 10
14.5274885578
 20
9.119844184
 30
0.0
 10
14.5294655755
 20
9.1214813846
 30
0.0
 10
14.5317401395
 20
9.122671615
 30
0.0
 10
14.5329177394
 20
9.1231525297
 30
0.0
  0
SPLINE
  5
44C
100
AcDbEntity
  8
0
100
AcDbSpline
 62
9
  6
CONTINUOUS
 70
0
 71
3
 72
9
 73
5
 74
0
 42
0.0000001
 43
0.0000001
 44
0.0000000001
 40
0.0
 40
0.0
 40
0.0
 40
0.0
 40
0.2553627368
 40
1.0
 40
1.0
 40
1.0
 40
1.0
 10
14.5329177394
 20
9.1231525297
 30
0.0
 10
14.5334376097
 20
9.1233648372
 30
0.0
 10
14.5355071714
 20
9.1241104489
 30
0.0
 10
14.5376986883
 20
9.1245226577
 30
0.0
 10
14.5393335977
 20
9.1246144093
 30
0.0
  0
SPLINE
  5
44D
100
AcDbEntity
  8
0
100
AcDbSpline
 62
9
  6
CONTINUOUS
 70
0
 71
3
 72
18
 73
14
 74
0
 42
0.0000001
 43
0.0000001
 44
0.0000000001
 40
0.0
 40
0.0
 40
0.0
 40
0.0
 40
0.2040723238
 40
0.3917238786
 40
0.559361666
 40
0.7037133279
 40
0.8220494088
 40
0.8706324575
 40
0.9117611245
 40
0.9453042476
 40
0.9711827856
 40
0.9893640635
 40
1.0
 40
1.0
 40
1.0
 40
1.0
 10
14.5396036418
 20
9.1121969611
 30
0.0
 10
14.5396174895
 20
9.1130446644
 30
0.0
 10
14.5396493209
 20
9.1146717827
 30
0.0
 10
14.5397121901
 20
9.1169948152
 30
0.0
 10
14.5397870128
 20
9.1190692671
 30
0.0
 10
14.5398724344
 20
9.1208550282
 30
0.0
 10
14.5399544624
 20
9.1221457487
 30
0.0
 10
14.5400269977
 20
9.123006999
 30
0.0
 10
14.5400791427
 20
9.1235165835
 30
0.0
 10
14.5401324488
 20
9.1239305636
 30
0.0
 10
14.5401851672
 20
9.1242497494
 30
0.0
 10
14.5402385246
 20
9.124468774
 30
0.0
 10
14.5402798036
 20
9.1245848823
 30
0.0
 10
14.5403076867
 20
9.1246191608
 30
0.0
  0
LINE
  5
44E
100
AcDbEntity
  8
0
100
AcDbLine
 62
9
  6
CONTINUOUS
 10
16.0402227958
 20
7.8686334743
 11
16.0418807085
 21
8.5525389947
  0
LINE
  5
44F
100
AcDbEntity
  8
0
100
AcDbLine
 62
9
  6
CONTINUOUS
 10
16.1966904767
 20
7.7115899879
 11
16.1951300618
 21
7.7131563514
  0
LINE
  5
450
100
AcDbEntity
  8
0
100
AcDbLine
 62
9
  6
CONTINUOUS
 10
16.1951300618
 20
7.7131563514
 11
16.0401751359
 21
7.868633637
  0
LINE
  5
451
100
AcDbEntity
  8
0
100
AcDbLine
 62
9
  6
CONTINUOUS
 10
13.9142651862
 20
7.695270818
 11
13.915831643
 21
7.696831336
  0
LINE
  5
452
100
AcDbEntity
  8
0
100
AcDbLine
 62
9
  6
CONTINUOUS
 10
13.915831643
 20
7.696831336
 11
14.0713096231
 21
7.8517870555
  0
SPLINE
  5
453
100
AcDbEntity
  8
0
100
AcDbSpline
 62
9
  6
CONTINUOUS
 70
0
 71
3
 72
14
 73
10
 74
0
 42
0.0000001
 43
0.0000001
 44
0.0000000001
 40
0.0
 40
0.0
 40
0.0
 40
0.0
 40
0.1108689741
 40
0.23092564
 40
0.4874961432
 40
0.6201032361
 40
0.7519611505
 40
0.8797083753
 40
1.0
 40
1.0
 40
1.0
 40
1.0
 10
15.9627985432
 20
9.7771917004
 30
0.0
 10
15.9636965923
 20
9.7769511669
 30
0.0
 10
15.9655313709
 20
9.7763093026
 30
0.0
 10
15.9691982803
 20
9.7744891226
 30
0.0
 10
15.9726624608
 20
9.7718956231
 30
0.0
 10
15.9755684593
 20
9.7686192387
 30
0.0
 10
15.9774322521
 20
9.7658986466
 30
0.0
 10
15.9789004467
 20
9.7630629636
 30
0.0
 10
15.9796065293
 20
9.7610969887
 30
0.0
 10
15.9798674965
 20
9.7601226128
 30
0.0
  0
SPLINE
  5
454
100
AcDbEntity
  8
0
100
AcDbSpline
 62
9
  6
CONTINUOUS
 70
0
 71
3
 72
18
 73
14
 74
0
 42
0.0000001
 43
0.0000001
 44
0.0000000001
 40
0.0
 40
0.0
 40
0.0
 40
0.0
 40
0.1997790734
 40
0.383035464
 40
0.5472723599
 40
0.6898427681
 40
0.8081886226
 40
0.8576280246
 40
0.9002573701
 40
0.9358693535
 40
0.9643904833
 40
0.9857807089
 40
1.0
 40
1.0
 40
1.0
 40
1.0
 10
15.9627490458
 20
9.7771423876
 30
0.0
 10
15.9191189612
 20
9.7336749493
 30
0.0
 10
15.8354583893
 20
9.6503438885
 30
0.0
 10
15.7158995026
 20
9.5313090391
 30
0.0
 10
15.6088126235
 20
9.4247435027
 30
0.0
 10
15.5158934071
 20
9.3323093474
 30
0.0
 10
15.4480570699
 20
9.2648404362
 30
0.0
 10
15.4020707463
 20
9.2190926243
 30
0.0
 10
15.3741710867
 20
9.1913274818
 30
0.0
 10
15.3508505788
 20
9.1681028642
 30
0.0
 10
15.3321786567
 20
9.1494892175
 30
0.0
 10
15.3181892822
 20
9.1355195709
 30
0.0
 10
15.3104314316
 20
9.1277527172
 30
0.0
 10
15.3073412481
 20
9.1246437454
 30
0.0
  0
SPLINE
  5
455
100
AcDbEntity
  8
0
100
AcDbSpline
 62
9
  6
CONTINUOUS
 70
0
 71
3
 72
18
 73
14
 74
0
 42
0.0000001
 43
0.0000001
 44
0.0000000001
 40
0.0
 40
0.0
 40
0.0
 40
0.0
 40
0.0142162837
 40
0.0356018703
 40
0.0641170267
 40
0.0997219997
 40
0.1423436404
 40
0.191775167
 40
0.3101070342
 40
0.4526704836
 40
0.6169164252
 40
0.80020055
 40
1.0
 40
1.0
 40
1.0
 40
1.0
 10
14.7872959481
 20
9.1246432623
 30
0.0
 10
14.7842064598
 20
9.1277516186
 30
0.0
 10
14.7764503415
 20
9.1355168728
 30
0.0
 10
14.7624640102
 20
9.149483628
 30
0.0
 10
14.7437959822
 20
9.1680934903
 30
0.0
 10
14.7204800036
 20
9.191313623
 30
0.0
 10
14.6925852434
 20
9.2190738222
 30
0.0
 10
14.6466052897
 20
9.2648151236
 30
0.0
 10
14.5787751191
 20
9.3322776508
 30
0.0
 10
14.4858584623
 20
9.4247091984
 30
0.0
 10
14.3787651172
 20
9.5312812945
 30
0.0
 10
14.2591938727
 20
9.6503287323
 30
0.0
 10
14.1755228682
 20
9.7336703547
 30
0.0
 10
14.1318883602
 20
9.7771422632
 30
0.0
  0
LINE
  5
456
100
AcDbEntity
  8
0
100
AcDbLine
 62
9
  6
CONTINUOUS
 10
14.7513805641
 20
9.1205844952
 11
14.1147704136
 21
9.7601240129
  0
SPLINE
  5
457
100
AcDbEntity
  8
0
100
AcDbSpline
 62
9
  6
CONTINUOUS
 70
0
 71
3
 72
14
 73
10
 74
0
 42
0.0000001
 43
0.0000001
 44
0.0000000001
 40
0.0
 40
0.0
 40
0.0
 40
0.0
 40
0.1202931261
 40
0.2480411728
 40
0.3798993609
 40
0.5125062902
 40
0.7690755537
 40
0.8891314931
 40
1.0
 40
1.0
 40
1.0
 40
1.0
 10
14.1147704136
 20
9.7601240129
 30
0.0
 10
14.1150313983
 20
9.7610983326
 30
0.0
 10
14.1157374975
 20
9.7630641842
 30
0.0
 10
14.1172056767
 20
9.7658996766
 30
0.0
 10
14.1190694113
 20
9.7686200699
 30
0.0
 10
14.121975274
 20
9.7718961987
 30
0.0
 10
14.1254392451
 20
9.7744894951
 30
0.0
 10
14.1291059171
 20
9.7763095371
 30
0.0
 10
14.1309405727
 20
9.7769513563
 30
0.0
 10
14.131838562
 20
9.7771918758
 30
0.0
  0
LINE
  5
458
100
AcDbEntity
  8
0
100
AcDbLine
 62
9
  6
CONTINUOUS
 10
14.7506239268
 20
8.5679452673
 11
14.1148190505
 21
7.9292127191
  0
SPLINE
  5
459
100
AcDbEntity
  8
0
100
AcDbSpline
 62
9
  6
CONTINUOUS
 70
0
 71
3
 72
16
 73
12
 74
0
 42
0.0000001
 43
0.0000001
 44
0.0000000001
 40
0.0
 40
0.0
 40
0.0
 40
0.0
 40
0.0142141476
 40
0.0356026057
 40
0.0641491557
 40
0.0997940194
 40
0.1918576619
 40
0.3102455549
 40
0.4527755222
 40
0.6170433207
 40
1.0
 40
1.0
 40
1.0
 40
1.0
 10
14.7872961027
 20
8.5646427178
 30
0.0
 10
14.7842051142
 20
8.5615363086
 30
0.0
 10
14.7764484702
 20
8.5537700811
 30
0.0
 10
14.7624556893
 20
8.5397936177
 30
0.0
 10
14.7437707681
 20
8.5211654593
 30
0.0
 10
14.7096346435
 20
8.4871739993
 30
0.0
 10
14.6558460641
 20
8.4336640668
 30
0.0
 10
14.5786880459
 20
8.3569215076
 30
0.0
 10
14.4857540509
 20
8.2644737411
 30
0.0
 10
14.3350205903
 20
8.1144727995
 30
0.0
 10
14.2154818773
 20
7.9954202583
 30
0.0
 10
14.1318372738
 20
7.9120947478
 30
0.0
  0
SPLINE
  5
45A
100
AcDbEntity
  8
0
100
AcDbSpline
 62
9
  6
CONTINUOUS
 70
0
 71
3
 72
14
 73
10
 74
0
 42
0.0000001
 43
0.0000001
 44
0.0000000001
 40
0.0
 40
0.0
 40
0.0
 40
0.0
 40
0.1202931301
 40
0.2480411735
 40
0.3798993535
 40
0.5125062738
 40
0.7690755323
 40
0.8891314784
 40
1.0
 40
1.0
 40
1.0
 40
1.0
 10
14.1318372738
 20
7.9120947478
 30
0.0
 10
14.1308629547
 20
7.9123557346
 30
0.0
 10
14.1288971046
 20
7.9130618378
 30
0.0
 10
14.1260616153
 20
7.9145300227
 30
0.0
 10
14.123341226
 20
7.9163937627
 30
0.0
 10
14.1200651035
 20
7.919299632
 30
0.0
 10
14.1174718146
 20
7.9227636086
 30
0.0
 10
14.1156517811
 20
7.9264302848
 30
0.0
 10
14.1150099663
 20
7.9282649421
 30
0.0
 10
14.114769449
 20
7.9291629321
 30
0.0
  0
SPLINE
  5
45B
100
AcDbEntity
  8
0
100
AcDbSpline
 62
9
  6
CONTINUOUS
 70
0
 71
3
 72
18
 73
14
 74
0
 42
0.0000001
 43
0.0000001
 44
0.0000000001
 40
0.0
 40
0.0
 40
0.0
 40
0.0
 40
0.014216221
 40
0.0356010028
 40
0.0641152074
 40
0.0997196763
 40
0.1423416719
 40
0.1917741627
 40
0.3101082012
 40
0.4526721721
 40
0.6169174359
 40
0.8002008184
 40
1.0
 40
1.0
 40
1.0
 40
1.0
 10
15.3073408018
 20
8.5646427726
 30
0.0
 10
15.3104305423
 20
8.5615342216
 30
0.0
 10
15.3181870821
 20
8.5537685798
 30
0.0
 10
15.332174089
 20
8.5398011548
 30
0.0
 10
15.3508430417
 20
8.521190351
 30
0.0
 10
15.3741605644
 20
8.4979686824
 30
0.0
 10
15.4020576636
 20
8.4702062091
 30
0.0
 10
15.4480419515
 20
8.4244607034
 30
0.0
 10
15.5158781629
 20
8.3569922724
 30
0.0
 10
15.6088023121
 20
8.2645531586
 30
0.0
 10
15.7159036228
 20
8.1579730737
 30
0.0
 10
15.8354837545
 20
8.0389170047
 30
0.0
 10
15.9191609887
 20
7.9555692758
 30
0.0
 10
15.9627987718
 20
7.9120940955
 30
0.0
  0
LINE
  5
45C
100
AcDbEntity
  8
0
100
AcDbLine
 62
9
  6
CONTINUOUS
 10
15.3432593929
 20
8.5686983289
 11
15.9798669464
 21
7.9291624206
  0
SPLINE
  5
45D
100
AcDbEntity
  8
0
100
AcDbSpline
 62
9
  6
CONTINUOUS
 70
0
 71
3
 72
14
 73
10
 74
0
 42
0.0000001
 43
0.0000001
 44
0.0000000001
 40
0.0
 40
0.0
 40
0.0
 40
0.0
 40
0.1202927447
 40
0.2480405711
 40
0.3798986735
 40
0.5125056296
 40
0.7690752024
 40
0.8891313426
 40
1.0
 40
1.0
 40
1.0
 40
1.0
 10
15.9798669464
 20
7.9291624206
 30
0.0
 10
15.9796059689
 20
7.9281880867
 30
0.0
 10
15.9788998794
 20
7.9262222036
 30
0.0
 10
15.9774317043
 20
7.9233866615
 30
0.0
 10
15.9755679629
 20
7.9206662157
 30
0.0
 10
15.9726620755
 20
7.9173900181
 30
0.0
 10
15.9691980595
 20
7.9147966644
 30
0.0
 10
15.9655313337
 20
7.9129765806
 30
0.0
 10
15.9636966493
 20
7.9123347461
 30
0.0
 10
15.9627986458
 20
7.9120942211
 30
0.0
  0
LINE
  5
45E
100
AcDbEntity
  8
0
100
AcDbLine
 62
9
  6
CONTINUOUS
 10
15.9816805131
 20
8.5630574164
 11
15.9816669104
 21
8.5543872711
  0
LINE
  5
45F
100
AcDbEntity
  8
0
100
AcDbLine
 62
9
  6
CONTINUOUS
 10
15.9816669104
 20
8.5543872711
 11
15.9798199798
 21
7.9291654343
  0
LINE
  5
460
100
AcDbEntity
  8
0
100
AcDbLine
 62
9
  6
CONTINUOUS
 10
15.3438948348
 20
9.1212744046
 11
15.9798680171
 21
9.7601233354
  0
LINE
  5
461
100
AcDbEntity
  8
0
100
AcDbLine
 62
9
  6
CONTINUOUS
 10
15.9798165354
 20
9.7601231238
 11
15.9816635082
 21
9.1348909663
  0
LINE
  5
462
100
AcDbEntity
  8
0
100
AcDbLine
 62
9
  6
CONTINUOUS
 10
15.9816635082
 20
9.1348909663
 11
15.9816771884
 21
9.12617064
  0
LINE
  5
463
100
AcDbEntity
  8
0
100
AcDbLine
 62
9
  6
CONTINUOUS
 10
15.9798661316
 20
9.7601218651
 11
15.9927018731
 21
9.7701023885
  0
SPLINE
  5
464
100
AcDbEntity
  8
0
100
AcDbSpline
 62
7
  6
CONTINUOUS
 70
0
 71
3
 72
15
 73
11
 74
0
 42
0.0000001
 43
0.0000001
 44
0.0000000001
 40
0.0
 40
0.0
 40
0.0
 40
0.0
 40
0.0283567026
 40
0.0515125423
 40
0.08170969
 40
0.1191968094
 40
0.1640622641
 40
0.275950178
 40
0.5858039311
 40
1.0
 40
1.0
 40
1.0
 40
1.0
 10
15.6458182634
 20
9.1246430516
 30
0.0
 10
15.6457613164
 20
9.1246431334
 30
0.0
 10
15.6456742324
 20
9.1245551748
 30
0.0
 10
15.6455991291
 20
9.124415515
 30
0.0
 10
15.6455290753
 20
9.1242446312
 30
0.0
 10
15.6454612186
 20
9.1240296165
 30
0.0
 10
15.6453628387
 20
9.1236516874
 30
0.0
 10
15.6451828731
 20
9.1227316847
 30
0.0
 10
15.6449729343
 20
9.1210647055
 30
0.0
 10
15.6448462582
 20
9.1196161645
 30
0.0
 10
15.6447840495
 20
9.1187866894
 30
0.0
  0
SPLINE
  5
465
100
AcDbEntity
  8
0
100
AcDbSpline
 62
7
  6
CONTINUOUS
 70
0
 71
3
 72
9
 73
5
 74
0
 42
0.0000001
 43
0.0000001
 44
0.0000000001
 40
0.0
 40
0.0
 40
0.0
 40
0.0
 40
0.459066108
 40
1.0
 40
1.0
 40
1.0
 40
1.0
 10
15.6447840495
 20
9.1187866894
 30
0.0
 10
15.6446220804
 20
9.1166270354
 30
0.0
 10
15.6444048375
 20
9.1119126895
 30
0.0
 10
15.6443344297
 20
9.1071950215
 30
0.0
 10
15.6443318321
 20
9.104643079
 30
0.0
  0
LINE
  5
466
100
AcDbEntity
  8
0
100
AcDbLine
 62
9
  6
CONTINUOUS
 10
16.0233236604
 20
7.8517859881
 11
16.178798154
 21
7.6968290311
  0
LINE
  5
467
100
AcDbEntity
  8
0
100
AcDbLine
 62
9
  6
CONTINUOUS
 10
16.178798154
 20
7.6968290311
 11
16.1803637205
 21
7.695268363
  0
SPLINE
  5
468
100
AcDbEntity
  8
0
100
AcDbSpline
 62
9
  6
CONTINUOUS
 70
0
 71
3
 72
16
 73
12
 74
0
 42
0.0000001
 43
0.0000001
 44
0.0000000001
 40
0.0
 40
0.0
 40
0.0
 40
0.0
 40
0.0330667254
 40
0.0573851953
 40
0.0882440184
 40
0.1708951223
 40
0.2822549894
 40
0.4221983787
 40
0.5895321675
 40
0.7826869282
 40
1.0
 40
1.0
 40
1.0
 40
1.0
 10
15.6474159519
 20
8.564647514
 30
0.0
 10
15.6473489381
 20
8.5646471865
 30
0.0
 10
15.6472409538
 20
8.5647261862
 30
0.0
 10
15.6471439443
 20
8.5648729109
 30
0.0
 10
15.6470199488
 20
8.5651255501
 30
0.0
 10
15.6468842056
 20
8.5655615066
 30
0.0
 10
15.6467390573
 20
8.5662231191
 30
0.0
 10
15.6466076401
 20
8.5670616379
 30
0.0
 10
15.6464865179
 20
8.5680686984
 30
0.0
 10
15.6463753075
 20
8.5692344902
 30
0.0
 10
15.6463102735
 20
8.5700638463
 30
0.0
 10
15.64627834
 20
8.5705031037
 30
0.0
  0
SPLINE
  5
469
100
AcDbEntity
  8
0
100
AcDbSpline
 62
9
  6
CONTINUOUS
 70
0
 71
3
 72
9
 73
5
 74
0
 42
0.0000001
 43
0.0000001
 44
0.0000000001
 40
0.0
 40
0.0
 40
0.0
 40
0.0
 40
0.4590570356
 40
1.0
 40
1.0
 40
1.0
 40
1.0
 10
15.64627834
 20
8.5705031037
 30
0.0
 10
15.6461213075
 20
8.5726631446
 30
0.0
 10
15.6458992668
 20
8.5773771723
 30
0.0
 10
15.6458252341
 20
8.5820949845
 30
0.0
 10
15.6458183592
 20
8.5846470385
 30
0.0
  0
LINE
  5
46A
100
AcDbEntity
  8
0
100
AcDbLine
 62
9
  6
CONTINUOUS
 10
14.1318371438
 20
9.7771962297
 11
14.1218589557
 21
9.7900282456
  0
SPLINE
  5
46B
100
AcDbEntity
  8
0
100
AcDbSpline
 62
9
  6
CONTINUOUS
 70
0
 71
3
 72
11
 73
7
 74
0
 42
0.0000001
 43
0.0000001
 44
0.0000000001
 40
0.0
 40
0.0
 40
0.0
 40
0.0
 40
0.2503736671
 40
0.5004516371
 40
0.7503136656
 40
1.0
 40
1.0
 40
1.0
 40
1.0
 10
14.5163516191
 20
9.0752802239
 30
0.0
 10
14.5160516373
 20
9.078450588
 30
0.0
 10
14.5158933396
 20
9.0848365278
 30
0.0
 10
14.5168811595
 20
9.0943516386
 30
0.0
 10
14.5189887121
 20
9.1036713106
 30
0.0
 10
14.5210749664
 20
9.1096883538
 30
0.0
 10
14.5222743071
 20
9.1126289619
 30
0.0
  0
LINE
  5
46C
100
AcDbEntity
  8
0
100
AcDbLine
 62
9
  6
CONTINUOUS
 10
14.0544610279
 20
7.8686370812
 11
13.8995043738
 21
7.7131633879
  0
LINE
  5
46D
100
AcDbEntity
  8
0
100
AcDbLine
 62
9
  6
CONTINUOUS
 10
13.8995043738
 20
7.7131633879
 11
13.8979437134
 21
7.7115978283
  0
LINE
  5
46E
100
AcDbEntity
  8
0
100
AcDbLine
 62
9
  6
CONTINUOUS
 10
14.1147651593
 20
7.9291612592
 11
14.1019331291
 21
7.9191828591
  0
LINE
  5
46F
100
AcDbEntity
  8
0
100
AcDbLine
 62
9
  6
CONTINUOUS
 10
13.8979461074
 20
9.9776961665
 11
13.8995066055
 21
9.9761297319
  0
LINE
  5
470
100
AcDbEntity
  8
0
100
AcDbLine
 62
9
  6
CONTINUOUS
 10
13.8995066055
 20
9.9761297319
 11
14.0544624429
 21
9.8206516467
  0
LINE
  5
471
100
AcDbEntity
  8
0
100
AcDbLine
 62
9
  6
CONTINUOUS
 10
14.5222743996
 20
9.1126291794
 11
14.539544298
 21
9.1046432279
  0
LINE
  5
472
100
AcDbEntity
  8
0
100
AcDbLine
 62
9
  6
CONTINUOUS
 10
15.9628004078
 20
7.9120904623
 11
15.9727788023
 21
7.8992586993
  0
SPLINE
  5
473
100
AcDbEntity
  8
0
100
AcDbSpline
 62
9
  6
CONTINUOUS
 70
0
 71
3
 72
10
 73
6
 74
0
 42
0.0000001
 43
0.0000001
 44
0.0000000001
 40
0.0
 40
0.0
 40
0.0
 40
0.0
 40
0.4956229348
 40
0.7472945772
 40
1.0
 40
1.0
 40
1.0
 40
1.0
 10
14.5328100141
 20
9.0752802239
 30
0.0
 10
14.5328101357
 20
9.0802867448
 30
0.0
 10
14.533803737
 20
9.087859606
 30
0.0
 10
14.536633046
 20
9.0975627252
 30
0.0
 10
14.5385070833
 20
9.1023105402
 30
0.0
 10
14.5395443719
 20
9.1046429836
 30
0.0
  0
SPLINE
  5
474
100
AcDbEntity
  8
0
100
AcDbSpline
 62
9
  6
CONTINUOUS
 70
0
 71
3
 72
10
 73
6
 74
0
 42
0.0000001
 43
0.0000001
 44
0.0000000001
 40
0.0
 40
0.0
 40
0.0
 40
0.0
 40
0.2527174066
 40
0.5043867417
 40
1.0
 40
1.0
 40
1.0
 40
1.0
 10
14.5395443237
 20
8.5846431016
 30
0.0
 10
14.5385070244
 20
8.5869756754
 30
0.0
 10
14.5366329458
 20
8.5917235804
 30
0.0
 10
14.5338035375
 20
8.6014266816
 30
0.0
 10
14.5328100115
 20
8.6089994512
 30
0.0
 10
14.5328099623
 20
8.6140058791
 30
0.0
  0
LINE
  5
475
100
AcDbEntity
  8
0
100
AcDbLine
 62
9
  6
CONTINUOUS
 10
16.0418974565
 20
9.1267072606
 11
16.0418850832
 21
9.1367375507
  0
LINE
  5
476
100
AcDbEntity
  8
0
100
AcDbLine
 62
9
  6
CONTINUOUS
 10
16.0418850832
 20
9.1367375507
 11
16.0402272038
 21
9.8206496536
  0
LINE
  5
477
100
AcDbEntity
  8
0
100
AcDbLine
 62
9
  6
CONTINUOUS
 10
16.0401721978
 20
9.82064519
 11
16.1951323549
 21
9.9761228429
  0
LINE
  5
478
100
AcDbEntity
  8
0
100
AcDbLine
 62
9
  6
CONTINUOUS
 10
16.1951323549
 20
9.9761228429
 11
16.1966930463
 21
9.9776884354
  0
LINE
  5
479
100
AcDbEntity
  8
0
100
AcDbLine
 62
9
  6
CONTINUOUS
 10
17.9313096834
 20
9.1789769395
 11
17.9313343392
 21
8.8446430515
  0
LINE
  5
47A
100
AcDbEntity
  8
0
100
AcDbLine
 62
9
  6
CONTINUOUS
 10
16.0009736876
 20
7.885298017
 11
16.0233299106
 21
7.8517817272
  0
LINE
  5
47B
100
AcDbEntity
  8
0
100
AcDbLine
 62
9
  6
CONTINUOUS
 10
16.0066561421
 20
7.890993524
 11
16.0401739807
 21
7.8686364011
  0
SPLINE
  5
47C
100
AcDbEntity
  8
0
100
AcDbSpline
 62
9
  6
CONTINUOUS
 70
0
 71
3
 72
15
 73
11
 74
0
 42
0.0000001
 43
0.0000001
 44
0.0000000001
 40
0.0
 40
0.0
 40
0.0
 40
0.0
 40
0.1154435175
 40
0.239253847
 40
0.3684028841
 40
0.500000949
 40
0.63159887
 40
0.7607475061
 40
0.8845572304
 40
1.0
 40
1.0
 40
1.0
 40
1.0
 10
16.0401739807
 20
7.8686364011
 30
0.0
 10
16.0399108491
 20
7.8677201911
 30
0.0
 10
16.0392194402
 20
7.8658618207
 30
0.0
 10
16.0378102138
 20
7.8631584564
 30
0.0
 10
16.0360183864
 20
7.860527939
 30
0.0
 10
16.0338790327
 20
7.8580830975
 30
0.0
 10
16.0314341707
 20
7.8559437721
 30
0.0
 10
16.028803641
 20
7.8541519796
 30
0.0
 10
16.0261002723
 20
7.8527427929
 30
0.0
 10
16.0242419028
 20
7.8520514132
 30
0.0
 10
16.0233256948
 20
7.8517882968
 30
0.0
  0
LINE
  5
47D
100
AcDbEntity
  8
0
100
AcDbLine
 62
9
  6
CONTINUOUS
 10
16.0066513221
 20
7.89099666
 11
16.0083765978
 21
8.553567357
  0
LINE
  5
47E
100
AcDbEntity
  8
0
100
AcDbLine
 62
9
  6
CONTINUOUS
 10
16.0066602003
 20
9.7982972295
 11
16.0401794368
 21
9.820654677
  0
LINE
  5
47F
100
AcDbEntity
  8
0
100
AcDbLine
 62
9
  6
CONTINUOUS
 10
16.0083983029
 20
9.1263509707
 11
16.0083857199
 21
9.1357104168
  0
LINE
  5
480
100
AcDbEntity
  8
0
100
AcDbLine
 62
9
  6
CONTINUOUS
 10
16.0083857199
 20
9.1357104168
 11
16.0066604154
 21
9.7982968786
  0
LINE
  5
481
100
AcDbEntity
  8
0
100
AcDbLine
 62
9
  6
CONTINUOUS
 10
16.0009678649
 20
9.8039810036
 11
16.0233259164
 21
9.83750017
  0
SPLINE
  5
482
100
AcDbEntity
  8
0
100
AcDbSpline
 62
9
  6
CONTINUOUS
 70
0
 71
3
 72
15
 73
11
 74
0
 42
0.0000001
 43
0.0000001
 44
0.0000000001
 40
0.0
 40
0.0
 40
0.0
 40
0.0
 40
0.1154430526
 40
0.2392533197
 40
0.3684025384
 40
0.5000008858
 40
0.6315990978
 40
0.7607479414
 40
0.8845576442
 40
1.0
 40
1.0
 40
1.0
 40
1.0
 10
16.0233259164
 20
9.83750017
 30
0.0
 10
16.0242421614
 20
9.8372370403
 30
0.0
 10
16.0261006062
 20
9.8365456223
 30
0.0
 10
16.0288040796
 20
9.8351363551
 30
0.0
 10
16.031434704
 20
9.8333444591
 30
0.0
 10
16.0338796395
 20
9.8312050113
 30
0.0
 10
16.0360190339
 20
9.8287600331
 30
0.0
 10
16.0378108684
 20
9.8261293776
 30
0.0
 10
16.0392200691
 20
9.8234258847
 30
0.0
 10
16.03991144
 20
9.8215674333
 30
0.0
 10
16.0401745457
 20
9.8206511874
 30
0.0
  0
LINE
  5
483
100
AcDbEntity
  8
0
100
AcDbLine
 62
9
  6
CONTINUOUS
 10
14.0713125922
 20
9.837500277
 11
13.9158386581
 21
9.9924570033
  0
LINE
  5
484
100
AcDbEntity
  8
0
100
AcDbLine
 62
9
  6
CONTINUOUS
 10
13.9158386581
 20
9.9924570033
 11
13.9142730898
 21
9.9940176719
  0
LINE
  5
485
100
AcDbEntity
  8
0
100
AcDbLine
 62
9
  6
CONTINUOUS
 10
16.0009782539
 20
9.8039857967
 11
15.9727912731
 21
9.7899185653
  0
LINE
  5
486
100
AcDbEntity
  8
0
100
AcDbLine
 62
9
  6
CONTINUOUS
 10
15.9727912731
 20
9.7899185653
 11
15.9725532597
 21
9.7897997792
  0
LINE
  5
487
100
AcDbEntity
  8
0
100
AcDbLine
 62
9
  6
CONTINUOUS
 10
16.18037145
 20
9.9940151645
 11
16.1788050884
 21
9.9924547381
  0
LINE
  5
488
100
AcDbEntity
  8
0
100
AcDbLine
 62
9
  6
CONTINUOUS
 10
16.1788050884
 20
9.9924547381
 11
16.0233274723
 21
9.8374989588
  0
LINE
  5
489
100
AcDbEntity
  8
0
100
AcDbLine
 62
9
  6
CONTINUOUS
 10
14.0936617192
 20
9.803987964
 11
14.0713057996
 21
9.8375046393
  0
LINE
  5
48A
100
AcDbEntity
  8
0
100
AcDbLine
 62
9
  6
CONTINUOUS
 10
14.093669199
 20
7.8853047113
 11
14.0713111942
 21
7.8517856286
  0
SPLINE
  5
48B
100
AcDbEntity
  8
0
100
AcDbSpline
 62
9
  6
CONTINUOUS
 70
0
 71
3
 72
15
 73
11
 74
0
 42
0.0000001
 43
0.0000001
 44
0.0000000001
 40
0.0
 40
0.0
 40
0.0
 40
0.0
 40
0.1154439862
 40
0.2392549697
 40
0.3684046423
 40
0.5000031258
 40
0.6316011191
 40
0.7607494558
 40
0.8845584564
 40
1.0
 40
1.0
 40
1.0
 40
1.0
 10
14.0713111942
 20
7.8517856286
 30
0.0
 10
14.070394956
 20
7.8520487712
 30
0.0
 10
14.0685365291
 20
7.852740213
 30
0.0
 10
14.0658330896
 20
7.8541495093
 30
0.0
 10
14.0632025089
 20
7.8559414253
 30
0.0
 10
14.0607576246
 20
7.8580808813
 30
0.0
 10
14.0586182865
 20
7.8605258542
 30
0.0
 10
14.0568265105
 20
7.8631564924
 30
0.0
 10
14.0554173665
 20
7.8658599577
 30
0.0
 10
14.0547260311
 20
7.8677183853
 30
0.0
 10
14.0544629417
 20
7.8686346179
 30
0.0
  0
LINE
  5
48C
100
AcDbEntity
  8
0
100
AcDbLine
 62
9
  6
CONTINUOUS
 10
14.0879735613
 20
7.8909858007
 11
14.0544567802
 21
7.868630019
  0
LINE
  5
48D
100
AcDbEntity
  8
0
100
AcDbLine
 62
9
  6
CONTINUOUS
 10
14.0879802788
 20
9.7982922055
 11
14.0544614637
 21
9.8206500348
  0
SPLINE
  5
48E
100
AcDbEntity
  8
0
100
AcDbSpline
 62
9
  6
CONTINUOUS
 70
0
 71
3
 72
15
 73
11
 74
0
 42
0.0000001
 43
0.0000001
 44
0.0000000001
 40
0.0
 40
0.0
 40
0.0
 40
0.0
 40
0.1154436901
 40
0.2392543945
 40
0.3684038528
 40
0.5000022345
 40
0.6316002671
 40
0.7607487718
 40
0.8845580577
 40
1.0
 40
1.0
 40
1.0
 40
1.0
 10
14.0544614637
 20
9.8206500348
 30
0.0
 10
14.0547246005
 20
9.8215662679
 30
0.0
 10
14.0554160287
 20
9.8234246856
 30
0.0
 10
14.0568253012
 20
9.8261281152
 30
0.0
 10
14.058617191
 20
9.8287586912
 30
0.0
 10
14.06075662
 20
9.8312035774
 30
0.0
 10
14.0632015664
 20
9.8333429255
 30
0.0
 10
14.0658321811
 20
9.8351347188
 30
0.0
 10
14.0685356275
 20
9.8365438858
 30
0.0
 10
14.070394045
 20
9.8372352399
 30
0.0
 10
14.0713102738
 20
9.8374983395
 30
0.0
  0
ENDSEC
  0
SECTION
  2
OBJECTS
  0
DICTIONARY
  5
C
100
AcDbDictionary
280
0
281
1
  3
ACAD_GROUP
350
D
  3
ACAD_MLINESTYLE
350
17
  3
ACAD_LAYOUT
350
1A
  3
ACAD_PLOTSETTINGS
350
19
  3
ACAD_PLOTSTYLENAME
350
E
  0
DICTIONARY
  5
D
102
{ACAD_REACTORS
330
C
102
}
100
AcDbDictionary
280
0
281
1
  0
ACDBDICTIONARYWDFLT
  5
E
102
{ACAD_REACTORS
330
C
102
}
100
AcDbDictionary
281
1
  3
Normal
350
F
100
AcDbDictionaryWithDefault
340
F
  0
DICTIONARY
  5
17
102
{ACAD_REACTORS
330
C
102
}
100
AcDbDictionary
280
0
281
1
  3
Standard
350
18
  0
DICTIONARY
  5
19
102
{ACAD_REACTORS
330
C
102
}
100
AcDbDictionary
281
1
  0
DICTIONARY
  5
1A
102
{ACAD_REACTORS
330
C
102
}
100
AcDbDictionary
281
1
  3
Model
350
48F
  3
Layout1
350
490
  0
ACDBPLACEHOLDER
  5
F
102
{ACAD_REACTORS
330
E
102
}
  0
MLINESTYLE
  5
18
102
{ACAD_REACTORS
330
17
102
}
100
AcDbMlineStyle
  2
STANDARD
 70
0
  3

 62
256
 51
90.0
 52
90.0
 71
2
 49
0.5
 62
256
  6
BYLAYER
 49
-0.5
 62
256
  6
BYLAYER
  0
LAYOUT
  5
48F
102
{ACAD_REACTORS
330
1A
102
}
100
AcDbPlotSettings
  1

  2
none_device
  4
ANSI_C_(22.00_x_17.00_Inches)
  6

 40
0.0
 41
0.0
 42
0.0
 43
0.0
 44
558.8
 45
431.8
 46
0.0
 47
0.0
 48
0.0
 49
0.0
140
0.0
141
0.0
142
1.0
143
1.0
 70
1024
 72
0
 73
0
 74
0
  7

 75
0
147
1.0
148
0.0
149
0.0
100
AcDbLayout
  1
Model
 70
0
 71
0
 10
0.0
 20
0.0
 11
22.0
 21
17.0
 12
0.0
 22
0.0
 32
0.0
 14
0.0
 24
0.0
 34
0.0
 15
0.0
 25
0.0
 35
0.0
146
0.0
 13
0.0
 23
0.0
 33
0.0
 16
1.0
 26
0.0
 36
0.0
 17
0.0
 27
1.0
 37
0.0
 76
0
330
202
345
0
346
0
  0
LAYOUT
  5
490
102
{ACAD_REACTORS
330
1A
102
}
100
AcDbPlotSettings
  1

  2
none_device
  4
ANSI_C_(22.00_x_17.00_Inches)
  6

 40
0.0
 41
0.0
 42
0.0
 43
0.0
 44
558.8
 45
431.8
 46
0.0
 47
0.0
 48
0.0
 49
0.0
140
0.0
141
0.0
142
1.0
143
1.0
 70
0
 72
0
 73
0
 74
0
  7

 75
0
147
1.0
148
0.0
149
0.0
100
AcDbLayout
  1
Layout1
 70
0
 71
1
 10
0.0
 20
0.0
 11
22.0
 21
17.0
 12
0.0
 22
0.0
 32
0.0
 14
0.0
 24
0.0
 34
0.0
 15
0.0
 25
0.0
 35
0.0
146
0.0
 13
0.0
 23
0.0
 33
0.0
 16
1.0
 26
0.0
 36
0.0
 17
0.0
 27
1.0
 37
0.0
 76
0
330
203
345
0
346
0
  0
ENDSEC
  0
EOF
