  0
SECTION
  2
HEADER
  9
$ACADVER
  1
AC1015
  9
$DWGCODEPAGE
  3
ANSI_1252
  9
$EXTMAX
 10
11.6929133858
 20
8.2677165354
 30
0.0
  9
$EXTMIN
 10
0.0
 20
0.0
 30
0.0
  9
$LIMMIN
 10
0.0
 20
0.0
  9
$LIMMAX
 10
11.6929133858
 20
8.2677165354
  9
$VIEWCTR
 10
5.8464566929
 20
4.1338582677
  9
$VIEWSIZE
 40
8.2677165354
  9
$CLAYER
  8
0
  9
$LTSCALE
 40
0.6431102362
  9
$CELTYPE
  6
BYLAYER
  9
$DIMSCALE
 40
1.0
  9
$DIMASZ
 40
0.1875
  9
$DIMEXO
 40
0.0730807087
  9
$DIMDLI
 40
0.4443307087
  9
$DIMEXE
 40
0.2104724409
  9
$DIMCEN
 40
0.1052362205
  9
$DIMLFAC
 40
1.0
  9
$DIMBLK
  1
_CLOSED
  9
$DIMTXT
 40
0.15625
  9
$DIMTOL
 70
0
  9
$DIMLIM
 70
0
  9
$DIMTFAC
 40
1.0
  9
$PDMODE
 70
3
  9
$PDSIZE
 40
0.3125
  9
$HANDSEED
  5
253
  9
$TILEMODE
 70
1
  9
$MEASUREMENT
 70
0
  9
$INSUNITS
 70
1
  0
ENDSEC
  0
SECTION
  2
CLASSES
  0
CLASS
  1
ACDBDICTIONARYWDFLT
  2
AcDbDictionaryWithDefault
  3
AutoCAD 2000
 90
0
280
0
281
0
  0
CLASS
  1
ACDBPLACEHOLDER
  2
AcDbPlaceHolder
  3
AutoCAD 2000
 90
0
280
0
281
0
  0
CLASS
  1
LAYOUT
  2
AcDbLayout
  3
AutoCAD 2000
 90
0
280
0
281
0
  0
ENDSEC
  0
SECTION
  2
TABLES
  0
TABLE
  2
VPORT
  5
8
100
AcDbSymbolTable
 70
2
  0
VPORT
  5
1F4
100
AcDbSymbolTableRecord
100
AcDbViewportTableRecord
  2
*ACTIVE
 70
0
 10
0.0
 20
0.0
 11
1.0
 21
1.0
 12
5.8464566929
 22
4.1338582677
 13
0.0
 23
0.0
 14
1.0
 24
1.0
 15
0.0
 25
0.0
 16
0.0
 26
0.0
 36
1.0
 17
0.0
 27
0.0
 37
0.0
 40
8.2677165354
 41
1.4142857143
 42
50.0
 43
0.0
 44
0.0
 50
0.0
 51
0.0
 71
0
 72
100
 73
1
 74
1
 75
0
 76
0
 77
0
 78
0
  0
ENDTAB
  0
TABLE
  2
LTYPE
  5
5
100
AcDbSymbolTable
 70
6
  0
LTYPE
  5
14
100
AcDbSymbolTableRecord
100
AcDbLinetypeTableRecord
  2
BYBLOCK
 70
0
  3

 72
65
 73
0
 40
0.0
  0
LTYPE
  5
15
100
AcDbSymbolTableRecord
100
AcDbLinetypeTableRecord
  2
BYLAYER
 70
0
  3

 72
65
 73
0
 40
0.0
  0
LTYPE
  5
16
100
AcDbSymbolTableRecord
100
AcDbLinetypeTableRecord
  2
CONTINUOUS
 70
64
  3
Solid line
 72
65
 73
0
 40
0.0
  0
LTYPE
  5
1F5
100
AcDbSymbolTableRecord
100
AcDbLinetypeTableRecord
  2
CENTER
 70
64
  3
____ _ ____ _ ____ _ ____ _ ____ _ ____ _ ____
 72
65
 73
4
 40
0.6
 49
0.375
 74
0
 49
-0.075
 74
0
 49
0.075
 74
0
 49
-0.075
 74
0
  0
LTYPE
  5
1F6
100
AcDbSymbolTableRecord
100
AcDbLinetypeTableRecord
  2
HIDDEN
 70
64
  3
- - - - - - - - - - - - - - - - - - - -
 72
65
 73
2
 40
0.2
 49
0.1
 74
0
 49
-0.1
 74
0
  0
LTYPE
  5
1F7
100
AcDbSymbolTableRecord
100
AcDbLinetypeTableRecord
  2
PHANTOM
 70
64
  3
_____ _ _ _____ _ _ _____ _ _ _____
 72
65
 73
6
 40
0.8
 49
0.45
 74
0
 49
-0.05
 74
0
 49
0.1
 74
0
 49
-0.05
 74
0
 49
0.1
 74
0
 49
-0.05
 74
0
  0
LTYPE
  5
1F8
100
AcDbSymbolTableRecord
100
AcDbLinetypeTableRecord
  2
DOT
 70
64
  3
. . . . . . . . . . . . . . . . . . . .
 72
65
 73
2
 40
0.2
 49
0.1
 74
0
 49
-0.1
 74
0
  0
LTYPE
  5
1F9
100
AcDbSymbolTableRecord
100
AcDbLinetypeTableRecord
  2
DASHED
 70
64
  3
- - - - - - - - - - - - - - - - - - - -
 72
65
 73
2
 40
0.2
 49
0.1
 74
0
 49
-0.1
 74
0
  0
ENDTAB
  0
TABLE
  2
LAYER
  5
2
100
AcDbSymbolTable
 70
36
  0
LAYER
  5
10
100
AcDbSymbolTableRecord
100
AcDbLayerTableRecord
  2
0
 70
0
 62
7
  6
CONTINUOUS
370
-3
390
F
  0
LAYER
  5
1FA
100
AcDbSymbolTableRecord
100
AcDbLayerTableRecord
  2
DEFAULT_1
 70
0
 62
7
  6
CENTER
370
-3
390
F
  0
LAYER
  5
1FB
100
AcDbSymbolTableRecord
100
AcDbLayerTableRecord
  2
DEFAULT_2
 70
0
 62
8
  6
HIDDEN
370
-3
390
F
  0
LAYER
  5
1FC
100
AcDbSymbolTableRecord
100
AcDbLayerTableRecord
  2
DEFAULT_3
 70
0
 62
7
  6
PHANTOM
370
-3
390
F
  0
LAYER
  5
1FD
100
AcDbSymbolTableRecord
100
AcDbLayerTableRecord
  2
DEFAULT_COORDINATE_SYSTEM
 70
0
 62
7
  6
CONTINUOUS
370
-3
390
F
  0
LAYER
  5
1FE
100
AcDbSymbolTableRecord
100
AcDbLayerTableRecord
  2
DEFAULT_DATUM_AXES
 70
0
 62
7
  6
CONTINUOUS
370
-3
390
F
  0
LAYER
  5
1FF
100
AcDbSymbolTableRecord
100
AcDbLayerTableRecord
  2
DEFAULT_DATUM_CURVES
 70
0
 62
7
  6
CONTINUOUS
370
-3
390
F
  0
LAYER
  5
200
100
AcDbSymbolTableRecord
100
AcDbLayerTableRecord
  2
DEFAULT_DATUM_PLANES
 70
0
 62
7
  6
CONTINUOUS
370
-3
390
F
  0
ENDTAB
  0
TABLE
  2
STYLE
  5
3
100
AcDbSymbolTable
 70
1
  0
STYLE
  5
11
100
AcDbSymbolTableRecord
100
AcDbTextStyleTableRecord
  2
STANDARD
 70
0
 40
0.0
 41
0.8
 50
0.0
 71
0
 42
0.2
  3
txt
  4

  0
STYLE
  5
201
100
AcDbSymbolTableRecord
100
AcDbTextStyleTableRecord
  2
TEXTSTYLE_1
 70
0
 40
0.0
 41
0.8
 50
0.0
 71
0
 42
0.2
  3
gdt
  4

  0
ENDTAB
  0
TABLE
  2
VIEW
  5
6
100
AcDbSymbolTable
 70
0
  0
ENDTAB
  0
TABLE
  2
UCS
  5
7
100
AcDbSymbolTable
 70
0
  0
ENDTAB
  0
TABLE
  2
APPID
  5
9
100
AcDbSymbolTable
 70
1
  0
APPID
  5
202
100
AcDbSymbolTableRecord
100
AcDbRegAppTableRecord
  2
ACAD
 70
0
  0
ENDTAB
  0
TABLE
  2
BLOCK_RECORD
  5
1
100
AcDbSymbolTable
 70
0
  0
BLOCK_RECORD
  5
203
100
AcDbSymbolTableRecord
100
AcDbBlockTableRecord
  2
*Model_Space
  0
BLOCK_RECORD
  5
204
100
AcDbSymbolTableRecord
100
AcDbBlockTableRecord
  2
*Paper_Space
  0
ENDTAB
  0
TABLE
  2
DIMSTYLE
  5
A
100
AcDbSymbolTable
 70
1
100
AcDbDimStyleTable
 71
0
  0
DIMSTYLE
105
205
100
AcDbSymbolTableRecord
100
AcDbDimStyleTableRecord
  2
STANDARD
 70
0
  3

  4

 40
1.0
 41
0.1875
 42
0.0625
 43
0.38
 44
0.18
 45
0.0
 46
0.0
 47
0.01
 48
0.01
140
0.15625
141
0.09
142
0.0
143
25.4
144
1.0
145
0.0
146
1.0
147
0.09
 71
0.0
 72
0.0
 73
1
 74
1
 75
0
 76
0
 77
0
 78
4
170
0
171
2
172
0
173
0
174
0
175
0
176
0
177
0
178
0
270
2
271
2
272
2
273
2
274
2
275
0
280
0
281
0
282
0
283
1
284
4
285
0
286
0
287
3
288
0
340
11
  0
ENDTAB
  0
ENDSEC
  0
SECTION
  2
BLOCKS
  0
BLOCK
  5
20
100
AcDbEntity
  8
0
100
AcDbBlockBegin
  2
*Model_Space
 70
0
 10
0.0
 20
0.0
 30
0.0
  3
*Model_Space
  1

  0
ENDBLK
  5
21
100
AcDbEntity
  8
0
100
AcDbBlockEnd
  0
BLOCK
  5
1C
100
AcDbEntity
  8
0
100
AcDbBlockBegin
  2
*Paper_Space
 70
0
 10
0.0
 20
0.0
 30
0.0
  3
*Paper_Space
  1

  0
ENDBLK
  5
1D
100
AcDbEntity
  8
0
100
AcDbBlockEnd
  0
ENDSEC
  0
SECTION
  2
ENTITIES
  0
LINE
  5
206
100
AcDbEntity
  8
0
100
AcDbLine
 62
9
  6
CONTINUOUS
 10
2.265481392
 20
4.3485772941
 11
2.265481392
 21
4.6331420565
  0
LINE
  5
207
100
AcDbEntity
  8
0
100
AcDbLine
 62
9
  6
CONTINUOUS
 10
2.327981392
 20
4.3485772941
 11
2.327981392
 21
4.6331420565
  0
LINE
  5
208
100
AcDbEntity
  8
0
100
AcDbLine
 62
6
  6
CONTINUOUS
 10
2.352981392
 20
4.3485772941
 11
2.352981392
 21
4.2735772941
  0
LINE
  5
209
100
AcDbEntity
  8
0
100
AcDbLine
 62
6
  6
CONTINUOUS
 10
2.577981392
 20
3.5485772941
 11
2.577981392
 21
2.7985772941
  0
LINE
  5
20A
100
AcDbEntity
  8
0
100
AcDbLine
 62
6
  6
CONTINUOUS
 10
2.5473881775
 20
4.1197536862
 11
2.652981392
 21
3.5485772941
  0
LINE
  5
20B
100
AcDbEntity
  8
0
100
AcDbLine
 62
6
  6
CONTINUOUS
 10
3.327981392
 20
3.5485772941
 11
3.327981392
 21
2.7985772941
  0
LINE
  5
20C
100
AcDbEntity
  8
0
100
AcDbLine
 62
9
  6
CONTINUOUS
 10
3.402754392
 20
2.8610772941
 11
3.402754392
 21
3.4860772941
  0
LINE
  5
20D
100
AcDbEntity
  8
0
100
AcDbLine
 62
9
  6
CONTINUOUS
 10
3.4753728297
 20
2.8298272941
 11
3.4753728297
 21
3.5173272941
  0
LINE
  5
20E
100
AcDbEntity
  8
0
100
AcDbLine
 62
6
  6
CONTINUOUS
 10
3.252981392
 20
3.5485772941
 11
3.3585746065
 21
4.1197536862
  0
LINE
  5
20F
100
AcDbEntity
  8
0
100
AcDbLine
 62
9
  6
CONTINUOUS
 10
3.5479912675
 20
2.7985772941
 11
3.5479912675
 21
3.5485772941
  0
LINE
  5
210
100
AcDbEntity
  8
0
100
AcDbLine
 62
6
  6
CONTINUOUS
 10
3.552981392
 20
4.3485772941
 11
3.552981392
 21
4.2735772941
  0
LINE
  5
211
100
AcDbEntity
  8
0
100
AcDbLine
 62
9
  6
CONTINUOUS
 10
3.577981392
 20
4.6331420565
 11
3.577981392
 21
4.3485772941
  0
LINE
  5
212
100
AcDbEntity
  8
0
100
AcDbLine
 62
9
  6
CONTINUOUS
 10
3.640481392
 20
4.6331420565
 11
3.640481392
 21
4.3485772941
  0
LINE
  5
213
100
AcDbEntity
  8
0
100
AcDbLine
 62
6
  6
CONTINUOUS
 10
5.567754392
 20
2.7735772941
 11
8.467394935
 21
2.7735772941
  0
LINE
  5
214
100
AcDbEntity
  8
0
100
AcDbLine
 62
6
  6
CONTINUOUS
 10
9.382795392
 20
2.7985772941
 11
8.632795392
 21
2.7985772941
  0
LINE
  5
215
100
AcDbEntity
  8
0
100
AcDbLine
 62
6
  6
CONTINUOUS
 10
5.567754392
 20
2.7985772941
 11
3.5479912675
 21
2.7985772941
  0
LINE
  5
216
100
AcDbEntity
  8
0
100
AcDbLine
 62
6
  6
CONTINUOUS
 10
3.327981392
 20
2.7985772941
 11
2.577981392
 21
2.7985772941
  0
LINE
  5
217
100
AcDbEntity
  8
0
100
AcDbLine
 62
6
  6
CONTINUOUS
 10
3.402754392
 20
2.8610772941
 11
3.327981392
 21
2.8610772941
  0
LINE
  5
218
100
AcDbEntity
  8
0
100
AcDbLine
 62
6
  6
CONTINUOUS
 10
3.402754392
 20
3.4860772941
 11
3.327981392
 21
3.4860772941
  0
LINE
  5
219
100
AcDbEntity
  8
0
100
AcDbLine
 62
6
  6
CONTINUOUS
 10
9.382795392
 20
3.5485772941
 11
8.632795392
 21
3.5485772941
  0
LINE
  5
21A
100
AcDbEntity
  8
0
100
AcDbLine
 62
6
  6
CONTINUOUS
 10
5.567754392
 20
3.5485772941
 11
3.5479912675
 21
3.5485772941
  0
LINE
  5
21B
100
AcDbEntity
  8
0
100
AcDbLine
 62
6
  6
CONTINUOUS
 10
3.327981392
 20
3.5485772941
 11
2.577981392
 21
3.5485772941
  0
LINE
  5
21C
100
AcDbEntity
  8
0
100
AcDbLine
 62
6
  6
CONTINUOUS
 10
5.567754392
 20
3.5735772941
 11
8.467394935
 21
3.5735772941
  0
LINE
  5
21D
100
AcDbEntity
  8
0
100
AcDbLine
 62
6
  6
CONTINUOUS
 10
5.567754392
 20
2.7735881969
 11
5.567754392
 21
3.5735663913
  0
LINE
  5
21E
100
AcDbEntity
  8
0
100
AcDbLine
 62
9
  6
CONTINUOUS
 10
9.4133886065
 20
4.1197536862
 11
8.6022021775
 21
4.1197536862
  0
LINE
  5
21F
100
AcDbEntity
  8
0
100
AcDbLine
 62
9
  6
CONTINUOUS
 10
2.5473881775
 20
4.1197536862
 11
3.3585746065
 21
4.1197536862
  0
LINE
  5
220
100
AcDbEntity
  8
0
100
AcDbLine
 62
6
  6
CONTINUOUS
 10
9.607795392
 20
4.2735772941
 11
9.5982560569
 21
4.2735772941
  0
LINE
  5
221
100
AcDbEntity
  8
0
100
AcDbLine
 62
6
  6
CONTINUOUS
 10
9.1143608796
 20
4.2735772941
 11
8.9012299043
 21
4.2735772941
  0
LINE
  5
222
100
AcDbEntity
  8
0
100
AcDbLine
 62
6
  6
CONTINUOUS
 10
8.4173347271
 20
4.2735772941
 11
8.407795392
 21
4.2735772941
  0
LINE
  5
223
100
AcDbEntity
  8
0
100
AcDbLine
 62
6
  6
CONTINUOUS
 10
3.552981392
 20
4.2735772941
 11
3.5434420569
 21
4.2735772941
  0
LINE
  5
224
100
AcDbEntity
  8
0
100
AcDbLine
 62
6
  6
CONTINUOUS
 10
3.0595468796
 20
4.2735772941
 11
2.8464159043
 21
4.2735772941
  0
LINE
  5
225
100
AcDbEntity
  8
0
100
AcDbLine
 62
6
  6
CONTINUOUS
 10
2.3625207271
 20
4.2735772941
 11
2.352981392
 21
4.2735772941
  0
LINE
  5
226
100
AcDbEntity
  8
0
100
AcDbLine
 62
6
  6
CONTINUOUS
 10
2.265481392
 20
4.3485772941
 11
3.640481392
 21
4.3485772941
  0
LINE
  5
227
100
AcDbEntity
  8
0
100
AcDbLine
 62
6
  6
CONTINUOUS
 10
8.320295392
 20
4.3485772941
 11
9.695295392
 21
4.3485772941
  0
LINE
  5
228
100
AcDbEntity
  8
0
100
AcDbLine
 62
9
  6
CONTINUOUS
 10
2.265481392
 20
4.6331420565
 11
3.640481392
 21
4.6331420565
  0
LINE
  5
229
100
AcDbEntity
  8
0
100
AcDbLine
 62
9
  6
CONTINUOUS
 10
8.320295392
 20
4.6331420565
 11
9.695295392
 21
4.6331420565
  0
LINE
  5
22A
100
AcDbEntity
  8
0
100
AcDbLine
 62
6
  6
CONTINUOUS
 10
2.077981392
 20
5.9185772941
 11
3.8279814062
 21
5.9185772941
  0
LINE
  5
22B
100
AcDbEntity
  8
0
100
AcDbLine
 62
6
  6
CONTINUOUS
 10
8.132795392
 20
5.9185772941
 11
9.8827954062
 21
5.9185772941
  0
LINE
  5
22C
100
AcDbEntity
  8
0
100
AcDbLine
 62
9
  6
CONTINUOUS
 10
8.320295392
 20
4.3485772941
 11
8.320295392
 21
4.6331420565
  0
LINE
  5
22D
100
AcDbEntity
  8
0
100
AcDbLine
 62
9
  6
CONTINUOUS
 10
8.382795392
 20
4.3485772941
 11
8.382795392
 21
4.6331420565
  0
LINE
  5
22E
100
AcDbEntity
  8
0
100
AcDbLine
 62
6
  6
CONTINUOUS
 10
8.407795392
 20
4.3485772941
 11
8.407795392
 21
4.2735772941
  0
LINE
  5
22F
100
AcDbEntity
  8
0
100
AcDbLine
 62
9
  6
CONTINUOUS
 10
8.467394935
 20
2.7735772941
 11
8.467394935
 21
3.5735772941
  0
LINE
  5
230
100
AcDbEntity
  8
0
100
AcDbLine
 62
6
  6
CONTINUOUS
 10
8.6022021775
 20
4.1197536862
 11
8.707795392
 21
3.5485772941
  0
LINE
  5
231
100
AcDbEntity
  8
0
100
AcDbLine
 62
9
  6
CONTINUOUS
 10
8.5500746635
 20
2.8173272941
 11
8.5500746635
 21
3.5298272941
  0
LINE
  5
232
100
AcDbEntity
  8
0
100
AcDbLine
 62
7
  6
CONTINUOUS
 10
8.632754392
 20
2.8610772941
 11
8.632754392
 21
3.4860772941
  0
LINE
  5
233
100
AcDbEntity
  8
0
100
AcDbLine
 62
6
  6
CONTINUOUS
 10
8.632795392
 20
3.5485772941
 11
8.632795392
 21
2.7985772941
  0
LINE
  5
234
100
AcDbEntity
  8
0
100
AcDbLine
 62
6
  6
CONTINUOUS
 10
9.382795392
 20
3.5485772941
 11
9.382795392
 21
2.7985772941
  0
LINE
  5
235
100
AcDbEntity
  8
0
100
AcDbLine
 62
6
  6
CONTINUOUS
 10
9.607795392
 20
4.3485772941
 11
9.607795392
 21
4.2735772941
  0
LINE
  5
236
100
AcDbEntity
  8
0
100
AcDbLine
 62
9
  6
CONTINUOUS
 10
9.632795392
 20
4.6331420565
 11
9.632795392
 21
4.3485772941
  0
LINE
  5
237
100
AcDbEntity
  8
0
100
AcDbLine
 62
6
  6
CONTINUOUS
 10
9.307795392
 20
3.5485772941
 11
9.4133886065
 21
4.1197536862
  0
LINE
  5
238
100
AcDbEntity
  8
0
100
AcDbLine
 62
9
  6
CONTINUOUS
 10
9.695295392
 20
4.6331420565
 11
9.695295392
 21
4.3485772941
  0
ARC
  5
239
100
AcDbEntity
  8
0
100
AcDbCircle
 62
6
  6
CONTINUOUS
 10
14.195295392
 20
4.6331420565
 40
4.5
100
AcDbArc
 50
163.4021578123
 51
180.0
  0
ARC
  5
23A
100
AcDbEntity
  8
0
100
AcDbCircle
 62
6
  6
CONTINUOUS
 10
3.820295392
 20
4.6331420565
 40
4.5
100
AcDbArc
 50
0.0
 51
16.5978421359
  0
ARC
  5
23B
100
AcDbEntity
  8
0
100
AcDbCircle
 62
6
  6
CONTINUOUS
 10
8.140481392
 20
4.6331420565
 40
4.5
100
AcDbArc
 50
163.4021578123
 51
180.0
  0
ARC
  5
23C
100
AcDbEntity
  8
0
100
AcDbCircle
 62
6
  6
CONTINUOUS
 10
-2.234518608
 20
4.6331420565
 40
4.5
100
AcDbArc
 50
0.0
 51
16.5978421359
  0
ARC
  5
23D
100
AcDbEntity
  8
0
100
AcDbCircle
 62
6
  6
CONTINUOUS
 10
8.4173347271
 20
4.0855772941
 40
0.188
100
AcDbArc
 50
10.474
 51
90.0
  0
ARC
  5
23E
100
AcDbEntity
  8
0
100
AcDbCircle
 62
6
  6
CONTINUOUS
 10
9.5982560569
 20
4.0855772941
 40
0.188
100
AcDbArc
 50
90.0
 51
169.526
  0
ARC
  5
23F
100
AcDbEntity
  8
0
100
AcDbCircle
 62
6
  6
CONTINUOUS
 10
3.5434420569
 20
4.0855772941
 40
0.188
100
AcDbArc
 50
90.0
 51
169.526
  0
ARC
  5
240
100
AcDbEntity
  8
0
100
AcDbCircle
 62
6
  6
CONTINUOUS
 10
2.3625207271
 20
4.0855772941
 40
0.188
100
AcDbArc
 50
10.474
 51
90.0
  0
ARC
  5
241
100
AcDbEntity
  8
0
100
AcDbCircle
 62
6
  6
CONTINUOUS
 10
8.632754392
 20
2.7610772941
 40
0.1
100
AcDbArc
 50
90.0
 51
145.7711336722
  0
ARC
  5
242
100
AcDbEntity
  8
0
100
AcDbCircle
 62
6
  6
CONTINUOUS
 10
8.467394935
 20
2.8735772941
 40
0.1
100
AcDbArc
 50
270.0
 51
325.7711336722
  0
ARC
  5
243
100
AcDbEntity
  8
0
100
AcDbCircle
 62
6
  6
CONTINUOUS
 10
8.632754392
 20
3.5860772941
 40
0.1
100
AcDbArc
 50
214.2288663278
 51
270.0
  0
ARC
  5
244
100
AcDbEntity
  8
0
100
AcDbCircle
 62
6
  6
CONTINUOUS
 10
8.467394935
 20
3.4735772941
 40
0.1
100
AcDbArc
 50
34.2288663278
 51
90.0
  0
ARC
  5
245
100
AcDbEntity
  8
0
100
AcDbCircle
 62
6
  6
CONTINUOUS
 10
3.402754392
 20
2.7610772941
 40
0.1
100
AcDbArc
 50
43.4325365578
 51
90.0
  0
ARC
  5
246
100
AcDbEntity
  8
0
100
AcDbCircle
 62
6
  6
CONTINUOUS
 10
3.5479912675
 20
2.8985772941
 40
0.1
100
AcDbArc
 50
223.4325365578
 51
270.0
  0
ARC
  5
247
100
AcDbEntity
  8
0
100
AcDbCircle
 62
6
  6
CONTINUOUS
 10
3.5479912675
 20
3.4485772941
 40
0.1
100
AcDbArc
 50
90.0
 51
136.5674634422
  0
ARC
  5
248
100
AcDbEntity
  8
0
100
AcDbCircle
 62
6
  6
CONTINUOUS
 10
3.402754392
 20
3.5860772941
 40
0.1
100
AcDbArc
 50
270.0
 51
316.5674634422
  0
SPLINE
  5
249
100
AcDbEntity
  8
0
100
AcDbSpline
 62
9
  6
CONTINUOUS
 70
0
 71
3
 72
27
 73
23
 74
21
 42
0.0000001
 43
0.0000001
 44
0.0000000001
 12
-0.3772520569
 22
-1.2483187576
 32
0.0
 13
-0.0000049157
 23
-1.3040777718
 33
0.0
 40
0.0
 40
0.0
 40
0.0
 40
0.0
 40
0.0610419564
 40
0.1223541356
 40
0.1839188319
 40
0.2147908081
 40
0.2457196911
 40
0.2767037898
 40
0.3077414523
 40
0.369970344
 40
0.4011590529
 40
0.4323948635
 40
0.4949980002
 40
0.5577614612
 40
0.5891977607
 40
0.6206671258
 40
0.6836952979
 40
0.7468286671
 40
0.8100494655
 40
0.8733372105
 40
0.9366638183
 40
1.0
 40
1.0
 40
1.0
 40
1.0
 10
9.8228995117
 20
5.9185772941
 30
0.0
 10
9.8152234439
 20
5.8931773544
 30
0.0
 10
9.800292503
 20
5.842126174
 30
0.0
 10
9.7792270546
 20
5.7649990748
 30
0.0
 10
9.762779655
 20
5.7002168713
 30
0.0
 10
9.7502889597
 20
5.6480651275
 30
0.0
 10
9.7412505869
 20
5.6087573741
 30
0.0
 10
9.732553914
 20
5.5692988423
 30
0.0
 10
9.721408855
 20
5.5164498242
 30
0.0
 10
9.7109696913
 20
5.4633631126
 30
0.0
 10
9.701244311
 20
5.4100564984
 30
0.0
 10
9.691980392
 20
5.3565025636
 30
0.0
 10
9.6813012667
 20
5.2892674137
 30
0.0
 10
9.6718479023
 20
5.2217609551
 30
0.0
 10
9.6650205731
 20
5.1675611477
 30
0.0
 10
9.6586812643
 20
5.1131862587
 30
0.0
 10
9.6516917886
 20
5.0450184084
 30
0.0
 10
9.6448123215
 20
4.9629786362
 30
0.0
 10
9.6394492142
 20
4.8807125703
 30
0.0
 10
9.6356137101
 20
4.7982770047
 30
0.0
 10
9.6333088573
 20
4.715734571
 30
0.0
 10
9.6327954958
 20
4.6606738255
 30
0.0
 10
9.632795392
 20
4.6331420565
 30
0.0
 11
9.8228995117
 21
5.9185772941
 31
0.0
 11
9.8005536938
 21
5.8421745781
 31
0.0
 11
9.7794872884
 21
5.7650438804
 31
0.0
 11
9.7597310755
 21
5.6872274446
 31
0.0
 11
9.7503539011
 21
5.6480752728
 31
0.0
 11
9.7413154472
 21
5.6087673705
 31
0.0
 11
9.7326187362
 21
5.5693087118
 31
0.0
 11
9.724266759
 21
5.5297042592
 31
0.0
 11
9.7086089692
 21
5.4500778224
 31
0.0
 11
9.7013091383
 21
5.410065763
 31
0.0
 11
9.6943659216
 21
5.3699279444
 31
0.0
 11
9.6815593033
 21
5.2892993174
 31
0.0
 11
9.6702084958
 21
5.2082417739
 31
0.0
 11
9.6650850426
 21
5.1675678096
 31
0.0
 11
9.6603327388
 21
5.1268053999
 31
0.0
 11
9.6519488266
 21
5.0450404675
 31
0.0
 11
9.6450692956
 21
4.9629975729
 31
0.0
 11
9.6397062512
 21
4.8807273532
 31
0.0
 11
9.6358697966
 21
4.7982844275
 31
0.0
 11
9.6335648248
 21
4.7157337793
 31
0.0
 11
9.632795392
 21
4.6331420565
 31
0.0
  0
SPLINE
  5
24A
100
AcDbEntity
  8
0
100
AcDbSpline
 62
6
  6
CONTINUOUS
 70
0
 71
3
 72
45
 73
41
 74
39
 42
0.0000001
 43
0.0000001
 44
0.0000000001
 12
0.1639124426
 22
0.3099914436
 32
0.0
 13
0.350659356
 23
0.0
 33
0.0
 40
0.0
 40
0.0
 40
0.0
 40
0.0
 40
0.0312796515
 40
0.0620179844
 40
0.0771957033
 40
0.0922575476
 40
0.107215309
 40
0.122080192
 40
0.136863947
 40
0.1515787859
 40
0.1662360415
 40
0.1808462708
 40
0.1954209362
 40
0.2099715256
 40
0.2245083927
 40
0.2390408836
 40
0.2681273002
 40
0.2973011769
 40
0.3266167987
 40
0.356120528
 40
0.3858462613
 40
0.4158215111
 40
0.4460643479
 40
0.4765871893
 40
0.4919564457
 40
0.5073976831
 40
0.5384962374
 40
0.5698826217
 40
0.6015519672
 40
0.6334979861
 40
0.6657117229
 40
0.6981834609
 40
0.7309018727
 40
0.7638551799
 40
0.7970307813
 40
0.8304155384
 40
0.8639959066
 40
0.897758346
 40
0.9316897354
 40
1.0
 40
1.0
 40
1.0
 40
1.0
 10
2.5287173233
 20
4.1734561391
 30
0.0
 10
2.5304263646
 20
4.1766882806
 30
0.0
 10
2.534035972
 20
4.1829824947
 30
0.0
 10
2.5390651876
 20
4.1904834636
 30
0.0
 10
2.5433449527
 20
4.1961846011
 30
0.0
 10
2.5466642734
 20
4.2002960087
 30
0.0
 10
2.5501019688
 20
4.2042606038
 30
0.0
 10
2.5536540297
 20
4.2080787817
 30
0.0
 10
2.5573162542
 20
4.2117513899
 30
0.0
 10
2.5610842381
 20
4.215279951
 30
0.0
 10
2.5649537774
 20
4.2186660675
 30
0.0
 10
2.5689208978
 20
4.2219114444
 30
0.0
 10
2.5729815782
 20
4.2250184251
 30
0.0
 10
2.5771319087
 20
4.227989796
 30
0.0
 10
2.5813681921
 20
4.2308284286
 30
0.0
 10
2.5871274643
 20
4.2344409081
 30
0.0
 10
2.5945312473
 20
4.2386437546
 30
0.0
 10
2.603700612
 20
4.2432046168
 30
0.0
 10
2.6131339948
 20
4.2473133601
 30
0.0
 10
2.6228090725
 20
4.2509986057
 30
0.0
 10
2.6327058277
 20
4.2542900602
 30
0.0
 10
2.6428063999
 20
4.2572153759
 30
0.0
 10
2.6530943276
 20
4.2598030338
 30
0.0
 10
2.6617914043
 20
4.2616956272
 30
0.0
 10
2.6688281028
 20
4.2630677125
 30
0.0
 10
2.6759491998
 20
4.2643550957
 30
0.0
 10
2.684943415
 20
4.2657999974
 30
0.0
 10
2.6958480617
 20
4.2672917791
 30
0.0
 10
2.7068795921
 20
4.2685682542
 30
0.0
 10
2.7180289682
 20
4.2696495308
 30
0.0
 10
2.7292878809
 20
4.2705561414
 30
0.0
 10
2.7406487008
 20
4.2713059959
 30
0.0
 10
2.7521043086
 20
4.2719172588
 30
0.0
 10
2.7636480823
 20
4.2724059476
 30
0.0
 10
2.7752737571
 20
4.2727878936
 30
0.0
 10
2.7869753779
 20
4.2730774344
 30
0.0
 10
2.798747256
 20
4.2732881272
 30
0.0
 10
2.8105840067
 20
4.2734327581
 30
0.0
 10
2.8264806305
 20
4.2735529137
 30
0.0
 10
2.8384313599
 20
4.2735772941
 30
0.0
 10
2.8464159043
 20
4.2735772941
 30
0.0
 11
2.5287173233
 21
4.1734561391
 31
0.0
 11
2.5341770655
 21
4.182969249
 31
0.0
 11
2.5401825862
 21
4.1919198775
 31
0.0
 11
2.5433778828
 21
4.1961761659
 31
0.0
 11
2.5466957158
 21
4.2002855497
 31
0.0
 11
2.5501318992
 21
4.2042483135
 31
0.0
 11
2.5536822465
 21
4.2080647644
 31
0.0
 11
2.5573425651
 21
4.2117358087
 31
0.0
 11
2.5611086554
 21
4.2152630017
 31
0.0
 11
2.5649763173
 21
4.218647931
 31
0.0
 11
2.5689413763
 21
4.221892253
 31
0.0
 11
2.5729999266
 21
4.2249983537
 31
0.0
 11
2.5771482247
 21
4.2279690591
 31
0.0
 11
2.5813825294
 21
4.2308072015
 31
0.0
 11
2.5856991316
 21
4.2335156497
 31
0.0
 11
2.5945657924
 21
4.2385565404
 31
0.0
 11
2.6037222065
 21
4.2431188731
 31
0.0
 11
2.6131439485
 21
4.2472304427
 31
0.0
 11
2.6228094618
 21
4.2509199654
 31
0.0
 11
2.6326981909
 21
4.2542161158
 31
0.0
 11
2.6427924388
 21
4.2571468871
 31
0.0
 11
2.653075458
 21
4.259739981
 31
0.0
 11
2.6635325115
 21
4.2620218241
 31
0.0
 11
2.6688221167
 21
4.263054018
 31
0.0
 11
2.6741502361
 21
4.2640179641
 31
0.0
 11
2.6849163398
 21
4.2657529031
 31
0.0
 11
2.6958200151
 21
4.2672496813
 31
0.0
 11
2.7068510473
 21
4.2685305938
 31
0.0
 11
2.7180004837
 21
4.2696162683
 31
0.0
 11
2.7292597822
 21
4.2705267092
 31
0.0
 11
2.740621335
 21
4.2712803181
 31
0.0
 11
2.7520778818
 21
4.2718948594
 31
0.0
 11
2.7636227956
 21
4.2723866908
 31
0.0
 11
2.7752497667
 21
4.2727714351
 31
0.0
 11
2.7869527987
 21
4.2730635601
 31
0.0
 11
2.798726141
 21
4.2732766346
 31
0.0
 11
2.8105643472
 21
4.2734233456
 31
0.0
 11
2.8224623512
 21
4.2735152776
 31
0.0
 11
2.8464159043
 21
4.2735772941
 31
0.0
  0
SPLINE
  5
24B
100
AcDbEntity
  8
0
100
AcDbSpline
 62
6
  6
CONTINUOUS
 70
0
 71
3
 72
47
 73
43
 74
41
 42
0.0000001
 43
0.0000001
 44
0.0000000001
 12
0.3506611935
 22
0.0
 32
0.0
 13
0.1639133015
 23
-0.309993068
 33
0.0
 40
0.0
 40
0.0
 40
0.0
 40
0.0
 40
0.0683104907
 40
0.1022421124
 40
0.1360047125
 40
0.1695851676
 40
0.2029700425
 40
0.236145742
 40
0.269099181
 40
0.3018176538
 40
0.334289495
 40
0.3665032893
 40
0.3984493545
 40
0.4301187542
 40
0.4458478221
 40
0.4615055515
 40
0.4926041478
 40
0.5080452726
 40
0.5234144255
 40
0.5539372533
 40
0.5841797353
 40
0.614154816
 40
0.6438802415
 40
0.6733835919
 40
0.7026989972
 40
0.7318723712
 40
0.7609585896
 40
0.7754908096
 40
0.7900274456
 40
0.8045779039
 40
0.819152403
 40
0.8337623036
 40
0.8484193138
 40
0.8631340393
 40
0.8779176779
 40
0.8927823327
 40
0.9077398581
 40
0.9228013911
 40
0.9379786043
 40
0.9532831037
 40
0.9687206312
 40
1.0
 40
1.0
 40
1.0
 40
1.0
 10
9.1143608796
 20
4.2735772941
 30
0.0
 10
9.1223454924
 20
4.2735772941
 30
0.0
 10
9.1342963381
 20
4.273552925
 30
0.0
 10
9.1501931173
 20
4.2734327474
 30
0.0
 10
9.1620299866
 20
4.2732881461
 30
0.0
 10
9.1738019679
 20
4.2730773961
 30
0.0
 10
9.185503687
 20
4.2727879117
 30
0.0
 10
9.1971294608
 20
4.2724058843
 30
0.0
 10
9.2086733314
 20
4.2719172512
 30
0.0
 10
9.2201290307
 20
4.2713059164
 30
0.0
 10
9.2314899357
 20
4.2705560776
 30
0.0
 10
9.242748936
 20
4.2696494461
 30
0.0
 10
9.2538983627
 20
4.2685680946
 30
0.0
 10
9.2631119054
 20
4.2675020715
 30
0.0
 10
9.2704195109
 20
4.2665405631
 30
0.0
 10
9.2776500172
 20
4.2655081575
 30
0.0
 10
9.2848289356
 20
4.2643549232
 30
0.0
 10
9.2919500257
 20
4.2630674585
 30
0.0
 10
9.2989867196
 20
4.2616952839
 30
0.0
 10
9.3076838078
 20
4.2598027874
 30
0.0
 10
9.3179716906
 20
4.2572149738
 30
0.0
 10
9.3280722175
 20
4.2542896611
 30
0.0
 10
9.3379689281
 20
4.2509982096
 30
0.0
 10
9.347643908
 20
4.2473128541
 30
0.0
 10
9.3570772296
 20
4.2432041582
 30
0.0
 10
9.366246505
 20
4.2386432328
 30
0.0
 10
9.3736501962
 20
4.2344403675
 30
0.0
 10
9.3794094244
 20
4.2308279047
 30
0.0
 10
9.3836456497
 20
4.2279892699
 30
0.0
 10
9.3877959246
 20
4.2250178815
 30
0.0
 10
9.3918565456
 20
4.2219109002
 30
0.0
 10
9.395823631
 20
4.218665575
 30
0.0
 10
9.3996931127
 20
4.2152794729
 30
0.0
 10
9.4034610391
 20
4.2117508921
 30
0.0
 10
9.4071232146
 20
4.2080782723
 30
0.0
 10
9.4106752528
 20
4.2042601319
 30
0.0
 10
9.4141128864
 20
4.2002955545
 30
0.0
 10
9.4174321051
 20
4.196184231
 30
0.0
 10
9.4206286598
 20
4.1919260221
 30
0.0
 10
9.4236977875
 20
4.1875212466
 30
0.0
 10
9.4276309377
 20
4.1814302485
 30
0.0
 10
9.4303504258
 20
4.1766882683
 30
0.0
 10
9.4320594607
 20
4.1734561391
 30
0.0
 11
9.1143608796
 21
4.2735772941
 31
0.0
 11
9.1383146376
 21
4.2735152803
 31
0.0
 11
9.1502127853
 21
4.2734233424
 31
0.0
 11
9.16205111
 21
4.2732766388
 31
0.0
 11
9.1738245441
 21
4.2730635407
 31
0.0
 11
9.1855276792
 21
4.2727714301
 31
0.0
 11
9.1971547445
 21
4.2723866504
 31
0.0
 11
9.2086997657
 21
4.2718948302
 31
0.0
 11
9.2201563921
 21
4.2712802534
 31
0.0
 11
9.2315180406
 21
4.2705266389
 31
0.0
 11
9.2427774168
 21
4.2696161742
 31
0.0
 11
9.2539269248
 21
4.2685304617
 31
0.0
 11
9.264958034
 21
4.2672495428
 31
0.0
 11
9.2704263972
 21
4.2665294338
 31
0.0
 11
9.275861735
 21
4.2657526896
 31
0.0
 11
9.2866279127
 21
4.2640177578
 31
0.0
 11
9.291956012
 21
4.2630537629
 31
0.0
 11
9.2972455994
 21
4.2620215199
 31
0.0
 11
9.3077027061
 21
4.2597396801
 31
0.0
 11
9.3179856364
 21
4.2571465152
 31
0.0
 11
9.3280798705
 21
4.2542157116
 31
0.0
 11
9.3379685388
 21
4.2509195471
 31
0.0
 11
9.3476339464
 21
4.2472299683
 31
0.0
 11
9.3570556577
 21
4.2431183834
 31
0.0
 11
9.3662119292
 21
4.2385560397
 31
0.0
 11
9.3750785444
 21
4.2335151012
 31
0.0
 11
9.3793950808
 21
4.2308066766
 31
0.0
 11
9.3836293228
 21
4.2279685383
 31
0.0
 11
9.3877775804
 21
4.2249978093
 31
0.0
 11
9.3918360878
 21
4.2218917045
 31
0.0
 11
9.3958010791
 21
4.2186474394
 31
0.0
 11
9.3996686809
 21
4.2152625311
 31
0.0
 11
9.4034347296
 21
4.2117353124
 31
0.0
 11
9.4070950129
 21
4.2080642522
 31
0.0
 11
9.410645319
 21
4.2042478349
 31
0.0
 11
9.4140814464
 21
4.2002850957
 31
0.0
 11
9.4173992067
 21
4.1961757578
 31
0.0
 11
9.4205944123
 21
4.1919195881
 31
0.0
 11
9.4236628275
 21
4.1875166081
 31
0.0
 11
9.4265997643
 21
4.1829692273
 31
0.0
 11
9.4320594607
 21
4.1734561391
 31
0.0
  0
SPLINE
  5
24C
100
AcDbEntity
  8
0
100
AcDbSpline
 62
9
  6
CONTINUOUS
 70
0
 71
3
 72
27
 73
23
 74
21
 42
0.0000001
 43
0.0000001
 44
0.0000000001
 12
-0.000005028
 22
1.3040777758
 32
0.0
 13
-0.3772522557
 23
1.2483187017
 33
0.0
 40
0.0
 40
0.0
 40
0.0
 40
0.0
 40
0.0633361814
 40
0.1266627884
 40
0.1899505325
 40
0.2531713306
 40
0.3163047003
 40
0.3793328731
 40
0.4108022385
 40
0.4422385382
 40
0.5050019991
 40
0.5676051357
 40
0.5988409463
 40
0.6300296553
 40
0.6922585475
 40
0.7232962103
 40
0.7542803094
 40
0.7852091926
 40
0.8160811691
 40
0.8776458656
 40
0.9389580445
 40
1.0
 40
1.0
 40
1.0
 40
1.0
 10
8.382795392
 20
4.6331420565
 30
0.0
 10
8.3827952858
 20
4.6606738254
 30
0.0
 10
8.3822819225
 20
4.7157345706
 30
0.0
 10
8.3799770717
 20
4.7982770037
 30
0.0
 10
8.3761415709
 20
4.8807125689
 30
0.0
 10
8.3707784641
 20
4.9629786347
 30
0.0
 10
8.363898996
 20
5.0450184075
 30
0.0
 10
8.3569095192
 20
5.1131862586
 30
0.0
 10
8.3505702101
 20
5.1675611482
 30
0.0
 10
8.3437428813
 20
5.221760956
 30
0.0
 10
8.3342895177
 20
5.2892674149
 30
0.0
 10
8.3236103931
 20
5.3565025651
 30
0.0
 10
8.3143464738
 20
5.4100565
 30
0.0
 10
8.3046210927
 20
5.4633631144
 30
0.0
 10
8.2941819277
 20
5.5164498264
 30
0.0
 10
8.2830368677
 20
5.5692988449
 30
0.0
 10
8.2743401946
 20
5.6087573772
 30
0.0
 10
8.2653018221
 20
5.6480651312
 30
0.0
 10
8.2528111287
 20
5.700216876
 30
0.0
 10
8.2363637329
 20
5.7649990807
 30
0.0
 10
8.2152982865
 20
5.8421261803
 30
0.0
 10
8.2003673418
 20
5.8931773593
 30
0.0
 10
8.19269127
 20
5.9185772975
 30
0.0
 11
8.382795392
 21
4.6331420565
 31
0.0
 11
8.3820259558
 21
4.7157337791
 31
0.0
 11
8.3797209855
 21
4.7982844266
 31
0.0
 11
8.3758845335
 21
4.8807273514
 31
0.0
 11
8.3705214897
 21
4.962997571
 31
0.0
 11
8.3636419579
 21
5.0450404664
 31
0.0
 11
8.3552580447
 21
5.1268054
 31
0.0
 11
8.3505057407
 21
5.1675678102
 31
0.0
 11
8.3453822876
 21
5.2082417748
 31
0.0
 11
8.3340314811
 21
5.2892993187
 31
0.0
 11
8.3212248634
 21
5.3699279458
 31
0.0
 11
8.3142816465
 21
5.4100657645
 31
0.0
 11
8.306981815
 21
5.450077824
 31
0.0
 11
8.2913240234
 21
5.5297042614
 31
0.0
 11
8.2829720455
 21
5.5693087144
 31
0.0
 11
8.2742753343
 21
5.6087673736
 31
0.0
 11
8.2652368809
 21
5.6480752766
 31
0.0
 11
8.2558597078
 21
5.6872274492
 31
0.0
 11
8.2361034986
 21
5.7650438865
 31
0.0
 11
8.2150370943
 21
5.8421745843
 31
0.0
 11
8.19269127
 21
5.9185772975
 31
0.0
  0
SPLINE
  5
24D
100
AcDbEntity
  8
0
100
AcDbSpline
 62
6
  6
CONTINUOUS
 70
0
 71
3
 72
47
 73
43
 74
41
 42
0.0000001
 43
0.0000001
 44
0.0000000001
 12
0.1639133013
 22
0.3099930677
 32
0.0
 13
0.3506611931
 23
0.0
 33
0.0
 40
0.0
 40
0.0
 40
0.0
 40
0.0
 40
0.0312794261
 40
0.0467170313
 40
0.0620216409
 40
0.0771989257
 40
0.0922604851
 40
0.1072180163
 40
0.1220826721
 40
0.136866294
 40
0.151580997
 40
0.1662379936
 40
0.1808478856
 40
0.1954223622
 40
0.2099727934
 40
0.2245094066
 40
0.2390416074
 40
0.2681277818
 40
0.2973011194
 40
0.3266164964
 40
0.356119821
 40
0.3858452304
 40
0.415820297
 40
0.4460627632
 40
0.4765855778
 40
0.4919547197
 40
0.5073958348
 40
0.5384944157
 40
0.5541521345
 40
0.5698811903
 40
0.6015505759
 40
0.6334966239
 40
0.6657104087
 40
0.6981822435
 40
0.7309007134
 40
0.7638541589
 40
0.7970298655
 40
0.8304147524
 40
0.8639952183
 40
0.8977578382
 40
0.9316894859
 40
1.0
 40
1.0
 40
1.0
 40
1.0
 10
8.5835313233
 20
4.1734561391
 30
0.0
 10
8.5852403613
 20
4.1766882742
 30
0.0
 10
8.587959862
 20
4.1814302655
 30
0.0
 10
8.5918930314
 20
4.1875212852
 30
0.0
 10
8.5949621715
 20
4.191926089
 30
0.0
 10
8.5981587415
 20
4.196184317
 30
0.0
 10
8.6014779727
 20
4.200295646
 30
0.0
 10
8.6049156139
 20
4.2042602219
 30
0.0
 10
8.6084676512
 20
4.2080783615
 30
0.0
 10
8.6121298277
 20
4.2117509741
 30
0.0
 10
8.6158977543
 20
4.2152795457
 30
0.0
 10
8.6197672346
 20
4.2186656413
 30
0.0
 10
8.6237343159
 20
4.2219109633
 30
0.0
 10
8.6277949335
 20
4.2250179378
 30
0.0
 10
8.6319452037
 20
4.2279893181
 30
0.0
 10
8.6361814241
 20
4.2308279459
 30
0.0
 10
8.6419406448
 20
4.2344404015
 30
0.0
 10
8.6493443274
 20
4.2386432585
 30
0.0
 10
8.6585135928
 20
4.2432041755
 30
0.0
 10
8.6679469054
 20
4.2473128653
 30
0.0
 10
8.6776218776
 20
4.2509982179
 30
0.0
 10
8.6875185827
 20
4.2542896652
 30
0.0
 10
8.6976191043
 20
4.2572149765
 30
0.0
 10
8.7079069822
 20
4.2598027894
 30
0.0
 10
8.7166040663
 20
4.2616952823
 30
0.0
 10
8.7236407558
 20
4.2630674587
 30
0.0
 10
8.7307618418
 20
4.2643549228
 30
0.0
 10
8.7379407565
 20
4.2655081539
 30
0.0
 10
8.7451712581
 20
4.2665405602
 30
0.0
 10
8.7524788588
 20
4.2675020716
 30
0.0
 10
8.7616923972
 20
4.2685680884
 30
0.0
 10
8.7728418184
 20
4.2696494462
 30
0.0
 10
8.7841008153
 20
4.2705560737
 30
0.0
 10
8.7954617179
 20
4.2713059141
 30
0.0
 10
8.8069174168
 20
4.2719172511
 30
0.0
 10
8.8184612887
 20
4.27240588
 30
0.0
 10
8.8300870653
 20
4.2727879144
 30
0.0
 10
8.841788788
 20
4.2730773925
 30
0.0
 10
8.8535607742
 20
4.2732881487
 30
0.0
 10
8.8653976502
 20
4.2734327464
 30
0.0
 10
8.8812944374
 20
4.2735529263
 30
0.0
 10
8.8932452889
 20
4.2735772941
 30
0.0
 10
8.9012299043
 20
4.2735772941
 30
0.0
 11
8.5835313233
 21
4.1734561391
 31
0.0
 11
8.588991035
 21
4.1829692417
 31
0.0
 11
8.5919279882
 21
4.1875166443
 31
0.0
 11
8.5949964227
 21
4.1919196579
 31
0.0
 11
8.5981916439
 21
4.1961758474
 31
0.0
 11
8.6015094143
 21
4.2002851889
 31
0.0
 11
8.6049455472
 21
4.2042479261
 31
0.0
 11
8.6084958551
 21
4.2080643422
 31
0.0
 11
8.6121561378
 21
4.2117353947
 31
0.0
 11
8.6159221849
 21
4.2152626036
 31
0.0
 11
8.6197897856
 21
4.2186475058
 31
0.0
 11
8.6237547753
 21
4.2218917681
 31
0.0
 11
8.6278132782
 21
4.2249978658
 31
0.0
 11
8.6319615301
 21
4.2279685864
 31
0.0
 11
8.6361957671
 21
4.2308067178
 31
0.0
 11
8.6405122988
 21
4.2335151372
 31
0.0
 11
8.6493789022
 21
4.2385560651
 31
0.0
 11
8.6585351637
 21
4.2431184005
 31
0.0
 11
8.6679568666
 21
4.2472299797
 31
0.0
 11
8.677622266
 21
4.2509195547
 31
0.0
 11
8.6875109294
 21
4.254215716
 31
0.0
 11
8.6976051588
 21
4.2571465181
 31
0.0
 11
8.7078880837
 21
4.2597396814
 31
0.0
 11
8.7183451861
 21
4.2620215193
 31
0.0
 11
8.7236347694
 21
4.2630537628
 31
0.0
 11
8.7289628654
 21
4.2640177573
 31
0.0
 11
8.739729038
 21
4.2657526866
 31
0.0
 11
8.7451643719
 21
4.2665294312
 31
0.0
 11
8.7506327308
 21
4.2672495413
 31
0.0
 11
8.7616638352
 21
4.2685304578
 31
0.0
 11
8.7728133369
 21
4.2696161724
 31
0.0
 11
8.7840727098
 21
4.2705266359
 31
0.0
 11
8.795434356
 21
4.2712802511
 31
0.0
 11
8.8068909814
 21
4.271894829
 31
0.0
 11
8.8184360049
 21
4.272386648
 31
0.0
 11
8.8300630726
 21
4.2727714306
 31
0.0
 11
8.8417662119
 21
4.2730635392
 31
0.0
 11
8.8535396498
 21
4.2732766397
 31
0.0
 11
8.8653779814
 21
4.2734233423
 31
0.0
 11
8.8772761382
 21
4.2735152807
 31
0.0
 11
8.9012299043
 21
4.2735772941
 31
0.0
  0
SPLINE
  5
24E
100
AcDbEntity
  8
0
100
AcDbSpline
 62
6
  6
CONTINUOUS
 70
0
 71
3
 72
45
 73
41
 74
39
 42
0.0000001
 43
0.0000001
 44
0.0000000001
 12
0.3506593564
 22
0.0
 32
0.0
 13
0.1639124427
 23
-0.3099914439
 33
0.0
 40
0.0
 40
0.0
 40
0.0
 40
0.0
 40
0.0683102438
 40
0.1022416089
 40
0.1360040291
 40
0.169584385
 40
0.2029691284
 40
0.2361447209
 40
0.2690980195
 40
0.3018164352
 40
0.3342881772
 40
0.3665019279
 40
0.3984479629
 40
0.4301173275
 40
0.4615037376
 40
0.4926023132
 40
0.5080435654
 40
0.5234128348
 40
0.5539356961
 40
0.5841785559
 40
0.6141538248
 40
0.6438795778
 40
0.6733833316
 40
0.7026989782
 40
0.731872884
 40
0.7609593368
 40
0.7754918425
 40
0.790028731
 40
0.8045793453
 40
0.81915403
 40
0.8337642657
 40
0.8484215375
 40
0.8631364003
 40
0.8779201718
 40
0.892785054
 40
0.9077428102
 40
0.9228046263
 40
0.9379822683
 40
0.9687204073
 40
1.0
 40
1.0
 40
1.0
 40
1.0
 10
3.0595468796
 20
4.2735772941
 30
0.0
 10
3.0675314217
 20
4.2735772941
 30
0.0
 10
3.0794821458
 20
4.273552913
 30
0.0
 10
3.0953787621
 20
4.2734327586
 30
0.0
 10
3.1072155063
 20
4.2732881251
 30
0.0
 10
3.1189873792
 20
4.2730774375
 30
0.0
 10
3.1306889957
 20
4.2727878905
 30
0.0
 10
3.1423146672
 20
4.2724059529
 30
0.0
 10
3.153858439
 20
4.2719172567
 30
0.0
 10
3.1653140471
 20
4.2713060014
 30
0.0
 10
3.1766748693
 20
4.2705561423
 30
0.0
 10
3.1879337861
 20
4.2696495342
 30
0.0
 10
3.1990831681
 20
4.2685682581
 30
0.0
 10
3.2101147052
 20
4.2672917793
 30
0.0
 10
3.2210193605
 20
4.2658000019
 30
0.0
 10
3.230013582
 20
4.2643550943
 30
0.0
 10
3.2371346851
 20
4.2630677125
 30
0.0
 10
3.2441713893
 20
4.2616956269
 30
0.0
 10
3.2528684717
 20
4.2598030294
 30
0.0
 10
3.2631564066
 20
4.2572153707
 30
0.0
 10
3.2732569856
 20
4.2542900518
 30
0.0
 10
3.2831537471
 20
4.2509985929
 30
0.0
 10
3.2928288318
 20
4.2473133432
 30
0.0
 10
3.3022622222
 20
4.2432045941
 30
0.0
 10
3.3114315946
 20
4.2386437237
 30
0.0
 10
3.3188353842
 20
4.2344408698
 30
0.0
 10
3.3245946623
 20
4.2308283837
 30
0.0
 10
3.3288309496
 20
4.227989744
 30
0.0
 10
3.3329812841
 20
4.2250183656
 30
0.0
 10
3.3370419672
 20
4.2219113788
 30
0.0
 10
3.3410090916
 20
4.218665999
 30
0.0
 10
3.3448786317
 20
4.2152798751
 30
0.0
 10
3.3486466157
 20
4.2117513043
 30
0.0
 10
3.3523088395
 20
4.2080786891
 30
0.0
 10
3.3558609012
 20
4.2042605102
 30
0.0
 10
3.3592985885
 20
4.2002959133
 30
0.0
 10
3.3626178959
 20
4.1961845115
 30
0.0
 10
3.3668976412
 20
4.190483403
 30
0.0
 10
3.3719268386
 20
4.182982468
 30
0.0
 10
3.3755364226
 20
4.1766882745
 30
0.0
 10
3.3772454607
 20
4.1734561391
 30
0.0
 11
3.0595468796
 21
4.2735772941
 31
0.0
 11
3.0835004255
 21
4.2735152773
 31
0.0
 11
3.095398421
 21
4.2734233455
 31
0.0
 11
3.1072366204
 21
4.2732766338
 31
0.0
 11
3.1190099585
 21
4.2730635613
 31
0.0
 11
3.1307129857
 21
4.2727714344
 31
0.0
 11
3.1423399538
 21
4.2723866935
 31
0.0
 11
3.1538848645
 21
4.2718948599
 31
0.0
 11
3.1653414128
 21
4.2712803216
 31
0.0
 11
3.1767029669
 21
4.2705267114
 31
0.0
 11
3.1879622704
 21
4.2696162714
 31
0.0
 11
3.1991117125
 21
4.2685305971
 31
0.0
 11
3.2101427512
 21
4.2672496829
 31
0.0
 11
3.2210464358
 21
4.2657529056
 31
0.0
 11
3.2318125467
 21
4.2640179637
 31
0.0
 11
3.2371406714
 21
4.2630540177
 31
0.0
 11
3.2424302812
 21
4.2620218235
 31
0.0
 11
3.2528873412
 21
4.2597399773
 31
0.0
 11
3.2631703681
 21
4.2571468813
 31
0.0
 11
3.2732646221
 21
4.2542161072
 31
0.0
 11
3.2831533573
 21
4.2509199528
 31
0.0
 11
3.292818878
 21
4.2472304256
 31
0.0
 11
3.3022406271
 21
4.2431188503
 31
0.0
 11
3.3113970487
 21
4.2385565098
 31
0.0
 11
3.3202637186
 21
4.2335156096
 31
0.0
 11
3.3245803241
 21
4.2308071568
 31
0.0
 11
3.3288146331
 21
4.2279690074
 31
0.0
 11
3.3329629362
 21
4.2249982938
 31
0.0
 11
3.3370214903
 21
4.2218921869
 31
0.0
 11
3.3409865502
 21
4.2186478626
 31
0.0
 11
3.3448542135
 21
4.2152629262
 31
0.0
 11
3.3486203055
 21
4.2117357228
 31
0.0
 11
3.3522806248
 21
4.208064671
 31
0.0
 11
3.3558309703
 21
4.2042482188
 31
0.0
 11
3.3592671479
 21
4.2002854524
 31
0.0
 11
3.3625849704
 21
4.1961760727
 31
0.0
 11
3.3657802507
 21
4.1919198059
 31
0.0
 11
3.3717857343
 21
4.1829692344
 31
0.0
 11
3.3772454607
 21
4.1734561391
 31
0.0
  0
SPLINE
  5
24F
100
AcDbEntity
  8
0
100
AcDbSpline
 62
9
  6
CONTINUOUS
 70
0
 71
3
 72
27
 73
23
 74
21
 42
0.0000001
 43
0.0000001
 44
0.0000000001
 12
-0.3772520569
 22
-1.2483187576
 32
0.0
 13
-0.0000049157
 23
-1.3040777718
 33
0.0
 40
0.0
 40
0.0
 40
0.0
 40
0.0
 40
0.0610419564
 40
0.1223541356
 40
0.1839188319
 40
0.2147908081
 40
0.2457196911
 40
0.2767037898
 40
0.3077414523
 40
0.369970344
 40
0.4011590529
 40
0.4323948635
 40
0.4949980002
 40
0.5577614612
 40
0.5891977607
 40
0.6206671258
 40
0.6836952979
 40
0.7468286671
 40
0.8100494655
 40
0.8733372105
 40
0.9366638183
 40
1.0
 40
1.0
 40
1.0
 40
1.0
 10
3.7680855117
 20
5.9185772941
 30
0.0
 10
3.7604094439
 20
5.8931773544
 30
0.0
 10
3.745478503
 20
5.842126174
 30
0.0
 10
3.7244130546
 20
5.7649990748
 30
0.0
 10
3.707965655
 20
5.7002168713
 30
0.0
 10
3.6954749597
 20
5.6480651275
 30
0.0
 10
3.6864365869
 20
5.6087573741
 30
0.0
 10
3.677739914
 20
5.5692988423
 30
0.0
 10
3.666594855
 20
5.5164498242
 30
0.0
 10
3.6561556913
 20
5.4633631126
 30
0.0
 10
3.646430311
 20
5.4100564984
 30
0.0
 10
3.637166392
 20
5.3565025636
 30
0.0
 10
3.6264872667
 20
5.2892674137
 30
0.0
 10
3.6170339023
 20
5.2217609551
 30
0.0
 10
3.6102065731
 20
5.1675611477
 30
0.0
 10
3.6038672643
 20
5.1131862587
 30
0.0
 10
3.5968777886
 20
5.0450184084
 30
0.0
 10
3.5899983215
 20
4.9629786362
 30
0.0
 10
3.5846352142
 20
4.8807125703
 30
0.0
 10
3.5807997101
 20
4.7982770047
 30
0.0
 10
3.5784948573
 20
4.715734571
 30
0.0
 10
3.5779814958
 20
4.6606738255
 30
0.0
 10
3.577981392
 20
4.6331420565
 30
0.0
 11
3.7680855117
 21
5.9185772941
 31
0.0
 11
3.7457396938
 21
5.8421745781
 31
0.0
 11
3.7246732884
 21
5.7650438804
 31
0.0
 11
3.7049170755
 21
5.6872274446
 31
0.0
 11
3.6955399011
 21
5.6480752728
 31
0.0
 11
3.6865014472
 21
5.6087673705
 31
0.0
 11
3.6778047362
 21
5.5693087118
 31
0.0
 11
3.669452759
 21
5.5297042592
 31
0.0
 11
3.6537949692
 21
5.4500778224
 31
0.0
 11
3.6464951383
 21
5.410065763
 31
0.0
 11
3.6395519216
 21
5.3699279444
 31
0.0
 11
3.6267453033
 21
5.2892993174
 31
0.0
 11
3.6153944958
 21
5.2082417739
 31
0.0
 11
3.6102710426
 21
5.1675678096
 31
0.0
 11
3.6055187388
 21
5.1268053999
 31
0.0
 11
3.5971348266
 21
5.0450404675
 31
0.0
 11
3.5902552956
 21
4.9629975729
 31
0.0
 11
3.5848922512
 21
4.8807273532
 31
0.0
 11
3.5810557966
 21
4.7982844275
 31
0.0
 11
3.5787508248
 21
4.7157337793
 31
0.0
 11
3.577981392
 21
4.6331420565
 31
0.0
  0
SPLINE
  5
250
100
AcDbEntity
  8
0
100
AcDbSpline
 62
9
  6
CONTINUOUS
 70
0
 71
3
 72
27
 73
23
 74
21
 42
0.0000001
 43
0.0000001
 44
0.0000000001
 12
-0.000005028
 22
1.3040777758
 32
0.0
 13
-0.3772522557
 23
1.2483187017
 33
0.0
 40
0.0
 40
0.0
 40
0.0
 40
0.0
 40
0.0633361814
 40
0.1266627884
 40
0.1899505325
 40
0.2531713306
 40
0.3163047003
 40
0.3793328731
 40
0.4108022385
 40
0.4422385382
 40
0.5050019991
 40
0.5676051357
 40
0.5988409463
 40
0.6300296553
 40
0.6922585475
 40
0.7232962103
 40
0.7542803094
 40
0.7852091926
 40
0.8160811691
 40
0.8776458656
 40
0.9389580445
 40
1.0
 40
1.0
 40
1.0
 40
1.0
 10
2.327981392
 20
4.6331420565
 30
0.0
 10
2.3279812858
 20
4.6606738254
 30
0.0
 10
2.3274679225
 20
4.7157345706
 30
0.0
 10
2.3251630717
 20
4.7982770037
 30
0.0
 10
2.3213275709
 20
4.8807125689
 30
0.0
 10
2.3159644641
 20
4.9629786347
 30
0.0
 10
2.309084996
 20
5.0450184075
 30
0.0
 10
2.3020955192
 20
5.1131862586
 30
0.0
 10
2.2957562101
 20
5.1675611482
 30
0.0
 10
2.2889288813
 20
5.221760956
 30
0.0
 10
2.2794755177
 20
5.2892674149
 30
0.0
 10
2.2687963931
 20
5.3565025651
 30
0.0
 10
2.2595324738
 20
5.4100565
 30
0.0
 10
2.2498070927
 20
5.4633631144
 30
0.0
 10
2.2393679277
 20
5.5164498264
 30
0.0
 10
2.2282228677
 20
5.5692988449
 30
0.0
 10
2.2195261946
 20
5.6087573772
 30
0.0
 10
2.2104878221
 20
5.6480651312
 30
0.0
 10
2.1979971287
 20
5.700216876
 30
0.0
 10
2.1815497329
 20
5.7649990807
 30
0.0
 10
2.1604842865
 20
5.8421261803
 30
0.0
 10
2.1455533418
 20
5.8931773593
 30
0.0
 10
2.13787727
 20
5.9185772975
 30
0.0
 11
2.327981392
 21
4.6331420565
 31
0.0
 11
2.3272119558
 21
4.7157337791
 31
0.0
 11
2.3249069855
 21
4.7982844266
 31
0.0
 11
2.3210705335
 21
4.8807273514
 31
0.0
 11
2.3157074897
 21
4.962997571
 31
0.0
 11
2.3088279579
 21
5.0450404664
 31
0.0
 11
2.3004440447
 21
5.1268054
 31
0.0
 11
2.2956917407
 21
5.1675678102
 31
0.0
 11
2.2905682876
 21
5.2082417748
 31
0.0
 11
2.2792174811
 21
5.2892993187
 31
0.0
 11
2.2664108634
 21
5.3699279458
 31
0.0
 11
2.2594676465
 21
5.4100657645
 31
0.0
 11
2.252167815
 21
5.450077824
 31
0.0
 11
2.2365100234
 21
5.5297042614
 31
0.0
 11
2.2281580455
 21
5.5693087144
 31
0.0
 11
2.2194613343
 21
5.6087673736
 31
0.0
 11
2.2104228809
 21
5.6480752766
 31
0.0
 11
2.2010457078
 21
5.6872274492
 31
0.0
 11
2.1812894986
 21
5.7650438865
 31
0.0
 11
2.1602230943
 21
5.8421745843
 31
0.0
 11
2.13787727
 21
5.9185772975
 31
0.0
  0
ENDSEC
  0
SECTION
  2
OBJECTS
  0
DICTIONARY
  5
C
100
AcDbDictionary
280
0
281
1
  3
ACAD_GROUP
350
D
  3
ACAD_MLINESTYLE
350
17
  3
ACAD_LAYOUT
350
1A
  3
ACAD_PLOTSETTINGS
350
19
  3
ACAD_PLOTSTYLENAME
350
E
  0
DICTIONARY
  5
D
102
{ACAD_REACTORS
330
C
102
}
100
AcDbDictionary
280
0
281
1
  0
ACDBDICTIONARYWDFLT
  5
E
102
{ACAD_REACTORS
330
C
102
}
100
AcDbDictionary
281
1
  3
Normal
350
F
100
AcDbDictionaryWithDefault
340
F
  0
DICTIONARY
  5
17
102
{ACAD_REACTORS
330
C
102
}
100
AcDbDictionary
280
0
281
1
  3
Standard
350
18
  0
DICTIONARY
  5
19
102
{ACAD_REACTORS
330
C
102
}
100
AcDbDictionary
281
1
  0
DICTIONARY
  5
1A
102
{ACAD_REACTORS
330
C
102
}
100
AcDbDictionary
281
1
  3
Model
350
251
  3
Layout1
350
252
  0
ACDBPLACEHOLDER
  5
F
102
{ACAD_REACTORS
330
E
102
}
  0
MLINESTYLE
  5
18
102
{ACAD_REACTORS
330
17
102
}
100
AcDbMlineStyle
  2
STANDARD
 70
0
  3

 62
256
 51
90.0
 52
90.0
 71
2
 49
0.5
 62
256
  6
BYLAYER
 49
-0.5
 62
256
  6
BYLAYER
  0
LAYOUT
  5
251
102
{ACAD_REACTORS
330
1A
102
}
100
AcDbPlotSettings
  1

  2
none_device
  4
ISO_A4_(297.00_x_210.00_MM)
  6

 40
0.0
 41
0.0
 42
0.0
 43
0.0
 44
297.0
 45
210.0
 46
0.0
 47
0.0
 48
0.0
 49
0.0
140
0.0
141
0.0
142
1.0
143
1.0
 70
1024
 72
0
 73
0
 74
0
  7

 75
0
147
1.0
148
0.0
149
0.0
100
AcDbLayout
  1
Model
 70
0
 71
0
 10
0.0
 20
0.0
 11
11.6929133858
 21
8.2677165354
 12
0.0
 22
0.0
 32
0.0
 14
0.0
 24
0.0
 34
0.0
 15
0.0
 25
0.0
 35
0.0
146
0.0
 13
0.0
 23
0.0
 33
0.0
 16
1.0
 26
0.0
 36
0.0
 17
0.0
 27
1.0
 37
0.0
 76
0
330
203
345
0
346
0
  0
LAYOUT
  5
252
102
{ACAD_REACTORS
330
1A
102
}
100
AcDbPlotSettings
  1

  2
none_device
  4
ISO_A4_(297.00_x_210.00_MM)
  6

 40
0.0
 41
0.0
 42
0.0
 43
0.0
 44
297.0
 45
210.0
 46
0.0
 47
0.0
 48
0.0
 49
0.0
140
0.0
141
0.0
142
1.0
143
1.0
 70
0
 72
0
 73
0
 74
0
  7

 75
0
147
1.0
148
0.0
149
0.0
100
AcDbLayout
  1
Layout1
 70
0
 71
1
 10
0.0
 20
0.0
 11
11.6929133858
 21
8.2677165354
 12
0.0
 22
0.0
 32
0.0
 14
0.0
 24
0.0
 34
0.0
 15
0.0
 25
0.0
 35
0.0
146
0.0
 13
0.0
 23
0.0
 33
0.0
 16
1.0
 26
0.0
 36
0.0
 17
0.0
 27
1.0
 37
0.0
 76
0
330
204
345
0
346
0
  0
ENDSEC
  0
EOF
