999
DXF file: 266_top.dxf
999
Pro/ENGINEER 2018400 by Parametric Technology Corporation
  0
SECTION
  2
HEADER
  9
$ACADVER
  1
AC1027
  9
$DWGCODEPAGE
  3
ANSI_1252
  9
$EXTMAX
 10
11.0
 20
8.5
 30
0.0
  9
$EXTMIN
 10
0.0
 20
0.0
 30
0.0
  9
$LIMMIN
 10
0.0
 20
0.0
  9
$LIMMAX
 10
11.0
 20
8.5
  9
$VIEWCTR
 10
5.5
 20
4.25
  9
$VIEWSIZE
 40
8.5
  9
$CLAYER
  8
0
  9
$LTSCALE
 40
0.605
  9
$CELTYPE
  6
BYLAYER
  9
$DIMSCALE
 40
1.0
  9
$DIMASZ
 40
0.1
  9
$DIMEXO
 40
0.0625
  9
$DIMDLI
 40
0.418
  9
$DIMEXE
 40
0.125
  9
$DIMCEN
 40
0.099
  9
$DIMLFAC
 40
1.0
  9
$DIMBLK
  1
_FILLED
  9
$DIMALT
 70
1
  9
$DIMALTD
 70
1
  9
$DIMALTTD
 70
2
  9
$DIMALTF
 40
25.4
  9
$DIMTXT
 40
0.08
  9
$DIMTOL
 70
1
  9
$DIMLIM
 70
0
  9
$DIMTFAC
 40
1.0
  9
$DIMTP
 40
0.01
  9
$DIMTM
 40
0.01
  9
$DIMGAP
 40
0.09
  9
$DIMDSEP
 70
46
  9
$AUNITS
 70
0
  9
$PDMODE
 70
3
  9
$PDSIZE
 40
0.3125
  9
$HANDSEED
  5
23F
  9
$TILEMODE
 70
1
  9
$MEASUREMENT
 70
0
  9
$INSUNITS
 70
1
  0
ENDSEC
  0
SECTION
  2
CLASSES
  0
CLASS
  1
ACDBDICTIONARYWDFLT
  2
AcDbDictionaryWithDefault
  3
AutoCAD 2000
 90
0
 91
1
280
0
281
0
  0
CLASS
  1
ACDBPLACEHOLDER
  2
AcDbPlaceHolder
  3
AutoCAD 2000
 90
0
 91
1
280
0
281
0
  0
CLASS
  1
LAYOUT
  2
AcDbLayout
  3
AutoCAD 2000
 90
0
 91
0
280
0
281
0
  0
ENDSEC
  0
SECTION
  2
TABLES
  0
TABLE
  2
VPORT
  5
8
100
AcDbSymbolTable
 70
2
  0
VPORT
  5
1F4
100
AcDbSymbolTableRecord
100
AcDbViewportTableRecord
  2
*ACTIVE
 70
0
 10
0.0
 20
0.0
 11
1.0
 21
1.0
 12
5.5
 22
4.25
 13
0.0
 23
0.0
 14
1.0
 24
1.0
 15
0.0
 25
0.0
 16
0.0
 26
0.0
 36
1.0
 17
0.0
 27
0.0
 37
0.0
 40
8.5
 41
1.2941176471
 42
50.0
 43
0.0
 44
0.0
 50
0.0
 51
0.0
 71
0
 72
100
 73
1
 74
1
 75
0
 76
0
 77
0
 78
0
  0
ENDTAB
  0
TABLE
  2
LTYPE
  5
5
100
AcDbSymbolTable
 70
6
  0
LTYPE
  5
14
100
AcDbSymbolTableRecord
100
AcDbLinetypeTableRecord
  2
BYBLOCK
 70
0
  3

 72
65
 73
0
 40
0.0
  0
LTYPE
  5
15
100
AcDbSymbolTableRecord
100
AcDbLinetypeTableRecord
  2
BYLAYER
 70
0
  3

 72
65
 73
0
 40
0.0
  0
LTYPE
  5
16
100
AcDbSymbolTableRecord
100
AcDbLinetypeTableRecord
  2
CONTINUOUS
 70
64
  3
Solid line
 72
65
 73
0
 40
0.0
  0
LTYPE
  5
1F5
100
AcDbSymbolTableRecord
100
AcDbLinetypeTableRecord
  2
CENTER
 70
64
  3
____ _ ____ _ ____ _ ____ _ ____ _ ____ _ ____
 72
65
 73
4
 40
0.6
 49
0.375
 74
0
 49
-0.075
 74
0
 49
0.075
 74
0
 49
-0.075
 74
0
  0
LTYPE
  5
1F6
100
AcDbSymbolTableRecord
100
AcDbLinetypeTableRecord
  2
HIDDEN
 70
64
  3
- - - - - - - - - - - - - - - - - - - -
 72
65
 73
2
 40
0.2
 49
0.1
 74
0
 49
-0.1
 74
0
  0
LTYPE
  5
1F7
100
AcDbSymbolTableRecord
100
AcDbLinetypeTableRecord
  2
PHANTOM
 70
64
  3
_____ _ _ _____ _ _ _____ _ _ _____
 72
65
 73
6
 40
0.8
 49
0.45
 74
0
 49
-0.05
 74
0
 49
0.1
 74
0
 49
-0.05
 74
0
 49
0.1
 74
0
 49
-0.05
 74
0
  0
LTYPE
  5
1F8
100
AcDbSymbolTableRecord
100
AcDbLinetypeTableRecord
  2
DOT
 70
64
  3
. . . . . . . . . . . . . . . . . . . .
 72
65
 73
2
 40
0.2
 49
0.1
 74
0
 49
-0.1
 74
0
  0
LTYPE
  5
1F9
100
AcDbSymbolTableRecord
100
AcDbLinetypeTableRecord
  2
DASHED
 70
64
  3
- - - - - - - - - - - - - - - - - - - -
 72
65
 73
2
 40
0.2
 49
0.1
 74
0
 49
-0.1
 74
0
  0
ENDTAB
  0
TABLE
  2
LAYER
  5
2
100
AcDbSymbolTable
 70
36
  0
LAYER
  5
10
100
AcDbSymbolTableRecord
100
AcDbLayerTableRecord
  2
0
 70
0
 62
7
  6
CONTINUOUS
370
-3
390
F
  0
LAYER
  5
1FA
100
AcDbSymbolTableRecord
100
AcDbLayerTableRecord
  2
DEFAULT_1
 70
0
 62
7
  6
CENTER
370
-3
390
F
  0
LAYER
  5
1FB
100
AcDbSymbolTableRecord
100
AcDbLayerTableRecord
  2
DEFAULT_2
 70
0
 62
8
  6
HIDDEN
370
-3
390
F
  0
LAYER
  5
1FC
100
AcDbSymbolTableRecord
100
AcDbLayerTableRecord
  2
DEFAULT_3
 70
0
 62
7
  6
PHANTOM
370
-3
390
F
  0
LAYER
  5
1FD
100
AcDbSymbolTableRecord
100
AcDbLayerTableRecord
  2
ALL_FEATURES
 70
0
 62
7
  6
CONTINUOUS
370
-3
390
F
  0
LAYER
  5
1FE
100
AcDbSymbolTableRecord
100
AcDbLayerTableRecord
  2
AXES_FEATURES
 70
0
 62
7
  6
CONTINUOUS
370
-3
390
F
  0
LAYER
  5
1FF
100
AcDbSymbolTableRecord
100
AcDbLayerTableRecord
  2
CUT_FEATURES
 70
0
 62
7
  6
CONTINUOUS
370
-3
390
F
  0
LAYER
  5
200
100
AcDbSymbolTableRecord
100
AcDbLayerTableRecord
  2
DATUM_PLANES
 70
0
 62
7
  6
CONTINUOUS
370
-3
390
F
  0
LAYER
  5
201
100
AcDbSymbolTableRecord
100
AcDbLayerTableRecord
  2
DEFAULT_COORDINATE_SYSTEM
 70
0
 62
7
  6
CONTINUOUS
370
-3
390
F
  0
LAYER
  5
202
100
AcDbSymbolTableRecord
100
AcDbLayerTableRecord
  2
DEFAULT_DATUM_AXES
 70
0
 62
7
  6
CONTINUOUS
370
-3
390
F
  0
LAYER
  5
203
100
AcDbSymbolTableRecord
100
AcDbLayerTableRecord
  2
DEFAULT_DATUM_PLANES
 70
0
 62
7
  6
CONTINUOUS
370
-3
390
F
  0
LAYER
  5
204
100
AcDbSymbolTableRecord
100
AcDbLayerTableRecord
  2
DIMENSIONS
 70
0
 62
7
  6
CONTINUOUS
370
-3
390
F
  0
LAYER
  5
205
100
AcDbSymbolTableRecord
100
AcDbLayerTableRecord
  2
PART_REFERENCE_DIMENSIONS
 70
0
 62
7
  6
CONTINUOUS
370
-3
390
F
  0
LAYER
  5
206
100
AcDbSymbolTableRecord
100
AcDbLayerTableRecord
  2
PROTRUSION_FEATURES
 70
0
 62
7
  6
CONTINUOUS
370
-3
390
F
  0
LAYER
  5
207
100
AcDbSymbolTableRecord
100
AcDbLayerTableRecord
  2
QUILTS
 70
0
 62
7
  6
CONTINUOUS
370
-3
390
F
  0
LAYER
  5
208
100
AcDbSymbolTableRecord
100
AcDbLayerTableRecord
  2
REFERENCE_DIMENSIONS
 70
0
 62
7
  6
CONTINUOUS
370
-3
390
F
  0
LAYER
  5
209
100
AcDbSymbolTableRecord
100
AcDbLayerTableRecord
  2
ROUND_FEATURES
 70
0
 62
7
  6
CONTINUOUS
370
-3
390
F
  0
LAYER
  5
20A
100
AcDbSymbolTableRecord
100
AcDbLayerTableRecord
  2
SHELL_FEATURES
 70
0
 62
7
  6
CONTINUOUS
370
-3
390
F
  0
ENDTAB
  0
TABLE
  2
STYLE
  5
3
100
AcDbSymbolTable
 70
1
  0
STYLE
  5
11
100
AcDbSymbolTableRecord
100
AcDbTextStyleTableRecord
  2
STANDARD
 70
0
 40
0.0
 41
0.8
 50
0.0
 71
0
 42
0.2
  3
txt
  4

  0
STYLE
  5
20B
100
AcDbSymbolTableRecord
100
AcDbTextStyleTableRecord
  2
TEXTSTYLE_1
 70
0
 40
0.0
 41
0.8
 50
0.0
 71
0
 42
0.2
  3
gdt
  4

  0
ENDTAB
  0
TABLE
  2
VIEW
  5
6
100
AcDbSymbolTable
 70
0
  0
ENDTAB
  0
TABLE
  2
UCS
  5
7
100
AcDbSymbolTable
 70
0
  0
ENDTAB
  0
TABLE
  2
APPID
  5
9
100
AcDbSymbolTable
 70
1
  0
APPID
  5
20C
100
AcDbSymbolTableRecord
100
AcDbRegAppTableRecord
  2
ACAD
 70
0
  0
ENDTAB
  0
TABLE
  2
BLOCK_RECORD
  5
1
100
AcDbSymbolTable
 70
0
  0
BLOCK_RECORD
  5
20D
100
AcDbSymbolTableRecord
100
AcDbBlockTableRecord
  2
*Model_Space
  0
BLOCK_RECORD
  5
20E
100
AcDbSymbolTableRecord
100
AcDbBlockTableRecord
  2
*Paper_Space
  0
BLOCK_RECORD
  5
20F
100
AcDbSymbolTableRecord
100
AcDbBlockTableRecord
  2
_FILLED
  0
ENDTAB
  0
TABLE
  2
DIMSTYLE
  5
A
100
AcDbSymbolTable
 70
1
100
AcDbDimStyleTable
 71
0
  0
DIMSTYLE
105
210
100
AcDbSymbolTableRecord
100
AcDbDimStyleTableRecord
  2
STANDARD
 70
0
  3

  4

 40
1.0
 41
0.1
 42
0.0625
 43
0.38
 44
0.125
 45
0.0
 46
0.0
 47
0.01
 48
0.01
140
0.08
141
0.09
142
0.0
143
25.4
144
1.0
145
0.0
146
1.0
147
0.09
 71
1.0
 72
0.0
 73
1
 74
1
 75
0
 76
0
 77
0
 78
4
 79
1
170
1
171
1
172
0
173
0
174
0
175
0
176
0
177
0
178
0
270
2
179
2
271
2
272
2
273
2
274
2
275
0
280
0
281
0
282
0
283
1
284
4
285
0
286
0
287
3
288
0
340
11
278
46
341
20F
342
20F
343
20F
344
20F
  0
ENDTAB
  0
ENDSEC
  0
SECTION
  2
BLOCKS
  0
BLOCK
  5
20
100
AcDbEntity
  8
0
100
AcDbBlockBegin
  2
*Model_Space
 70
0
 10
0.0
 20
0.0
 30
0.0
  3
*Model_Space
  1

  0
ENDBLK
  5
21
100
AcDbEntity
  8
0
100
AcDbBlockEnd
  0
BLOCK
  5
1C
100
AcDbEntity
  8
0
100
AcDbBlockBegin
  2
*Paper_Space
 70
0
 10
0.0
 20
0.0
 30
0.0
  3
*Paper_Space
  1

  0
ENDBLK
  5
1D
100
AcDbEntity
  8
0
100
AcDbBlockEnd
  0
BLOCK
  5
211
100
AcDbEntity
  8
0
100
AcDbBlockBegin
  2
_FILLED
 70
64
 10
0.0
 20
0.0
  3
_FILLED
  1

  0
SOLID
  5
212
100
AcDbEntity
  8
0
  6
BYBLOCK
 62
0
100
AcDbTrace
 10
0.0
 20
0.0
 11
-1.0
 21
0.2
 12
-1.0
 22
-0.2
 13
-1.0
 23
-0.2
  0
ENDBLK
  5
213
100
AcDbEntity
  8
0
  6
BYBLOCK
 62
0
100
AcDbBlockEnd
  0
ENDSEC
  0
SECTION
  2
ENTITIES
  0
MTEXT
  5
214
100
AcDbEntity
  8
0
100
AcDbMText
 62
2
  6
CONTINUOUS
  7
STANDARD
 71
3
 72
1
 10
4.7623621003
 20
1.6726191705
 30
0.0
 11
1.0
 21
0.0
 31
0.0
 73
2
 44
0.9
  1
SCALE  1.000
 40
0.08
 41
0.768
  0
LINE
  5
215
100
AcDbEntity
  8
0
100
AcDbLine
 62
7
  6
CONTINUOUS
 10
0.0
 20
0.0
 11
0.0
 21
8.5
  0
LINE
  5
216
100
AcDbEntity
  8
0
100
AcDbLine
 62
7
  6
CONTINUOUS
 10
0.0
 20
0.0
 11
11.0
 21
0.0
  0
LINE
  5
217
100
AcDbEntity
  8
0
100
AcDbLine
 62
7
  6
CONTINUOUS
 10
0.0
 20
8.5
 11
11.0
 21
8.5
  0
LINE
  5
218
100
AcDbEntity
  8
0
100
AcDbLine
 62
7
  6
CONTINUOUS
 10
11.0
 20
0.0
 11
11.0
 21
8.5
  0
LINE
  5
219
100
AcDbEntity
  8
ALL_FEATURES
100
AcDbLine
 62
7
  6
CONTINUOUS
 10
3.399697205
 20
3.7174078082
 11
3.399697205
 21
4.192276211
  0
LINE
  5
21A
100
AcDbEntity
  8
ALL_FEATURES
100
AcDbLine
 62
7
  6
CONTINUOUS
 10
3.469697205
 20
3.7174078082
 11
3.469697205
 21
4.192276211
  0
LINE
  5
21B
100
AcDbEntity
  8
0
100
AcDbLine
 62
7
  6
CONTINUOUS
 10
4.354697205
 20
2.3741348597
 11
4.354697205
 21
2.4039079473
  0
LINE
  5
21C
100
AcDbEntity
  8
0
100
AcDbLine
 62
7
  6
CONTINUOUS
 10
4.454697205
 20
2.4039079473
 11
4.454697205
 21
2.3741348597
  0
LINE
  5
21D
100
AcDbEntity
  8
ALL_FEATURES
100
AcDbLine
 62
7
  6
CONTINUOUS
 10
5.339697205
 20
3.7174078082
 11
5.339697205
 21
4.192276211
  0
LINE
  5
21E
100
AcDbEntity
  8
ALL_FEATURES
100
AcDbLine
 62
7
  6
CONTINUOUS
 10
5.409697205
 20
3.7174078082
 11
5.409697205
 21
4.192276211
  0
ARC
  5
21F
100
AcDbEntity
  8
0
100
AcDbCircle
 62
7
  6
CONTINUOUS
 10
4.404697205
 20
3.9548420096
 40
1.59
100
AcDbArc
 50
262.0360343567
 51
266.7551083283
  0
ARC
  5
220
100
AcDbEntity
  8
0
100
AcDbCircle
 62
7
  6
CONTINUOUS
 10
4.404697205
 20
3.9548420096
 40
1.59
100
AcDbArc
 50
340.5175061294
 51
199.4824938706
  0
ARC
  5
221
100
AcDbEntity
  8
0
100
AcDbCircle
 62
7
  6
CONTINUOUS
 10
4.404697205
 20
3.9548420096
 40
1.59
100
AcDbArc
 50
273.2448916717
 51
277.9639656433
  0
ARC
  5
222
100
AcDbEntity
  8
0
100
AcDbCircle
 62
7
  6
CONTINUOUS
 10
4.404697205
 20
3.9548420096
 40
1.5517398189
100
AcDbArc
 50
203.9535502494
 51
258.0990658916
  0
ARC
  5
223
100
AcDbEntity
  8
0
100
AcDbCircle
 62
7
  6
CONTINUOUS
 10
4.404697205
 20
3.9548420096
 40
1.5517398189
100
AcDbArc
 50
281.9009341084
 51
336.0464497506
  0
ARC
  5
224
100
AcDbEntity
  8
ALL_FEATURES
100
AcDbCircle
 62
7
  6
CONTINUOUS
 10
4.404697205
 20
3.9548420096
 40
1.5517398189
100
AcDbArc
 50
268.1535017013
 51
271.8464982987
  0
CIRCLE
  5
225
100
AcDbEntity
  8
ALL_FEATURES
100
AcDbCircle
 62
7
  6
CONTINUOUS
 10
4.404697205
 20
3.9548420096
 40
1.5236351898
  0
CIRCLE
  5
226
100
AcDbEntity
  8
ALL_FEATURES
100
AcDbCircle
 62
7
  6
CONTINUOUS
 10
4.404697205
 20
3.9548420096
 40
1.4157939206
  0
ARC
  5
227
100
AcDbEntity
  8
ALL_FEATURES
100
AcDbCircle
 62
7
  6
CONTINUOUS
 10
3.434697205
 20
3.9548420096
 40
0.24
100
AcDbArc
 50
278.3855386471
 51
81.6144613529
  0
ARC
  5
228
100
AcDbEntity
  8
ALL_FEATURES
100
AcDbCircle
 62
7
  6
CONTINUOUS
 10
3.434697205
 20
3.9548420096
 40
0.24
100
AcDbArc
 50
98.3855386471
 51
261.6144613529
  0
ARC
  5
229
100
AcDbEntity
  8
ALL_FEATURES
100
AcDbCircle
 62
7
  6
CONTINUOUS
 10
5.374697205
 20
3.9548420096
 40
0.24
100
AcDbArc
 50
278.3855386471
 51
81.6144613529
  0
ARC
  5
22A
100
AcDbEntity
  8
ALL_FEATURES
100
AcDbCircle
 62
7
  6
CONTINUOUS
 10
5.374697205
 20
3.9548420096
 40
0.24
100
AcDbArc
 50
98.3855386471
 51
261.6144613529
  0
ARC
  5
22B
100
AcDbEntity
  8
ALL_FEATURES
100
AcDbCircle
 62
7
  6
CONTINUOUS
 10
3.434697205
 20
3.9548420096
 40
0.2258144085
100
AcDbArc
 50
261.0835205056
 51
278.9164794944
  0
ARC
  5
22C
100
AcDbEntity
  8
ALL_FEATURES
100
AcDbCircle
 62
7
  6
CONTINUOUS
 10
3.434697205
 20
3.9548420096
 40
0.2258144085
100
AcDbArc
 50
81.0835205056
 51
98.9164794944
  0
ARC
  5
22D
100
AcDbEntity
  8
ALL_FEATURES
100
AcDbCircle
 62
7
  6
CONTINUOUS
 10
5.374697205
 20
3.9548420096
 40
0.2258144085
100
AcDbArc
 50
261.0835205056
 51
278.9164794944
  0
ARC
  5
22E
100
AcDbEntity
  8
ALL_FEATURES
100
AcDbCircle
 62
7
  6
CONTINUOUS
 10
5.374697205
 20
3.9548420096
 40
0.2258144085
100
AcDbArc
 50
81.0835205056
 51
98.9164794944
  0
SPLINE
  5
22F
100
AcDbEntity
  8
0
100
AcDbSpline
 62
7
  6
CONTINUOUS
 70
0
 71
3
 72
17
 73
13
 74
0
 42
0.0000001
 43
0.0000001
 44
0.0000000001
 40
0.0
 40
0.0
 40
0.0
 40
0.0
 40
0.1517591682
 40
0.3009570508
 40
0.4444729804
 40
0.5799725415
 40
0.7053245901
 40
0.8184613824
 40
0.8698279154
 40
0.9173747443
 40
0.9608435527
 40
1.0
 40
1.0
 40
1.0
 40
1.0
 10
2.9057351381
 20
3.4245470709
 30
0.0
 10
2.9064445036
 20
3.4225419378
 30
0.0
 10
2.9079196685
 20
3.4185893712
 30
0.0
 10
2.9102910143
 20
3.4128278527
 30
0.0
 10
2.9127662107
 20
3.4073592437
 30
0.0
 10
2.9152907192
 20
3.4022837585
 30
0.0
 10
2.9178147446
 20
3.3976883234
 30
0.0
 10
2.9199382561
 20
3.3942225349
 30
0.0
 10
2.9216081714
 20
3.3917635819
 30
0.0
 10
2.9227870662
 20
3.3901529201
 30
0.0
 10
2.9239251033
 20
3.3887263158
 30
0.0
 10
2.9246926558
 20
3.3878581956
 30
0.0
 10
2.9250699804
 20
3.3874597168
 30
0.0
  0
SPLINE
  5
230
100
AcDbEntity
  8
0
100
AcDbSpline
 62
7
  6
CONTINUOUS
 70
0
 71
3
 72
24
 73
20
 74
0
 42
0.0000001
 43
0.0000001
 44
0.0000000001
 40
0.0
 40
0.0
 40
0.0
 40
0.0
 40
0.1873399657
 40
0.3677043954
 40
0.4528435775
 40
0.5335932255
 40
0.6092261867
 40
0.6791326753
 40
0.7427846169
 40
0.7996889207
 40
0.8495290349
 40
0.8921954354
 40
0.9277367263
 40
0.9429587375
 40
0.956612666
 40
0.9688643974
 40
0.979949106
 40
0.9901896246
 40
1.0
 40
1.0
 40
1.0
 40
1.0
 10
4.314697205
 20
2.367391223
 30
0.0
 10
4.3173153695
 20
2.367242787
 30
0.0
 10
4.322461733
 20
2.3670716177
 30
0.0
 10
4.3288028694
 20
2.3671613492
 30
0.0
 10
4.3336428749
 20
2.3674289649
 30
0.0
 10
4.337012259
 20
2.3677129246
 30
0.0
 10
4.3401590525
 20
2.3680805155
 30
0.0
 10
4.3430539897
 20
2.3685256925
 30
0.0
 10
4.3456707829
 20
2.3690408484
 30
0.0
 10
4.3479859354
 20
2.3696195633
 30
0.0
 10
4.3499805922
 20
2.370254851
 30
0.0
 10
4.3516399458
 20
2.3709381672
 30
0.0
 10
4.3527900787
 20
2.3715714199
 30
0.0
 10
4.3535163044
 20
2.3721081414
 30
0.0
 10
4.3539415145
 20
2.3724981977
 30
0.0
 10
4.3542754705
 20
2.3728962325
 30
0.0
 10
4.3545170441
 20
2.3733023361
 30
0.0
 10
4.3546640507
 20
2.3737158808
 30
0.0
 10
4.354697205
 20
2.3739975349
 30
0.0
 10
4.354697205
 20
2.3741348597
 30
0.0
  0
SPLINE
  5
231
100
AcDbEntity
  8
0
100
AcDbSpline
 62
7
  6
CONTINUOUS
 70
0
 71
3
 72
17
 73
13
 74
0
 42
0.0000001
 43
0.0000001
 44
0.0000000001
 40
0.0
 40
0.0
 40
0.0
 40
0.0
 40
0.0367217955
 40
0.0778917891
 40
0.123371763
 40
0.1729936769
 40
0.2838524729
 40
0.4086452604
 40
0.5453057464
 40
0.6914047347
 40
0.8441969032
 40
1.0
 40
1.0
 40
1.0
 40
1.0
 10
4.1473149121
 20
2.3912008279
 30
0.0
 10
4.1477058072
 20
2.3909280691
 30
0.0
 10
4.1485584024
 20
2.3903829218
 30
0.0
 10
4.1499567743
 20
2.3896012332
 30
0.0
 10
4.1515410447
 20
2.3888132393
 30
0.0
 10
4.1539816392
 20
2.3877207169
 30
0.0
 10
4.1574403156
 20
2.3863908555
 30
0.0
 10
4.1620384051
 20
2.3848980905
 30
0.0
 10
4.1671401002
 20
2.383492939
 30
0.0
 10
4.1726472269
 20
2.3822087899
 30
0.0
 10
4.1784420721
 20
2.3810830595
 30
0.0
 10
4.1823994373
 20
2.3804571163
 30
0.0
 10
4.1844022663
 20
2.3801769214
 30
0.0
  0
SPLINE
  5
232
100
AcDbEntity
  8
0
100
AcDbSpline
 62
7
  6
CONTINUOUS
 70
0
 71
3
 72
24
 73
20
 74
0
 42
0.0000001
 43
0.0000001
 44
0.0000000001
 40
0.0
 40
0.0
 40
0.0
 40
0.0
 40
0.0098103754
 40
0.020050894
 40
0.0311356026
 40
0.043387334
 40
0.0570412625
 40
0.0722632737
 40
0.1078045646
 40
0.1504709651
 40
0.2003110793
 40
0.2572153831
 40
0.3208673247
 40
0.3907738133
 40
0.4664067745
 40
0.5471564225
 40
0.6322956046
 40
0.8126600343
 40
1.0
 40
1.0
 40
1.0
 40
1.0
 10
4.454697205
 20
2.3741348597
 30
0.0
 10
4.454697205
 20
2.3739975349
 30
0.0
 10
4.4547303593
 20
2.3737158808
 30
0.0
 10
4.4548773658
 20
2.3733023361
 30
0.0
 10
4.4551189394
 20
2.3728962325
 30
0.0
 10
4.4554528954
 20
2.3724981977
 30
0.0
 10
4.4558781056
 20
2.3721081414
 30
0.0
 10
4.4566043313
 20
2.3715714199
 30
0.0
 10
4.4577544642
 20
2.3709381672
 30
0.0
 10
4.4594138177
 20
2.370254851
 30
0.0
 10
4.4614084745
 20
2.3696195633
 30
0.0
 10
4.463723627
 20
2.3690408484
 30
0.0
 10
4.4663404202
 20
2.3685256925
 30
0.0
 10
4.4692353575
 20
2.3680805155
 30
0.0
 10
4.4723821509
 20
2.3677129246
 30
0.0
 10
4.475751535
 20
2.3674289649
 30
0.0
 10
4.4805915405
 20
2.3671613492
 30
0.0
 10
4.486932677
 20
2.3670716177
 30
0.0
 10
4.4920790404
 20
2.367242787
 30
0.0
 10
4.494697205
 20
2.367391223
 30
0.0
  0
SPLINE
  5
233
100
AcDbEntity
  8
0
100
AcDbSpline
 62
7
  6
CONTINUOUS
 70
0
 71
3
 72
17
 73
13
 74
0
 42
0.0000001
 43
0.0000001
 44
0.0000000001
 40
0.0
 40
0.0
 40
0.0
 40
0.0
 40
0.0391564473
 40
0.0826252557
 40
0.1301720846
 40
0.1815386176
 40
0.2946754099
 40
0.4200274585
 40
0.5555270196
 40
0.6990429492
 40
0.8482408318
 40
1.0
 40
1.0
 40
1.0
 40
1.0
 10
5.8843244296
 20
3.3874597168
 30
0.0
 10
5.8847017541
 20
3.3878581956
 30
0.0
 10
5.8854693066
 20
3.3887263158
 30
0.0
 10
5.8866073437
 20
3.3901529201
 30
0.0
 10
5.8877862385
 20
3.3917635819
 30
0.0
 10
5.8894561538
 20
3.3942225349
 30
0.0
 10
5.8915796654
 20
3.3976883234
 30
0.0
 10
5.8941036907
 20
3.4022837585
 30
0.0
 10
5.8966281993
 20
3.4073592437
 30
0.0
 10
5.8991033956
 20
3.4128278527
 30
0.0
 10
5.9014747415
 20
3.4185893712
 30
0.0
 10
5.9029499064
 20
3.4225419378
 30
0.0
 10
5.9036592719
 20
3.4245470709
 30
0.0
  0
SPLINE
  5
234
100
AcDbEntity
  8
0
100
AcDbSpline
 62
7
  6
CONTINUOUS
 70
0
 71
3
 72
17
 73
13
 74
0
 42
0.0000001
 43
0.0000001
 44
0.0000000001
 40
0.0
 40
0.0
 40
0.0
 40
0.0
 40
0.1558030968
 40
0.3085952653
 40
0.4546942536
 40
0.5913547396
 40
0.7161475271
 40
0.8270063231
 40
0.876628237
 40
0.9221082109
 40
0.9632782045
 40
1.0
 40
1.0
 40
1.0
 40
1.0
 10
4.6249921436
 20
2.3801769214
 30
0.0
 10
4.6269949727
 20
2.3804571163
 30
0.0
 10
4.6309523379
 20
2.3810830595
 30
0.0
 10
4.6367471831
 20
2.3822087899
 30
0.0
 10
4.6422543097
 20
2.383492939
 30
0.0
 10
4.6473560049
 20
2.3848980905
 30
0.0
 10
4.6519540943
 20
2.3863908555
 30
0.0
 10
4.6554127708
 20
2.3877207169
 30
0.0
 10
4.6578533652
 20
2.3888132393
 30
0.0
 10
4.6594376356
 20
2.3896012332
 30
0.0
 10
4.6608360075
 20
2.3903829218
 30
0.0
 10
4.6616886028
 20
2.3909280691
 30
0.0
 10
4.6620794978
 20
2.3912008279
 30
0.0
  0
SPLINE
  5
235
100
AcDbEntity
  8
0
100
AcDbSpline
 62
7
  6
CONTINUOUS
 70
0
 71
3
 72
46
 73
42
 74
0
 42
0.0000001
 43
0.0000001
 44
0.0000000001
 40
0.0
 40
0.0
 40
0.0
 40
0.0
 40
0.031334286
 40
0.0626946155
 40
0.0783735626
 40
0.0940476197
 40
0.1253761382
 40
0.1566959527
 40
0.1880029698
 40
0.2192930993
 40
0.2505661559
 40
0.281822159
 40
0.3130612727
 40
0.3286791479
 40
0.344293192
 40
0.3755007756
 40
0.4066949653
 40
0.4378780308
 40
0.4690524586
 40
0.5002215112
 40
0.5313885444
 40
0.5625563511
 40
0.5937277408
 40
0.6249042273
 40
0.6560877255
 40
0.6872802602
 40
0.7028854856
 40
0.7184939912
 40
0.7341060625
 40
0.7497221543
 40
0.7809572422
 40
0.8122089566
 40
0.8278455524
 40
0.8434859522
 40
0.8591299247
 40
0.8747770723
 40
0.9060702745
 40
0.937372513
 40
0.9530303882
 40
0.968689605
 40
1.0
 40
1.0
 40
1.0
 40
1.0
 10
5.6716117815
 20
3.9548420096
 30
0.0
 10
5.6716101351
 20
3.9650280856
 30
0.0
 10
5.6705947174
 20
3.9854216843
 30
0.0
 10
5.6668221366
 20
4.0106619563
 30
0.0
 10
5.6623118892
 20
4.0305512458
 30
0.0
 10
5.6568258104
 20
4.0501825344
 30
0.0
 10
5.648159699
 20
4.0741713244
 30
0.0
 10
5.6349728659
 20
4.1017744041
 30
0.0
 10
5.6191423934
 20
4.1279382309
 30
0.0
 10
5.600816739
 20
4.1523994476
 30
0.0
 10
5.5801921453
 20
4.1749340068
 30
0.0
 10
5.5574665696
 20
4.1953206601
 30
0.0
 10
5.5369634078
 20
4.2103757744
 30
0.0
 10
5.5197486223
 20
4.2211623076
 30
0.0
 10
5.5020371483
 20
4.2310910871
 30
0.0
 10
5.4790277402
 20
4.2418608327
 30
0.0
 10
5.4503023698
 20
4.2520215043
 30
0.0
 10
5.4207355115
 20
4.2593434742
 30
0.0
 10
5.3906045677
 20
4.2637491658
 30
0.0
 10
5.3601936171
 20
4.2652133653
 30
0.0
 10
5.3297867394
 20
4.2637108937
 30
0.0
 10
5.2996677499
 20
4.2592687423
 30
0.0
 10
5.2701216533
 20
4.2519134477
 30
0.0
 10
5.2414235756
 20
4.2417237186
 30
0.0
 10
5.213851411
 20
4.2287804616
 30
0.0
 10
5.1920241775
 20
4.2158024985
 30
0.0
 10
5.1753899029
 20
4.2041779605
 30
0.0
 10
5.1633487287
 20
4.1948553344
 30
0.0
 10
5.1517758183
 20
4.1849519155
 30
0.0
 10
5.1370105343
 20
4.1710029751
 30
0.0
 10
5.1198565698
 20
4.1522257591
 30
0.0
 10
5.104629328
 20
4.1318462778
 30
0.0
 10
5.0936928718
 20
4.1147042792
 30
0.0
 10
5.0861304741
 20
4.1014506688
 30
0.0
 10
5.079229273
 20
4.0878372315
 30
0.0
 10
5.0709331695
 20
4.0692532252
 30
0.0
 10
5.0622976926
 20
4.0452821115
 30
0.0
 10
5.0560688679
 20
4.0205729271
 30
0.0
 10
5.0525661515
 20
4.0005127114
 30
0.0
 10
5.0500574268
 20
3.9803031488
 30
0.0
 10
5.0493020043
 20
3.9650203193
 30
0.0
 10
5.0493019612
 20
3.9548420096
 30
0.0
  0
SPLINE
  5
236
100
AcDbEntity
  8
0
100
AcDbSpline
 62
7
  6
CONTINUOUS
 70
0
 71
3
 72
46
 73
42
 74
0
 42
0.0000001
 43
0.0000001
 44
0.0000000001
 40
0.0
 40
0.0
 40
0.0
 40
0.0
 40
0.0313338295
 40
0.0626933013
 40
0.0783719612
 40
0.0940459107
 40
0.1253745369
 40
0.1566945651
 40
0.1880017332
 40
0.2192919974
 40
0.2505651841
 40
0.2818213251
 40
0.3130605759
 40
0.3286785201
 40
0.3442926349
 40
0.3755003611
 40
0.4066946833
 40
0.4378778905
 40
0.4690524581
 40
0.5002216531
 40
0.5313888074
 40
0.5625567407
 40
0.5937282511
 40
0.6249048698
 40
0.6560884575
 40
0.6872810708
 40
0.7028863256
 40
0.7184948655
 40
0.7341069705
 40
0.7497230967
 40
0.7809582748
 40
0.8122100077
 40
0.8278465907
 40
0.8434869468
 40
0.8591308586
 40
0.8747779256
 40
0.9060708962
 40
0.9373728855
 40
0.9530306467
 40
0.9686897465
 40
1.0
 40
1.0
 40
1.0
 40
1.0
 10
3.1377826284
 20
3.9548420096
 30
0.0
 10
3.1377842595
 20
3.9446560811
 30
0.0
 10
3.1387994876
 20
3.9242628983
 30
0.0
 10
3.1425720819
 20
3.8990231446
 30
0.0
 10
3.1470823011
 20
3.8791342675
 30
0.0
 10
3.1525682382
 20
3.8595030352
 30
0.0
 10
3.1612342777
 20
3.8355141435
 30
0.0
 10
3.1744209469
 20
3.8079108133
 30
0.0
 10
3.1902513815
 20
3.7817467654
 30
0.0
 10
3.2085770415
 20
3.7572853798
 30
0.0
 10
3.2292016582
 20
3.7347506598
 30
0.0
 10
3.2519272698
 20
3.7143638461
 30
0.0
 10
3.2724304648
 20
3.6993085824
 30
0.0
 10
3.2896453079
 20
3.6885219668
 30
0.0
 10
3.3073568501
 20
3.6785931186
 30
0.0
 10
3.3303663293
 20
3.6678232505
 30
0.0
 10
3.3590918319
 20
3.6576625381
 30
0.0
 10
3.3886588048
 20
3.650340453
 30
0.0
 10
3.4187898964
 20
3.6459347972
 30
0.0
 10
3.4492009785
 20
3.6444705318
 30
0.0
 10
3.4796079827
 20
3.6459730852
 30
0.0
 10
3.5097270991
 20
3.6504152166
 30
0.0
 10
3.5392732982
 20
3.657770628
 30
0.0
 10
3.5679714798
 20
3.6679604073
 30
0.0
 10
3.595543681
 20
3.6809038264
 30
0.0
 10
3.6173709493
 20
3.6938818577
 30
0.0
 10
3.6340052312
 20
3.7055064719
 30
0.0
 10
3.6460463652
 20
3.7148292035
 30
0.0
 10
3.6576192927
 20
3.7247326538
 30
0.0
 10
3.6723846033
 20
3.7386816464
 30
0.0
 10
3.6895384808
 20
3.7574590077
 30
0.0
 10
3.7047657127
 20
3.7778385383
 30
0.0
 10
3.7157020672
 20
3.7949805884
 30
0.0
 10
3.723264466
 20
3.8082341563
 30
0.0
 10
3.7301655371
 20
3.8218475945
 30
0.0
 10
3.7384615667
 20
3.8404315016
 30
0.0
 10
3.7470968944
 20
3.8644024787
 30
0.0
 10
3.7533256343
 20
3.8891114848
 30
0.0
 10
3.7568283079
 20
3.9091715512
 30
0.0
 10
3.7593370037
 20
3.9293809982
 30
0.0
 10
3.7600923832
 20
3.944663745
 30
0.0
 10
3.7600924488
 20
3.9548420096
 30
0.0
  0
SPLINE
  5
237
100
AcDbEntity
  8
0
100
AcDbSpline
 62
7
  6
CONTINUOUS
 70
0
 71
3
 72
45
 73
41
 74
0
 42
0.0000001
 43
0.0000001
 44
0.0000000001
 40
0.0
 40
0.0
 40
0.0
 40
0.0
 40
0.0313104014
 40
0.046969529
 40
0.0626273218
 40
0.0939293695
 40
0.1252224489
 40
0.1408696083
 40
0.1565136402
 40
0.1721541525
 40
0.1877909439
 40
0.2190431906
 40
0.2502789935
 40
0.2658954464
 40
0.281507886
 40
0.2971167695
 40
0.3127223737
 40
0.3439157021
 40
0.3751000493
 40
0.4062774629
 40
0.4374498261
 40
0.4686185928
 40
0.499786602
 40
0.5309566163
 40
0.5621320218
 40
0.5933160182
 40
0.6245112003
 40
0.6557197409
 40
0.6869433675
 40
0.7181833987
 40
0.7494404251
 40
0.7807143914
 40
0.8120055212
 40
0.8433135378
 40
0.8589777488
 40
0.874644381
 40
0.9059736102
 40
0.9373142085
 40
0.9686684957
 40
1.0
 40
1.0
 40
1.0
 40
1.0
 10
3.7600924488
 20
3.9548420096
 30
0.0
 10
3.760092403
 20
3.9650202252
 30
0.0
 10
3.759337006
 20
3.9803028834
 30
0.0
 10
3.7568283401
 20
4.0005122054
 30
0.0
 10
3.7533257106
 20
4.0205721215
 30
0.0
 10
3.7470970412
 20
4.0452809598
 30
0.0
 10
3.7384618281
 20
4.0692518109
 30
0.0
 10
3.7301658517
 20
4.0878356423
 30
0.0
 10
3.7232648735
 20
4.1014490995
 30
0.0
 10
3.7157024373
 20
4.1147026604
 30
0.0
 10
3.7047660968
 20
4.131844827
 30
0.0
 10
3.6895387665
 20
4.1522245299
 30
0.0
 10
3.672384785
 20
4.1710021134
 30
0.0
 10
3.6576193169
 20
4.1849512676
 30
0.0
 10
3.6460462361
 20
4.194854818
 30
0.0
 10
3.6340049476
 20
4.2041776579
 30
0.0
 10
3.6173704398
 20
4.2158024122
 30
0.0
 10
3.595542806
 20
4.2287805174
 30
0.0
 10
3.5679701682
 20
4.241724065
 30
0.0
 10
3.5392714449
 20
4.2519137975
 30
0.0
 10
3.5097247106
 20
4.2592691981
 30
0.0
 10
3.4796050211
 20
4.2637111522
 30
0.0
 10
3.4491974714
 20
4.2652133906
 30
0.0
 10
3.4187858909
 20
4.2637488192
 30
0.0
 10
3.3886543022
 20
4.2593425368
 30
0.0
 10
3.3590871705
 20
4.2520201687
 30
0.0
 10
3.330360388
 20
4.2418581038
 30
0.0
 10
3.3027509499
 20
4.2289348655
 30
0.0
 10
3.2765183147
 20
4.2133772624
 30
0.0
 10
3.2519222281
 20
4.1953162999
 30
0.0
 10
3.2291961863
 20
4.1749276625
 30
0.0
 10
3.2085715426
 20
4.1523922409
 30
0.0
 10
3.1902471685
 20
4.1279305329
 30
0.0
 10
3.177053605
 20
4.1061248381
 30
0.0
 10
3.1678254799
 20
4.0879657305
 30
0.0
 10
3.1594994668
 20
4.0693680211
 30
0.0
 10
3.1508328023
 20
4.0453751652
 30
0.0
 10
3.1433248351
 20
4.01569559
 30
0.0
 10
3.1387980045
 20
3.9854185796
 30
0.0
 10
3.1377839495
 20
3.9650270852
 30
0.0
 10
3.1377826284
 20
3.9548420096
 30
0.0
  0
SPLINE
  5
238
100
AcDbEntity
  8
0
100
AcDbSpline
 62
7
  6
CONTINUOUS
 70
0
 71
3
 72
45
 73
41
 74
0
 42
0.0000001
 43
0.0000001
 44
0.0000000001
 40
0.0
 40
0.0
 40
0.0
 40
0.0
 40
0.0313102304
 40
0.0469692183
 40
0.0626268727
 40
0.0939286153
 40
0.1252214074
 40
0.1408684609
 40
0.1565124074
 40
0.172152856
 40
0.1877896204
 40
0.2190418632
 40
0.2502777477
 40
0.2658942267
 40
0.2815066956
 40
0.2971156093
 40
0.3127212371
 40
0.3439146351
 40
0.3750990595
 40
0.4062766028
 40
0.437449077
 40
0.4686179652
 40
0.4997860863
 40
0.530956237
 40
0.5621317731
 40
0.5933159078
 40
0.6245112127
 40
0.6557198915
 40
0.6869436466
 40
0.7181838056
 40
0.7494409572
 40
0.7807150591
 40
0.8120063312
 40
0.8433144918
 40
0.8589787884
 40
0.8746455114
 40
0.9059748607
 40
0.9373152436
 40
0.9686688919
 40
1.0
 40
1.0
 40
1.0
 40
1.0
 10
5.0493019612
 20
3.9548420096
 30
0.0
 10
5.0493020296
 20
3.9446638488
 30
0.0
 10
5.0500573813
 20
3.9293812905
 30
0.0
 10
5.0525660132
 20
3.909172109
 30
0.0
 10
5.0560685892
 20
3.8891123746
 30
0.0
 10
5.0622971527
 20
3.864403755
 30
0.0
 10
5.0709322009
 20
3.8404330833
 30
0.0
 10
5.0792280636
 20
3.8218493716
 30
0.0
 10
5.0861288864
 20
3.8082359257
 30
0.0
 10
5.093691326
 20
3.7949824314
 30
0.0
 10
5.1046275094
 20
3.7778401999
 30
0.0
 10
5.119854841
 20
3.7574604752
 30
0.0
 10
5.1370086683
 20
3.7386827034
 30
0.0
 10
5.1517741702
 20
3.7247335142
 30
0.0
 10
5.1633472483
 20
3.7148299193
 30
0.0
 10
5.1753884736
 20
3.7055069516
 30
0.0
 10
5.1920229784
 20
3.693882117
 30
0.0
 10
5.2138506217
 20
3.6809039204
 30
0.0
 10
5.2414232768
 20
3.6679601875
 30
0.0
 10
5.2701220852
 20
3.6577703793
 30
0.0
 10
5.2996689055
 20
3.6504148171
 30
0.0
 10
5.3297887117
 20
3.6459728755
 30
0.0
 10
5.3601963779
 20
3.6444704865
 30
0.0
 10
5.3906080811
 20
3.6459351258
 30
0.0
 10
5.4207398222
 20
3.6503412969
 30
0.0
 10
5.4503070602
 20
3.6576637815
 30
0.0
 10
5.4790339951
 20
3.6678258116
 30
0.0
 10
5.5066435091
 20
3.6807491956
 30
0.0
 10
5.5328762789
 20
3.6963068271
 30
0.0
 10
5.5574724038
 20
3.7143679553
 30
0.0
 10
5.5801985227
 20
3.734756697
 30
0.0
 10
5.6008232026
 20
3.7572922687
 30
0.0
 10
5.6191476179
 20
3.7817541191
 30
0.0
 10
5.6323411863
 20
3.803559959
 30
0.0
 10
5.6415692384
 20
3.8217192226
 30
0.0
 10
5.6498952043
 20
3.8403170595
 30
0.0
 10
5.6585617856
 20
3.8643099474
 30
0.0
 10
5.6660696051
 20
3.8939893076
 30
0.0
 10
5.670596563
 20
3.9242658915
 30
0.0
 10
5.6716104838
 20
3.9446570621
 30
0.0
 10
5.6716117815
 20
3.9548420096
 30
0.0
  0
ELLIPSE
  5
239
100
AcDbEntity
  8
0
100
AcDbEllipse
 62
7
  6
CONTINUOUS
 10
5.6559469549
 20
3.9548420096
 30
0.0
 11
2.378367951
 21
0.0
 31
0.0
 40
0.8504252171
 41
-2.2924699612
 42
-2.2579171338
  0
ELLIPSE
  5
23A
100
AcDbEntity
  8
0
100
AcDbEllipse
 62
7
  6
CONTINUOUS
 10
4.404697205
 20
5.3247285405
 30
0.0
 11
0.0
 21
2.603872026
 31
0.0
 40
0.8504252171
 41
-3.8733588687
 42
-3.8366088562
  0
ELLIPSE
  5
23B
100
AcDbEntity
  8
0
100
AcDbEllipse
 62
7
  6
CONTINUOUS
 10
4.404697205
 20
5.3247285405
 30
0.0
 11
0.0
 21
2.603872026
 31
0.0
 40
0.8504252171
 41
-2.446576451
 42
-2.4098264385
  0
ELLIPSE
  5
23C
100
AcDbEntity
  8
0
100
AcDbEllipse
 62
7
  6
CONTINUOUS
 10
3.153447455
 20
3.9548420096
 30
0.0
 11
2.378367951
 21
-0.0
 31
0.0
 40
0.8504252171
 41
-0.8836755198
 42
-0.8491226924
  0
ENDSEC
  0
SECTION
  2
OBJECTS
  0
DICTIONARY
  5
C
100
AcDbDictionary
280
0
281
1
  3
ACAD_GROUP
350
D
  3
ACAD_MLINESTYLE
350
17
  3
ACAD_LAYOUT
350
1A
  3
ACAD_PLOTSETTINGS
350
19
  3
ACAD_PLOTSTYLENAME
350
E
  0
DICTIONARY
  5
D
102
{ACAD_REACTORS
330
C
102
}
100
AcDbDictionary
280
0
281
1
  0
ACDBDICTIONARYWDFLT
  5
E
102
{ACAD_REACTORS
330
C
102
}
100
AcDbDictionary
281
1
  3
Normal
350
F
100
AcDbDictionaryWithDefault
340
F
  0
DICTIONARY
  5
17
102
{ACAD_REACTORS
330
C
102
}
100
AcDbDictionary
280
0
281
1
  3
Standard
350
18
  0
DICTIONARY
  5
19
102
{ACAD_REACTORS
330
C
102
}
100
AcDbDictionary
281
1
  0
DICTIONARY
  5
1A
102
{ACAD_REACTORS
330
C
102
}
100
AcDbDictionary
281
1
  3
Model
350
23D
  3
Layout1
350
23E
  0
ACDBPLACEHOLDER
  5
F
102
{ACAD_REACTORS
330
E
102
}
  0
MLINESTYLE
  5
18
102
{ACAD_REACTORS
330
17
102
}
100
AcDbMlineStyle
  2
STANDARD
 70
0
  3

 62
256
 51
90.0
 52
90.0
 71
2
 49
0.5
 62
256
  6
BYLAYER
 49
-0.5
 62
256
  6
BYLAYER
  0
LAYOUT
  5
23D
102
{ACAD_REACTORS
330
1A
102
}
100
AcDbPlotSettings
  1

  2
none_device
  4
ANSI_A_(11.00_x_8.50_Inches)
  6

 40
0.0
 41
0.0
 42
0.0
 43
0.0
 44
279.4
 45
215.9
 46
0.0
 47
0.0
 48
0.0
 49
0.0
140
0.0
141
0.0
142
1.0
143
1.0
 70
1024
 72
0
 73
0
 74
0
  7

 75
0
147
1.0
148
0.0
149
0.0
100
AcDbLayout
  1
Model
 70
0
 71
0
 10
0.0
 20
0.0
 11
11.0
 21
8.5
 12
0.0
 22
0.0
 32
0.0
 14
0.0
 24
0.0
 34
0.0
 15
0.0
 25
0.0
 35
0.0
146
0.0
 13
0.0
 23
0.0
 33
0.0
 16
1.0
 26
0.0
 36
0.0
 17
0.0
 27
1.0
 37
0.0
 76
0
330
20D
345
0
346
0
  0
LAYOUT
  5
23E
102
{ACAD_REACTORS
330
1A
102
}
100
AcDbPlotSettings
  1

  2
none_device
  4
ANSI_A_(11.00_x_8.50_Inches)
  6

 40
0.0
 41
0.0
 42
0.0
 43
0.0
 44
279.4
 45
215.9
 46
0.0
 47
0.0
 48
0.0
 49
0.0
140
0.0
141
0.0
142
1.0
143
1.0
 70
0
 72
0
 73
0
 74
0
  7

 75
0
147
1.0
148
0.0
149
0.0
100
AcDbLayout
  1
Layout1
 70
0
 71
1
 10
0.0
 20
0.0
 11
11.0
 21
8.5
 12
0.0
 22
0.0
 32
0.0
 14
0.0
 24
0.0
 34
0.0
 15
0.0
 25
0.0
 35
0.0
146
0.0
 13
0.0
 23
0.0
 33
0.0
 16
1.0
 26
0.0
 36
0.0
 17
0.0
 27
1.0
 37
0.0
 76
0
330
20E
345
0
346
0
  0
ENDSEC
  0
EOF
