999
DXF file: 277-01-e_TOP.dxf
999
Pro/ENGINEER 2019352 by Parametric Technology Corporation
  0
SECTION
  2
HEADER
  9
$ACADVER
  1
AC1032
  9
$DWGCODEPAGE
  3
ANSI_1252
  9
$EXTMAX
 10
11.0
 20
8.5
 30
0.0
  9
$EXTMIN
 10
0.0
 20
0.0
 30
0.0
  9
$LIMMIN
 10
0.0
 20
0.0
  9
$LIMMAX
 10
11.0
 20
8.5
  9
$VIEWCTR
 10
5.5
 20
4.25
  9
$VIEWSIZE
 40
8.5
  9
$CLAYER
  8
0
  9
$LTSCALE
 40
0.605
  9
$CELTYPE
  6
BYLAYER
  9
$DIMSCALE
 40
1.0
  9
$DIMASZ
 40
0.1
  9
$DIMEXO
 40
0.0625
  9
$DIMDLI
 40
0.418
  9
$DIMEXE
 40
0.125
  9
$DIMCEN
 40
0.099
  9
$DIMLFAC
 40
1.0
  9
$DIMBLK
  1
_FILLED
  9
$DIMALT
 70
1
  9
$DIMALTD
 70
2
  9
$DIMALTTD
 70
2
  9
$DIMALTF
 40
25.4
  9
$DIMTXT
 40
0.08
  9
$DIMTOL
 70
1
  9
$DIMLIM
 70
0
  9
$DIMTFAC
 40
1.0
  9
$DIMTP
 40
0.001
  9
$DIMTM
 40
0.001
  9
$DIMGAP
 40
0.09
  9
$DIMDSEP
 70
46
  9
$AUNITS
 70
0
  9
$PDMODE
 70
3
  9
$PDSIZE
 40
0.3125
  9
$HANDSEED
  5
22D
  9
$TILEMODE
 70
1
  9
$MEASUREMENT
 70
0
  9
$INSUNITS
 70
1
  0
ENDSEC
  0
SECTION
  2
CLASSES
  0
CLASS
  1
ACDBDICTIONARYWDFLT
  2
AcDbDictionaryWithDefault
  3
AutoCAD 2000
 90
0
 91
1
280
0
281
0
  0
CLASS
  1
ACDBPLACEHOLDER
  2
AcDbPlaceHolder
  3
AutoCAD 2000
 90
0
 91
1
280
0
281
0
  0
CLASS
  1
LAYOUT
  2
AcDbLayout
  3
AutoCAD 2000
 90
0
 91
0
280
0
281
0
  0
ENDSEC
  0
SECTION
  2
TABLES
  0
TABLE
  2
VPORT
  5
8
100
AcDbSymbolTable
 70
2
  0
VPORT
  5
1F4
100
AcDbSymbolTableRecord
100
AcDbViewportTableRecord
  2
*ACTIVE
 70
0
 10
0.0
 20
0.0
 11
1.0
 21
1.0
 12
5.5
 22
4.25
 13
0.0
 23
0.0
 14
1.0
 24
1.0
 15
0.0
 25
0.0
 16
0.0
 26
0.0
 36
1.0
 17
0.0
 27
0.0
 37
0.0
 40
8.5
 41
1.2941176471
 42
50.0
 43
0.0
 44
0.0
 50
0.0
 51
0.0
 71
0
 72
100
 73
1
 74
1
 75
0
 76
0
 77
0
 78
0
  0
ENDTAB
  0
TABLE
  2
LTYPE
  5
5
100
AcDbSymbolTable
 70
6
  0
LTYPE
  5
14
100
AcDbSymbolTableRecord
100
AcDbLinetypeTableRecord
  2
BYBLOCK
 70
0
  3

 72
65
 73
0
 40
0.0
  0
LTYPE
  5
15
100
AcDbSymbolTableRecord
100
AcDbLinetypeTableRecord
  2
BYLAYER
 70
0
  3

 72
65
 73
0
 40
0.0
  0
LTYPE
  5
16
100
AcDbSymbolTableRecord
100
AcDbLinetypeTableRecord
  2
CONTINUOUS
 70
64
  3
Solid line
 72
65
 73
0
 40
0.0
  0
LTYPE
  5
1F5
100
AcDbSymbolTableRecord
100
AcDbLinetypeTableRecord
  2
CENTER
 70
64
  3
____ _ ____ _ ____ _ ____ _ ____ _ ____ _ ____
 72
65
 73
4
 40
0.6
 49
0.375
 74
0
 49
-0.075
 74
0
 49
0.075
 74
0
 49
-0.075
 74
0
  0
LTYPE
  5
1F6
100
AcDbSymbolTableRecord
100
AcDbLinetypeTableRecord
  2
HIDDEN
 70
64
  3
- - - - - - - - - - - - - - - - - - - -
 72
65
 73
2
 40
0.2
 49
0.1
 74
0
 49
-0.1
 74
0
  0
LTYPE
  5
1F7
100
AcDbSymbolTableRecord
100
AcDbLinetypeTableRecord
  2
PHANTOM
 70
64
  3
_____ _ _ _____ _ _ _____ _ _ _____
 72
65
 73
6
 40
0.8
 49
0.45
 74
0
 49
-0.05
 74
0
 49
0.1
 74
0
 49
-0.05
 74
0
 49
0.1
 74
0
 49
-0.05
 74
0
  0
LTYPE
  5
1F8
100
AcDbSymbolTableRecord
100
AcDbLinetypeTableRecord
  2
DOT
 70
64
  3
. . . . . . . . . . . . . . . . . . . .
 72
65
 73
2
 40
0.2
 49
0.1
 74
0
 49
-0.1
 74
0
  0
LTYPE
  5
1F9
100
AcDbSymbolTableRecord
100
AcDbLinetypeTableRecord
  2
DASHED
 70
64
  3
- - - - - - - - - - - - - - - - - - - -
 72
65
 73
2
 40
0.2
 49
0.1
 74
0
 49
-0.1
 74
0
  0
ENDTAB
  0
TABLE
  2
LAYER
  5
2
100
AcDbSymbolTable
 70
36
  0
LAYER
  5
10
100
AcDbSymbolTableRecord
100
AcDbLayerTableRecord
  2
0
 70
0
 62
7
  6
CONTINUOUS
370
-3
390
F
  0
LAYER
  5
1FA
100
AcDbSymbolTableRecord
100
AcDbLayerTableRecord
  2
DEFAULT_1
 70
0
 62
7
  6
CENTER
370
-3
390
F
  0
LAYER
  5
1FB
100
AcDbSymbolTableRecord
100
AcDbLayerTableRecord
  2
DEFAULT_2
 70
0
 62
8
  6
HIDDEN
370
-3
390
F
  0
LAYER
  5
1FC
100
AcDbSymbolTableRecord
100
AcDbLayerTableRecord
  2
DEFAULT_3
 70
0
 62
7
  6
PHANTOM
370
-3
390
F
  0
LAYER
  5
1FD
100
AcDbSymbolTableRecord
100
AcDbLayerTableRecord
  2
DEFAULT_COORDINATE_SYSTEM
 70
0
 62
7
  6
CONTINUOUS
370
-3
390
F
  0
LAYER
  5
1FE
100
AcDbSymbolTableRecord
100
AcDbLayerTableRecord
  2
DEFAULT_DATUM_AXES
 70
0
 62
7
  6
CONTINUOUS
370
-3
390
F
  0
LAYER
  5
1FF
100
AcDbSymbolTableRecord
100
AcDbLayerTableRecord
  2
DEFAULT_DATUM_PLANES
 70
0
 62
7
  6
CONTINUOUS
370
-3
390
F
  0
ENDTAB
  0
TABLE
  2
STYLE
  5
3
100
AcDbSymbolTable
 70
1
  0
STYLE
  5
11
100
AcDbSymbolTableRecord
100
AcDbTextStyleTableRecord
  2
STANDARD
 70
0
 40
0.0
 41
0.8
 50
0.0
 71
0
 42
0.2
  3
txt
  4

  0
STYLE
  5
200
100
AcDbSymbolTableRecord
100
AcDbTextStyleTableRecord
  2
TEXTSTYLE_1
 70
0
 40
0.0
 41
0.8
 50
0.0
 71
0
 42
0.2
  3
gdt
  4

  0
ENDTAB
  0
TABLE
  2
VIEW
  5
6
100
AcDbSymbolTable
 70
0
  0
ENDTAB
  0
TABLE
  2
UCS
  5
7
100
AcDbSymbolTable
 70
0
  0
ENDTAB
  0
TABLE
  2
APPID
  5
9
100
AcDbSymbolTable
 70
1
  0
APPID
  5
201
100
AcDbSymbolTableRecord
100
AcDbRegAppTableRecord
  2
ACAD
 70
0
  0
ENDTAB
  0
TABLE
  2
BLOCK_RECORD
  5
1
100
AcDbSymbolTable
 70
0
  0
BLOCK_RECORD
  5
202
100
AcDbSymbolTableRecord
100
AcDbBlockTableRecord
  2
*Model_Space
  0
BLOCK_RECORD
  5
203
100
AcDbSymbolTableRecord
100
AcDbBlockTableRecord
  2
*Paper_Space
  0
BLOCK_RECORD
  5
204
100
AcDbSymbolTableRecord
100
AcDbBlockTableRecord
  2
_FILLED
  0
ENDTAB
  0
TABLE
  2
DIMSTYLE
  5
A
100
AcDbSymbolTable
 70
1
100
AcDbDimStyleTable
 71
0
  0
DIMSTYLE
105
205
100
AcDbSymbolTableRecord
100
AcDbDimStyleTableRecord
  2
STANDARD
 70
0
  3

  4

 40
1.0
 41
0.1
 42
0.0625
 43
0.38
 44
0.125
 45
0.0
 46
0.0
 47
0.001
 48
0.001
140
0.08
141
0.09
142
0.0
143
25.4
144
1.0
145
0.0
146
1.0
147
0.09
 71
1.0
 72
0.0
 73
1
 74
1
 75
0
 76
0
 77
0
 78
4
 79
1
170
1
171
2
172
0
173
0
174
0
175
0
176
0
177
0
178
0
270
2
179
3
271
3
272
3
273
2
274
2
275
0
280
0
281
0
282
0
283
1
284
4
285
0
286
0
287
3
288
0
340
11
278
46
341
204
342
204
343
204
344
204
  0
ENDTAB
  0
ENDSEC
  0
SECTION
  2
BLOCKS
  0
BLOCK
  5
20
100
AcDbEntity
  8
0
100
AcDbBlockBegin
  2
*Model_Space
 70
0
 10
0.0
 20
0.0
 30
0.0
  3
*Model_Space
  1

  0
ENDBLK
  5
21
100
AcDbEntity
  8
0
100
AcDbBlockEnd
  0
BLOCK
  5
1C
100
AcDbEntity
  8
0
100
AcDbBlockBegin
  2
*Paper_Space
 70
0
 10
0.0
 20
0.0
 30
0.0
  3
*Paper_Space
  1

  0
ENDBLK
  5
1D
100
AcDbEntity
  8
0
100
AcDbBlockEnd
  0
BLOCK
  5
206
100
AcDbEntity
  8
0
100
AcDbBlockBegin
  2
_FILLED
 70
64
 10
0.0
 20
0.0
  3
_FILLED
  1

  0
SOLID
  5
207
100
AcDbEntity
  8
0
  6
BYBLOCK
 62
0
100
AcDbTrace
 10
0.0
 20
0.0
 11
-1.0
 21
0.2
 12
-1.0
 22
-0.2
 13
-1.0
 23
-0.2
  0
ENDBLK
  5
208
100
AcDbEntity
  8
0
  6
BYBLOCK
 62
0
100
AcDbBlockEnd
  0
ENDSEC
  0
SECTION
  2
ENTITIES
  0
MTEXT
  5
209
100
AcDbEntity
  8
0
100
AcDbMText
 62
2
  6
CONTINUOUS
  7
STANDARD
 71
3
 72
1
 10
5.9313218942
 20
2.4320865704
 30
0.0
 11
1.0
 21
0.0
 31
0.0
 73
2
 44
0.9
  1
SCALE 1.000
 40
0.08
 41
0.704
  0
LINE
  5
20A
100
AcDbEntity
  8
0
100
AcDbLine
 62
7
  6
CONTINUOUS
 10
0.0
 20
0.0
 11
0.0
 21
8.5
  0
LINE
  5
20B
100
AcDbEntity
  8
0
100
AcDbLine
 62
7
  6
CONTINUOUS
 10
0.0
 20
0.0
 11
11.0
 21
0.0
  0
LINE
  5
20C
100
AcDbEntity
  8
0
100
AcDbLine
 62
7
  6
CONTINUOUS
 10
0.0
 20
8.5
 11
11.0
 21
8.5
  0
LINE
  5
20D
100
AcDbEntity
  8
0
100
AcDbLine
 62
7
  6
CONTINUOUS
 10
11.0
 20
0.0
 11
11.0
 21
8.5
  0
LINE
  5
20E
100
AcDbEntity
  8
0
100
AcDbLine
 62
7
  6
CONTINUOUS
 10
4.9925120889
 20
3.3855789085
 11
4.9915302189
 21
3.3861015105
  0
LINE
  5
20F
100
AcDbEntity
  8
0
100
AcDbLine
 62
7
  6
CONTINUOUS
 10
4.9925120889
 20
3.3855789085
 11
4.9915432253
 21
3.3861259187
  0
LINE
  5
210
100
AcDbEntity
  8
0
100
AcDbLine
 62
7
  6
CONTINUOUS
 10
4.9925120889
 20
3.3855789085
 11
4.9915587423
 21
3.3861504021
  0
LINE
  5
211
100
AcDbEntity
  8
0
100
AcDbLine
 62
7
  6
CONTINUOUS
 10
4.1828393375
 20
4.2651265337
 11
4.2265417161
 21
4.2651265337
  0
LINE
  5
212
100
AcDbEntity
  8
0
100
AcDbLine
 62
7
  6
CONTINUOUS
 10
6.8531745416
 20
4.2651265337
 11
6.8968769202
 21
4.2651265337
  0
LINE
  5
213
100
AcDbEntity
  8
0
100
AcDbLine
 62
7
  6
CONTINUOUS
 10
6.8968769202
 20
4.5651265337
 11
6.8531745416
 21
4.5651265337
  0
LINE
  5
214
100
AcDbEntity
  8
0
100
AcDbLine
 62
7
  6
CONTINUOUS
 10
4.2265417161
 20
4.5651265337
 11
4.1828393375
 21
4.5651265337
  0
ARC
  5
215
100
AcDbEntity
  8
0
100
AcDbCircle
 62
7
  6
CONTINUOUS
 10
5.5398581288
 20
4.4151265337
 40
1.42
100
AcDbArc
 50
356.2055945988
 51
3.7944054012
  0
ARC
  5
216
100
AcDbEntity
  8
0
100
AcDbCircle
 62
7
  6
CONTINUOUS
 10
5.5398581288
 20
4.4151265337
 40
1.42
100
AcDbArc
 50
176.2055945988
 51
183.7944054012
  0
ARC
  5
217
100
AcDbEntity
  8
0
100
AcDbCircle
 62
7
  6
CONTINUOUS
 10
5.5398581288
 20
4.4151265337
 40
1.27
100
AcDbArc
 50
9.0847202874
 51
170.9152797126
  0
ARC
  5
218
100
AcDbEntity
  8
0
100
AcDbCircle
 62
7
  6
CONTINUOUS
 10
5.5398581288
 20
4.4151265337
 40
1.27
100
AcDbArc
 50
189.0847202874
 51
350.9152797126
  0
CIRCLE
  5
219
100
AcDbEntity
  8
0
100
AcDbCircle
 62
7
  6
CONTINUOUS
 10
5.5398581288
 20
4.4151265337
 40
1.22
  0
ARC
  5
21A
100
AcDbEntity
  8
0
100
AcDbCircle
 62
7
  6
CONTINUOUS
 10
5.5409596804
 20
4.4145751449
 40
1.1672275408
100
AcDbArc
 50
156.2208995237
 51
156.3849650306
  0
ARC
  5
21B
100
AcDbEntity
  8
0
100
AcDbCircle
 62
7
  6
CONTINUOUS
 10
5.5398581288
 20
4.4151265337
 40
1.166
100
AcDbArc
 50
159.1493618207
 51
242.0032168265
  0
ARC
  5
21C
100
AcDbEntity
  8
0
100
AcDbCircle
 62
7
  6
CONTINUOUS
 10
5.5382407676
 20
4.4157284314
 40
1.1642743223
100
AcDbArc
 50
156.3833676077
 51
159.1487126195
  0
ARC
  5
21D
100
AcDbEntity
  8
0
100
AcDbCircle
 62
7
  6
CONTINUOUS
 10
5.5398581288
 20
4.4151265337
 40
1.12
100
AcDbArc
 50
220.2421790514
 51
218.5633956782
  0
CIRCLE
  5
21E
100
AcDbEntity
  8
0
100
AcDbCircle
 62
7
  6
CONTINUOUS
 10
5.5398581288
 20
4.4151265337
 40
1.07
  0
CIRCLE
  5
21F
100
AcDbEntity
  8
0
100
AcDbCircle
 62
7
  6
CONTINUOUS
 10
5.5398581288
 20
4.4151265337
 40
1.01
  0
ARC
  5
220
100
AcDbEntity
  8
0
100
AcDbCircle
 62
7
  6
CONTINUOUS
 10
4.1828393375
 20
4.5051265337
 40
0.06
100
AcDbArc
 50
90.0
 51
176.2055945988
  0
ARC
  5
221
100
AcDbEntity
  8
0
100
AcDbCircle
 62
7
  6
CONTINUOUS
 10
6.8968769202
 20
4.5051265337
 40
0.06
100
AcDbArc
 50
3.7944054012
 51
90.0
  0
ARC
  5
222
100
AcDbEntity
  8
0
100
AcDbCircle
 62
7
  6
CONTINUOUS
 10
6.8968769202
 20
4.3251265337
 40
0.06
100
AcDbArc
 50
270.0
 51
356.2055945988
  0
ARC
  5
223
100
AcDbEntity
  8
0
100
AcDbCircle
 62
7
  6
CONTINUOUS
 10
4.1828393375
 20
4.3251265337
 40
0.06
100
AcDbArc
 50
183.7944054012
 51
270.0
  0
ARC
  5
224
100
AcDbEntity
  8
0
100
AcDbCircle
 62
7
  6
CONTINUOUS
 10
4.2265417161
 20
4.6251265337
 40
0.06
100
AcDbArc
 50
270.0
 51
350.9152797126
  0
ARC
  5
225
100
AcDbEntity
  8
0
100
AcDbCircle
 62
7
  6
CONTINUOUS
 10
4.2265417161
 20
4.2051265337
 40
0.06
100
AcDbArc
 50
9.0847202874
 51
90.0
  0
ARC
  5
226
100
AcDbEntity
  8
0
100
AcDbCircle
 62
7
  6
CONTINUOUS
 10
6.8531745416
 20
4.6251265337
 40
0.06
100
AcDbArc
 50
189.0847202874
 51
270.0
  0
ARC
  5
227
100
AcDbEntity
  8
0
100
AcDbCircle
 62
7
  6
CONTINUOUS
 10
6.8531745416
 20
4.2051265337
 40
0.06
100
AcDbArc
 50
90.0
 51
170.9152797126
  0
SPLINE
  5
228
100
AcDbEntity
  8
0
100
AcDbSpline
 62
7
  6
CONTINUOUS
 70
0
 71
3
 72
23
 73
19
 74
0
 42
0.0000001
 43
0.0000001
 44
0.0000000001
 40
0.0
 40
0.0
 40
0.0
 40
0.0
 40
0.0625007474
 40
0.1250016616
 40
0.1875022255
 40
0.2500027691
 40
0.3125031681
 40
0.3750034623
 40
0.4375036389
 40
0.5000037013
 40
0.5625036482
 40
0.6250034841
 40
0.6875032019
 40
0.7500028071
 40
0.8125022593
 40
0.8750016878
 40
0.937500769
 40
1.0
 40
1.0
 40
1.0
 40
1.0
 10
6.681502798
 20
4.4151265339
 30
0.0
 10
6.6810565794
 20
4.3570277719
 30
0.0
 10
6.6712573544
 20
4.2407025846
 30
0.0
 10
6.6301562414
 20
4.070647677
 30
0.0
 10
6.5635812422
 20
3.9088130748
 30
0.0
 10
6.4730653923
 20
3.7590588066
 30
0.0
 10
6.3607082862
 20
3.6249069615
 30
0.0
 10
6.2291328685
 20
3.5095423924
 30
0.0
 10
6.0814251464
 20
3.4157126534
 30
0.0
 10
5.9210644546
 20
3.3456662861
 30
0.0
 10
5.7518429835
 20
3.301094883
 30
0.0
 10
5.5777774159
 20
3.2830900104
 30
0.0
 10
5.4030146893
 20
3.292113016
 30
0.0
 10
5.2317326521
 20
3.3279817858
 30
0.0
 10
5.0680437165
 20
3.3898657212
 30
0.0
 10
4.9158817787
 20
3.4763214227
 30
0.0
 10
4.7789595793
 20
3.585252352
 30
0.0
 10
4.6999700298
 20
3.671229832
 30
0.0
 10
4.6641089739
 20
3.7169407292
 30
0.0
  0
SPLINE
  5
229
100
AcDbEntity
  8
0
100
AcDbSpline
 62
7
  6
CONTINUOUS
 70
0
 71
3
 72
62
 73
58
 74
0
 42
0.0000001
 43
0.0000001
 44
0.0000000001
 40
0.0
 40
0.0
 40
0.0
 40
0.0
 40
0.0312367678
 40
0.04686786
 40
0.0624980549
 40
0.093743099
 40
0.1093676889
 40
0.1249929282
 40
0.1406189301
 40
0.1562452583
 40
0.1718715297
 40
0.1874976348
 40
0.2031236311
 40
0.2187495395
 40
0.2343754667
 40
0.2500014949
 40
0.2812462572
 40
0.3124910307
 40
0.3281170389
 40
0.343743021
 40
0.3593690593
 40
0.3749951057
 40
0.3906211019
 40
0.406247114
 40
0.4218731716
 40
0.4374992021
 40
0.4531251956
 40
0.4687512394
 40
0.499995964
 40
0.5312406834
 40
0.5468667305
 40
0.5624927336
 40
0.5781187812
 40
0.5937448536
 40
0.6093708806
 40
0.6249969011
 40
0.6406229755
 40
0.6562490377
 40
0.6718750494
 40
0.6875010967
 40
0.7031271781
 40
0.7187532251
 40
0.7343792676
 40
0.7500053674
 40
0.7812499853
 40
0.8124945494
 40
0.8281206778
 40
0.8437469921
 40
0.8593734166
 40
0.8749995391
 40
0.8906249242
 40
0.9062496058
 40
0.9218747609
 40
0.9375017627
 40
0.9531319251
 40
0.9687632251
 40
1.0
 40
1.0
 40
1.0
 40
1.0
 10
4.4502177586
 20
4.8301444413
 30
0.0
 10
4.4623282699
 20
4.8612359721
 30
0.0
 10
4.4825228278
 20
4.9071345397
 30
0.0
 10
4.5132858859
 20
4.9664010302
 30
0.0
 10
4.5465733371
 20
5.0243001198
 30
0.0
 10
4.5835709724
 20
5.0799906757
 30
0.0
 10
4.6240279435
 20
5.1331107076
 30
0.0
 10
4.6560653711
 20
5.1716139894
 30
0.0
 10
4.689730246
 20
5.2087034109
 30
0.0
 10
4.724959738
 20
5.2443121098
 30
0.0
 10
4.7616907836
 20
5.2783699704
 30
0.0
 10
4.7998573868
 20
5.3108104024
 30
0.0
 10
4.8393853684
 20
5.3415767872
 30
0.0
 10
4.8802016365
 20
5.3706117486
 30
0.0
 10
4.9222347753
 20
5.3978570754
 30
0.0
 10
4.9797839232
 20
5.4317258119
 30
0.0
 10
5.0543800868
 20
5.4693626482
 30
0.0
 10
5.1319505698
 20
5.5004103417
 30
0.0
 10
5.1954202991
 20
5.5211614296
 30
0.0
 10
5.2436603716
 20
5.5346526694
 30
0.0
 10
5.2924382652
 20
5.5460432667
 30
0.0
 10
5.3416629656
 20
5.5553158043
 30
0.0
 10
5.3912426461
 20
5.5624507054
 30
0.0
 10
5.4410851213
 20
5.5674288073
 30
0.0
 10
5.4910963704
 20
5.5702450719
 30
0.0
 10
5.5411824214
 20
5.5708951146
 30
0.0
 10
5.5912504976
 20
5.5693726264
 30
0.0
 10
5.6578446612
 20
5.5644488456
 30
0.0
 10
5.7405956803
 20
5.552893043
 30
0.0
 10
5.8220308458
 20
5.5341948537
 30
0.0
 10
5.8860043562
 20
5.5150526501
 30
0.0
 10
5.9333243542
 20
5.4986222517
 30
0.0
 10
5.9798838528
 20
5.4801489106
 30
0.0
 10
6.025597685
 20
5.4596716655
 30
0.0
 10
6.0703790007
 20
5.4372282932
 30
0.0
 10
6.1141402891
 20
5.4128556386
 30
0.0
 10
6.1567997482
 20
5.3866021794
 30
0.0
 10
6.1982779115
 20
5.3585195235
 30
0.0
 10
6.2384942529
 20
5.3286577488
 30
0.0
 10
6.277369876
 20
5.2970703362
 30
0.0
 10
6.3148340363
 20
5.2638209875
 30
0.0
 10
6.3508153108
 20
5.2289725508
 30
0.0
 10
6.3852416765
 20
5.1925859072
 30
0.0
 10
6.4289756629
 20
5.1421241417
 30
0.0
 10
6.4794588741
 20
5.0755440649
 30
0.0
 10
6.5239332393
 20
5.0048084735
 30
0.0
 10
6.55570452
 20
4.9460744481
 30
0.0
 10
6.5775873763
 20
4.9010146648
 30
0.0
 10
6.5974781815
 20
4.8550418262
 30
0.0
 10
6.615342818
 20
4.8082452151
 30
0.0
 10
6.6311447161
 20
4.7607143328
 30
0.0
 10
6.6448487407
 20
4.7125377735
 30
0.0
 10
6.6564323727
 20
4.6638060507
 30
0.0
 10
6.6658737943
 20
4.6146088345
 30
0.0
 10
6.6731485611
 20
4.5650363596
 30
0.0
 10
6.6799390123
 20
4.4986082746
 30
0.0
 10
6.6817590596
 20
4.4484924238
 30
0.0
 10
6.681502798
 20
4.4151265339
 30
0.0
  0
SPLINE
  5
22A
100
AcDbEntity
  8
0
100
AcDbSpline
 62
7
  6
CONTINUOUS
 70
0
 71
3
 72
31
 73
27
 74
0
 42
0.0000001
 43
0.0000001
 44
0.0000000001
 40
0.0
 40
0.0
 40
0.0
 40
0.0
 40
0.062483749
 40
0.0937465484
 40
0.1250055042
 40
0.1562595269
 40
0.1875112865
 40
0.250002613
 40
0.3124965607
 40
0.3437506234
 40
0.3750044067
 40
0.4062580347
 40
0.4375118312
 40
0.5000044171
 40
0.5624969324
 40
0.5937505525
 40
0.6250040834
 40
0.6562576838
 40
0.6875113659
 40
0.7187653851
 40
0.7500196046
 40
0.81250969
 40
0.8749986045
 40
0.906256609
 40
0.9375190689
 40
1.0
 40
1.0
 40
1.0
 40
1.0
 10
4.991546174
 20
3.3861283328
 30
0.0
 10
4.9624796861
 20
3.4026801129
 30
0.0
 10
4.9199124332
 20
3.4294150294
 30
0.0
 10
4.8656491958
 20
3.4685989082
 30
0.0
 10
4.8262472026
 20
3.4997313089
 30
0.0
 10
4.7882353488
 20
3.5325361339
 30
0.0
 10
4.7395047127
 20
3.5784174365
 30
0.0
 10
4.6823951842
 20
3.6396738955
 30
0.0
 10
4.6308172525
 20
3.7056580756
 30
0.0
 10
4.5931346211
 20
3.7609767187
 30
0.0
 10
4.5667034247
 20
3.8036653181
 30
0.0
 10
4.5421621917
 20
3.8474677583
 30
0.0
 10
4.5120357136
 20
3.9072373358
 30
0.0
 10
4.4793250296
 20
3.9843374518
 30
0.0
 10
4.4535144801
 20
4.0640139761
 30
0.0
 10
4.4371295416
 20
4.1289103813
 30
0.0
 10
4.4269982967
 20
4.1780866469
 30
0.0
 10
4.4190478953
 20
4.2276613766
 30
0.0
 10
4.413293356
 20
4.2775390262
 30
0.0
 10
4.409753406
 20
4.3276238958
 30
0.0
 10
4.4079983775
 20
4.3945331845
 30
0.0
 10
4.4113679746
 20
4.478217591
 30
0.0
 10
4.4221678346
 20
4.5612723787
 30
0.0
 10
4.4352171563
 20
4.6269286108
 30
0.0
 10
4.4511867392
 20
4.6919270177
 30
0.0
 10
4.4664190633
 20
4.7398346839
 30
0.0
 10
4.4779749849
 20
4.7712222914
 30
0.0
  0
ENDSEC
  0
SECTION
  2
OBJECTS
  0
DICTIONARY
  5
C
100
AcDbDictionary
280
0
281
1
  3
ACAD_GROUP
350
D
  3
ACAD_MLINESTYLE
350
17
  3
ACAD_LAYOUT
350
1A
  3
ACAD_PLOTSETTINGS
350
19
  3
ACAD_PLOTSTYLENAME
350
E
  0
DICTIONARY
  5
D
102
{ACAD_REACTORS
330
C
102
}
100
AcDbDictionary
280
0
281
1
  0
ACDBDICTIONARYWDFLT
  5
E
102
{ACAD_REACTORS
330
C
102
}
100
AcDbDictionary
281
1
  3
Normal
350
F
100
AcDbDictionaryWithDefault
340
F
  0
DICTIONARY
  5
17
102
{ACAD_REACTORS
330
C
102
}
100
AcDbDictionary
280
0
281
1
  3
Standard
350
18
  0
DICTIONARY
  5
19
102
{ACAD_REACTORS
330
C
102
}
100
AcDbDictionary
281
1
  0
DICTIONARY
  5
1A
102
{ACAD_REACTORS
330
C
102
}
100
AcDbDictionary
281
1
  3
Model
350
22B
  3
Layout1
350
22C
  0
ACDBPLACEHOLDER
  5
F
102
{ACAD_REACTORS
330
E
102
}
  0
MLINESTYLE
  5
18
102
{ACAD_REACTORS
330
17
102
}
100
AcDbMlineStyle
  2
STANDARD
 70
0
  3

 62
256
 51
90.0
 52
90.0
 71
2
 49
0.5
 62
256
  6
BYLAYER
 49
-0.5
 62
256
  6
BYLAYER
  0
LAYOUT
  5
22B
102
{ACAD_REACTORS
330
1A
102
}
100
AcDbPlotSettings
  1

  2
none_device
  4
ANSI_A_(11.00_x_8.50_Inches)
  6

 40
0.0
 41
0.0
 42
0.0
 43
0.0
 44
279.4
 45
215.9
 46
0.0
 47
0.0
 48
0.0
 49
0.0
140
0.0
141
0.0
142
1.0
143
1.0
 70
1024
 72
0
 73
0
 74
0
  7

 75
0
147
1.0
148
0.0
149
0.0
100
AcDbLayout
  1
Model
 70
0
 71
0
 10
0.0
 20
0.0
 11
11.0
 21
8.5
 12
0.0
 22
0.0
 32
0.0
 14
0.0
 24
0.0
 34
0.0
 15
0.0
 25
0.0
 35
0.0
146
0.0
 13
0.0
 23
0.0
 33
0.0
 16
1.0
 26
0.0
 36
0.0
 17
0.0
 27
1.0
 37
0.0
 76
0
330
202
345
0
346
0
  0
LAYOUT
  5
22C
102
{ACAD_REACTORS
330
1A
102
}
100
AcDbPlotSettings
  1

  2
none_device
  4
ANSI_A_(11.00_x_8.50_Inches)
  6

 40
0.0
 41
0.0
 42
0.0
 43
0.0
 44
279.4
 45
215.9
 46
0.0
 47
0.0
 48
0.0
 49
0.0
140
0.0
141
0.0
142
1.0
143
1.0
 70
0
 72
0
 73
0
 74
0
  7

 75
0
147
1.0
148
0.0
149
0.0
100
AcDbLayout
  1
Layout1
 70
0
 71
1
 10
0.0
 20
0.0
 11
11.0
 21
8.5
 12
0.0
 22
0.0
 32
0.0
 14
0.0
 24
0.0
 34
0.0
 15
0.0
 25
0.0
 35
0.0
146
0.0
 13
0.0
 23
0.0
 33
0.0
 16
1.0
 26
0.0
 36
0.0
 17
0.0
 27
1.0
 37
0.0
 76
0
330
203
345
0
346
0
  0
ENDSEC
  0
EOF
