999
DXF file: 277-02-e_FRONT.dxf
999
Pro/ENGINEER 2019352 by Parametric Technology Corporation
  0
SECTION
  2
HEADER
  9
$ACADVER
  1
AC1032
  9
$DWGCODEPAGE
  3
ANSI_1252
  9
$EXTMAX
 10
11.0
 20
8.5
 30
0.0
  9
$EXTMIN
 10
0.0
 20
0.0
 30
0.0
  9
$LIMMIN
 10
0.0
 20
0.0
  9
$LIMMAX
 10
11.0
 20
8.5
  9
$VIEWCTR
 10
5.5
 20
4.25
  9
$VIEWSIZE
 40
8.5
  9
$CLAYER
  8
0
  9
$LTSCALE
 40
0.605
  9
$CELTYPE
  6
BYLAYER
  9
$DIMSCALE
 40
1.0
  9
$DIMASZ
 40
0.1
  9
$DIMEXO
 40
0.0625
  9
$DIMDLI
 40
0.418
  9
$DIMEXE
 40
0.125
  9
$DIMCEN
 40
0.099
  9
$DIMLFAC
 40
1.0
  9
$DIMBLK
  1
_FILLED
  9
$DIMALT
 70
1
  9
$DIMALTD
 70
2
  9
$DIMALTTD
 70
2
  9
$DIMALTF
 40
25.4
  9
$DIMTXT
 40
0.08
  9
$DIMTOL
 70
1
  9
$DIMLIM
 70
0
  9
$DIMTFAC
 40
1.0
  9
$DIMTP
 40
0.001
  9
$DIMTM
 40
0.001
  9
$DIMGAP
 40
0.09
  9
$DIMDSEP
 70
46
  9
$AUNITS
 70
0
  9
$PDMODE
 70
3
  9
$PDSIZE
 40
0.3125
  9
$HANDSEED
  5
2EF
  9
$TILEMODE
 70
1
  9
$MEASUREMENT
 70
0
  9
$INSUNITS
 70
1
  0
ENDSEC
  0
SECTION
  2
CLASSES
  0
CLASS
  1
ACDBDICTIONARYWDFLT
  2
AcDbDictionaryWithDefault
  3
AutoCAD 2000
 90
0
 91
1
280
0
281
0
  0
CLASS
  1
ACDBPLACEHOLDER
  2
AcDbPlaceHolder
  3
AutoCAD 2000
 90
0
 91
1
280
0
281
0
  0
CLASS
  1
LAYOUT
  2
AcDbLayout
  3
AutoCAD 2000
 90
0
 91
0
280
0
281
0
  0
ENDSEC
  0
SECTION
  2
TABLES
  0
TABLE
  2
VPORT
  5
8
100
AcDbSymbolTable
 70
2
  0
VPORT
  5
1F4
100
AcDbSymbolTableRecord
100
AcDbViewportTableRecord
  2
*ACTIVE
 70
0
 10
0.0
 20
0.0
 11
1.0
 21
1.0
 12
5.5
 22
4.25
 13
0.0
 23
0.0
 14
1.0
 24
1.0
 15
0.0
 25
0.0
 16
0.0
 26
0.0
 36
1.0
 17
0.0
 27
0.0
 37
0.0
 40
8.5
 41
1.2941176471
 42
50.0
 43
0.0
 44
0.0
 50
0.0
 51
0.0
 71
0
 72
100
 73
1
 74
1
 75
0
 76
0
 77
0
 78
0
  0
ENDTAB
  0
TABLE
  2
LTYPE
  5
5
100
AcDbSymbolTable
 70
6
  0
LTYPE
  5
14
100
AcDbSymbolTableRecord
100
AcDbLinetypeTableRecord
  2
BYBLOCK
 70
0
  3

 72
65
 73
0
 40
0.0
  0
LTYPE
  5
15
100
AcDbSymbolTableRecord
100
AcDbLinetypeTableRecord
  2
BYLAYER
 70
0
  3

 72
65
 73
0
 40
0.0
  0
LTYPE
  5
16
100
AcDbSymbolTableRecord
100
AcDbLinetypeTableRecord
  2
CONTINUOUS
 70
64
  3
Solid line
 72
65
 73
0
 40
0.0
  0
LTYPE
  5
1F5
100
AcDbSymbolTableRecord
100
AcDbLinetypeTableRecord
  2
CENTER
 70
64
  3
____ _ ____ _ ____ _ ____ _ ____ _ ____ _ ____
 72
65
 73
4
 40
0.6
 49
0.375
 74
0
 49
-0.075
 74
0
 49
0.075
 74
0
 49
-0.075
 74
0
  0
LTYPE
  5
1F6
100
AcDbSymbolTableRecord
100
AcDbLinetypeTableRecord
  2
HIDDEN
 70
64
  3
- - - - - - - - - - - - - - - - - - - -
 72
65
 73
2
 40
0.2
 49
0.1
 74
0
 49
-0.1
 74
0
  0
LTYPE
  5
1F7
100
AcDbSymbolTableRecord
100
AcDbLinetypeTableRecord
  2
PHANTOM
 70
64
  3
_____ _ _ _____ _ _ _____ _ _ _____
 72
65
 73
6
 40
0.8
 49
0.45
 74
0
 49
-0.05
 74
0
 49
0.1
 74
0
 49
-0.05
 74
0
 49
0.1
 74
0
 49
-0.05
 74
0
  0
LTYPE
  5
1F8
100
AcDbSymbolTableRecord
100
AcDbLinetypeTableRecord
  2
DOT
 70
64
  3
. . . . . . . . . . . . . . . . . . . .
 72
65
 73
2
 40
0.2
 49
0.1
 74
0
 49
-0.1
 74
0
  0
LTYPE
  5
1F9
100
AcDbSymbolTableRecord
100
AcDbLinetypeTableRecord
  2
DASHED
 70
64
  3
- - - - - - - - - - - - - - - - - - - -
 72
65
 73
2
 40
0.2
 49
0.1
 74
0
 49
-0.1
 74
0
  0
ENDTAB
  0
TABLE
  2
LAYER
  5
2
100
AcDbSymbolTable
 70
36
  0
LAYER
  5
10
100
AcDbSymbolTableRecord
100
AcDbLayerTableRecord
  2
0
 70
0
 62
7
  6
CONTINUOUS
370
-3
390
F
  0
LAYER
  5
1FA
100
AcDbSymbolTableRecord
100
AcDbLayerTableRecord
  2
DEFAULT_1
 70
0
 62
7
  6
CENTER
370
-3
390
F
  0
LAYER
  5
1FB
100
AcDbSymbolTableRecord
100
AcDbLayerTableRecord
  2
DEFAULT_2
 70
0
 62
8
  6
HIDDEN
370
-3
390
F
  0
LAYER
  5
1FC
100
AcDbSymbolTableRecord
100
AcDbLayerTableRecord
  2
DEFAULT_3
 70
0
 62
7
  6
PHANTOM
370
-3
390
F
  0
LAYER
  5
1FD
100
AcDbSymbolTableRecord
100
AcDbLayerTableRecord
  2
DEFAULT_COORDINATE_SYSTEM
 70
0
 62
7
  6
CONTINUOUS
370
-3
390
F
  0
LAYER
  5
1FE
100
AcDbSymbolTableRecord
100
AcDbLayerTableRecord
  2
DEFAULT_DATUM_AXES
 70
0
 62
7
  6
CONTINUOUS
370
-3
390
F
  0
LAYER
  5
1FF
100
AcDbSymbolTableRecord
100
AcDbLayerTableRecord
  2
DEFAULT_DATUM_PLANES
 70
0
 62
7
  6
CONTINUOUS
370
-3
390
F
  0
ENDTAB
  0
TABLE
  2
STYLE
  5
3
100
AcDbSymbolTable
 70
1
  0
STYLE
  5
11
100
AcDbSymbolTableRecord
100
AcDbTextStyleTableRecord
  2
STANDARD
 70
0
 40
0.0
 41
0.8
 50
0.0
 71
0
 42
0.2
  3
txt
  4

  0
STYLE
  5
200
100
AcDbSymbolTableRecord
100
AcDbTextStyleTableRecord
  2
TEXTSTYLE_1
 70
0
 40
0.0
 41
0.8
 50
0.0
 71
0
 42
0.2
  3
gdt
  4

  0
ENDTAB
  0
TABLE
  2
VIEW
  5
6
100
AcDbSymbolTable
 70
0
  0
ENDTAB
  0
TABLE
  2
UCS
  5
7
100
AcDbSymbolTable
 70
0
  0
ENDTAB
  0
TABLE
  2
APPID
  5
9
100
AcDbSymbolTable
 70
1
  0
APPID
  5
201
100
AcDbSymbolTableRecord
100
AcDbRegAppTableRecord
  2
ACAD
 70
0
  0
ENDTAB
  0
TABLE
  2
BLOCK_RECORD
  5
1
100
AcDbSymbolTable
 70
0
  0
BLOCK_RECORD
  5
202
100
AcDbSymbolTableRecord
100
AcDbBlockTableRecord
  2
*Model_Space
  0
BLOCK_RECORD
  5
203
100
AcDbSymbolTableRecord
100
AcDbBlockTableRecord
  2
*Paper_Space
  0
BLOCK_RECORD
  5
204
100
AcDbSymbolTableRecord
100
AcDbBlockTableRecord
  2
_FILLED
  0
ENDTAB
  0
TABLE
  2
DIMSTYLE
  5
A
100
AcDbSymbolTable
 70
1
100
AcDbDimStyleTable
 71
0
  0
DIMSTYLE
105
205
100
AcDbSymbolTableRecord
100
AcDbDimStyleTableRecord
  2
STANDARD
 70
0
  3

  4

 40
1.0
 41
0.1
 42
0.0625
 43
0.38
 44
0.125
 45
0.0
 46
0.0
 47
0.001
 48
0.001
140
0.08
141
0.09
142
0.0
143
25.4
144
1.0
145
0.0
146
1.0
147
0.09
 71
1.0
 72
0.0
 73
1
 74
1
 75
0
 76
0
 77
0
 78
4
 79
1
170
1
171
2
172
0
173
0
174
0
175
0
176
0
177
0
178
0
270
2
179
3
271
3
272
3
273
2
274
2
275
0
280
0
281
0
282
0
283
1
284
4
285
0
286
0
287
3
288
0
340
11
278
46
341
204
342
204
343
204
344
204
  0
ENDTAB
  0
ENDSEC
  0
SECTION
  2
BLOCKS
  0
BLOCK
  5
20
100
AcDbEntity
  8
0
100
AcDbBlockBegin
  2
*Model_Space
 70
0
 10
0.0
 20
0.0
 30
0.0
  3
*Model_Space
  1

  0
ENDBLK
  5
21
100
AcDbEntity
  8
0
100
AcDbBlockEnd
  0
BLOCK
  5
1C
100
AcDbEntity
  8
0
100
AcDbBlockBegin
  2
*Paper_Space
 70
0
 10
0.0
 20
0.0
 30
0.0
  3
*Paper_Space
  1

  0
ENDBLK
  5
1D
100
AcDbEntity
  8
0
100
AcDbBlockEnd
  0
BLOCK
  5
206
100
AcDbEntity
  8
0
100
AcDbBlockBegin
  2
_FILLED
 70
64
 10
0.0
 20
0.0
  3
_FILLED
  1

  0
SOLID
  5
207
100
AcDbEntity
  8
0
  6
BYBLOCK
 62
0
100
AcDbTrace
 10
0.0
 20
0.0
 11
-1.0
 21
0.2
 12
-1.0
 22
-0.2
 13
-1.0
 23
-0.2
  0
ENDBLK
  5
208
100
AcDbEntity
  8
0
  6
BYBLOCK
 62
0
100
AcDbBlockEnd
  0
ENDSEC
  0
SECTION
  2
ENTITIES
  0
MTEXT
  5
209
100
AcDbEntity
  8
0
100
AcDbMText
 62
2
  6
CONTINUOUS
  7
STANDARD
 71
3
 72
1
 10
5.7569425805
 20
2.126570648
 30
0.0
 11
1.0
 21
0.0
 31
0.0
 73
2
 44
0.9
  1
SCALE 1.000
 40
0.08
 41
0.704
  0
LINE
  5
20A
100
AcDbEntity
  8
0
100
AcDbLine
 62
7
  6
CONTINUOUS
 10
0.0
 20
0.0
 11
0.0
 21
8.5
  0
LINE
  5
20B
100
AcDbEntity
  8
0
100
AcDbLine
 62
7
  6
CONTINUOUS
 10
0.0
 20
0.0
 11
11.0
 21
0.0
  0
LINE
  5
20C
100
AcDbEntity
  8
0
100
AcDbLine
 62
7
  6
CONTINUOUS
 10
0.0
 20
8.5
 11
11.0
 21
8.5
  0
LINE
  5
20D
100
AcDbEntity
  8
0
100
AcDbLine
 62
7
  6
CONTINUOUS
 10
11.0
 20
0.0
 11
11.0
 21
8.5
  0
LINE
  5
20E
100
AcDbEntity
  8
0
100
AcDbLine
 62
7
  6
CONTINUOUS
 10
3.3013607853
 20
2.6656652883
 11
3.2717854678
 21
2.6952406058
  0
LINE
  5
20F
100
AcDbEntity
  8
0
100
AcDbLine
 62
7
  6
CONTINUOUS
 10
3.3457484509
 20
2.6212776227
 11
3.3717854678
 21
2.5952406058
  0
LINE
  5
210
100
AcDbEntity
  8
0
100
AcDbLine
 62
7
  6
CONTINUOUS
 10
3.3023733367
 20
2.6649240287
 11
3.3487626332
 21
2.6381377626
  0
LINE
  5
211
100
AcDbEntity
  8
0
100
AcDbLine
 62
7
  6
CONTINUOUS
 10
3.3013607853
 20
2.6656652883
 11
3.3023733367
 21
2.6649240287
  0
LINE
  5
212
100
AcDbEntity
  8
0
100
AcDbLine
 62
7
  6
CONTINUOUS
 10
3.1700354678
 20
5.9702406058
 11
3.1700354678
 21
4.2802406058
  0
LINE
  5
213
100
AcDbEntity
  8
0
100
AcDbLine
 62
7
  6
CONTINUOUS
 10
3.2720530532
 20
2.8074315937
 11
3.3487626332
 21
2.7631377626
  0
LINE
  5
214
100
AcDbEntity
  8
0
100
AcDbLine
 62
7
  6
CONTINUOUS
 10
3.2720530532
 20
2.9324315937
 11
3.3487626332
 21
2.8881377626
  0
LINE
  5
215
100
AcDbEntity
  8
0
100
AcDbLine
 62
7
  6
CONTINUOUS
 10
3.2717854678
 20
2.7035750745
 11
3.2717854678
 21
2.6952406058
  0
LINE
  5
216
100
AcDbEntity
  8
0
100
AcDbLine
 62
7
  6
CONTINUOUS
 10
3.2717854678
 20
2.8077406058
 11
3.2717854678
 21
2.8285750745
  0
LINE
  5
217
100
AcDbEntity
  8
0
100
AcDbLine
 62
7
  6
CONTINUOUS
 10
3.2717854678
 20
2.9327406058
 11
3.2717854678
 21
2.9535750745
  0
LINE
  5
218
100
AcDbEntity
  8
0
100
AcDbLine
 62
7
  6
CONTINUOUS
 10
3.2717854678
 20
3.0577406058
 11
3.2717854678
 21
3.0785750745
  0
LINE
  5
219
100
AcDbEntity
  8
0
100
AcDbLine
 62
7
  6
CONTINUOUS
 10
3.2717854678
 20
3.1827406058
 11
3.2717854678
 21
3.2035750745
  0
LINE
  5
21A
100
AcDbEntity
  8
0
100
AcDbLine
 62
7
  6
CONTINUOUS
 10
3.2717854678
 20
3.3077406058
 11
3.2717854678
 21
3.3285750745
  0
LINE
  5
21B
100
AcDbEntity
  8
0
100
AcDbLine
 62
7
  6
CONTINUOUS
 10
3.2717854678
 20
3.4327406058
 11
3.2717854678
 21
3.4535750745
  0
LINE
  5
21C
100
AcDbEntity
  8
0
100
AcDbLine
 62
7
  6
CONTINUOUS
 10
3.2717854678
 20
3.5577406058
 11
3.2717854678
 21
3.5785750745
  0
LINE
  5
21D
100
AcDbEntity
  8
0
100
AcDbLine
 62
7
  6
CONTINUOUS
 10
3.2717854678
 20
3.6827406058
 11
3.2717854678
 21
3.7035750745
  0
LINE
  5
21E
100
AcDbEntity
  8
0
100
AcDbLine
 62
7
  6
CONTINUOUS
 10
3.2717854678
 20
3.8077406058
 11
3.2717854678
 21
3.8285750745
  0
LINE
  5
21F
100
AcDbEntity
  8
0
100
AcDbLine
 62
7
  6
CONTINUOUS
 10
3.2717854678
 20
3.9327406058
 11
3.2717854678
 21
3.9535750745
  0
LINE
  5
220
100
AcDbEntity
  8
0
100
AcDbLine
 62
7
  6
CONTINUOUS
 10
3.2717854678
 20
4.0577406058
 11
3.2717854678
 21
4.2202406058
  0
LINE
  5
221
100
AcDbEntity
  8
0
100
AcDbLine
 62
7
  6
CONTINUOUS
 10
3.3484854678
 20
4.0134578402
 11
3.3484854678
 21
3.9978578402
  0
LINE
  5
222
100
AcDbEntity
  8
0
100
AcDbLine
 62
7
  6
CONTINUOUS
 10
3.3484854678
 20
3.8884578402
 11
3.3484854678
 21
3.8728578402
  0
LINE
  5
223
100
AcDbEntity
  8
0
100
AcDbLine
 62
7
  6
CONTINUOUS
 10
3.3484854678
 20
3.7634578402
 11
3.3484854678
 21
3.7478578402
  0
LINE
  5
224
100
AcDbEntity
  8
0
100
AcDbLine
 62
7
  6
CONTINUOUS
 10
3.3484854678
 20
3.6384578402
 11
3.3484854678
 21
3.6228578402
  0
LINE
  5
225
100
AcDbEntity
  8
0
100
AcDbLine
 62
7
  6
CONTINUOUS
 10
3.3484854678
 20
3.5134578402
 11
3.3484854678
 21
3.4978578402
  0
LINE
  5
226
100
AcDbEntity
  8
0
100
AcDbLine
 62
7
  6
CONTINUOUS
 10
3.3484854678
 20
3.3884578402
 11
3.3484854678
 21
3.3728578402
  0
LINE
  5
227
100
AcDbEntity
  8
0
100
AcDbLine
 62
7
  6
CONTINUOUS
 10
3.3484854678
 20
3.2634578402
 11
3.3484854678
 21
3.2478578402
  0
LINE
  5
228
100
AcDbEntity
  8
0
100
AcDbLine
 62
7
  6
CONTINUOUS
 10
3.3484854678
 20
3.1384578402
 11
3.3484854678
 21
3.1228578402
  0
LINE
  5
229
100
AcDbEntity
  8
0
100
AcDbLine
 62
7
  6
CONTINUOUS
 10
3.3484854678
 20
3.0134578402
 11
3.3484854678
 21
2.9978578402
  0
LINE
  5
22A
100
AcDbEntity
  8
0
100
AcDbLine
 62
7
  6
CONTINUOUS
 10
3.3484854678
 20
2.8884578402
 11
3.3484854678
 21
2.8728578402
  0
LINE
  5
22B
100
AcDbEntity
  8
0
100
AcDbLine
 62
7
  6
CONTINUOUS
 10
3.3484854678
 20
2.7634578402
 11
3.3484854678
 21
2.7478578402
  0
LINE
  5
22C
100
AcDbEntity
  8
0
100
AcDbLine
 62
7
  6
CONTINUOUS
 10
3.3484854678
 20
2.6384578402
 11
3.3484854678
 21
2.6228578402
  0
LINE
  5
22D
100
AcDbEntity
  8
0
100
AcDbLine
 62
7
  6
CONTINUOUS
 10
3.2720530532
 20
3.0574315937
 11
3.3487626332
 21
3.0131377626
  0
LINE
  5
22E
100
AcDbEntity
  8
0
100
AcDbLine
 62
7
  6
CONTINUOUS
 10
3.2720530532
 20
3.1824315937
 11
3.3487626332
 21
3.1381377626
  0
LINE
  5
22F
100
AcDbEntity
  8
0
100
AcDbLine
 62
7
  6
CONTINUOUS
 10
3.2720530532
 20
3.3074315937
 11
3.3487626332
 21
3.2631377626
  0
LINE
  5
230
100
AcDbEntity
  8
0
100
AcDbLine
 62
7
  6
CONTINUOUS
 10
3.2720530532
 20
3.4324315937
 11
3.3487626332
 21
3.3881377626
  0
LINE
  5
231
100
AcDbEntity
  8
0
100
AcDbLine
 62
7
  6
CONTINUOUS
 10
3.2720530532
 20
3.5574315937
 11
3.3487626332
 21
3.5131377626
  0
LINE
  5
232
100
AcDbEntity
  8
0
100
AcDbLine
 62
7
  6
CONTINUOUS
 10
3.3717854678
 20
2.5952406058
 11
7.6082854678
 21
2.5952406058
  0
LINE
  5
233
100
AcDbEntity
  8
0
100
AcDbLine
 62
7
  6
CONTINUOUS
 10
3.2717854678
 20
2.6952406058
 11
3.69543352
 21
2.6952406058
  0
LINE
  5
234
100
AcDbEntity
  8
0
100
AcDbLine
 62
7
  6
CONTINUOUS
 10
3.2720530532
 20
3.6824315937
 11
3.3487626332
 21
3.6381377626
  0
LINE
  5
235
100
AcDbEntity
  8
0
100
AcDbLine
 62
7
  6
CONTINUOUS
 10
3.2720530532
 20
3.8074315937
 11
3.3487626332
 21
3.7631377626
  0
LINE
  5
236
100
AcDbEntity
  8
0
100
AcDbLine
 62
7
  6
CONTINUOUS
 10
3.3458225936
 20
2.6214802657
 11
3.3457484509
 21
2.6212776227
  0
LINE
  5
237
100
AcDbEntity
  8
0
100
AcDbLine
 62
7
  6
CONTINUOUS
 10
3.2720530532
 20
3.9538840866
 11
3.2717854678
 21
3.9535750745
  0
LINE
  5
238
100
AcDbEntity
  8
0
100
AcDbLine
 62
7
  6
CONTINUOUS
 10
3.2720530532
 20
3.8288840866
 11
3.2717854678
 21
3.8285750745
  0
LINE
  5
239
100
AcDbEntity
  8
0
100
AcDbLine
 62
7
  6
CONTINUOUS
 10
3.2720530532
 20
3.9324315937
 11
3.3487626332
 21
3.8881377626
  0
LINE
  5
23A
100
AcDbEntity
  8
0
100
AcDbLine
 62
7
  6
CONTINUOUS
 10
3.2720530532
 20
3.7038840866
 11
3.2717854678
 21
3.7035750745
  0
LINE
  5
23B
100
AcDbEntity
  8
0
100
AcDbLine
 62
7
  6
CONTINUOUS
 10
3.2720530532
 20
3.5788840866
 11
3.2717854678
 21
3.5785750745
  0
LINE
  5
23C
100
AcDbEntity
  8
0
100
AcDbLine
 62
7
  6
CONTINUOUS
 10
3.2720530532
 20
3.4538840866
 11
3.2717854678
 21
3.4535750745
  0
LINE
  5
23D
100
AcDbEntity
  8
0
100
AcDbLine
 62
7
  6
CONTINUOUS
 10
3.2720530532
 20
4.0574315937
 11
3.3487626332
 21
4.0131377626
  0
LINE
  5
23E
100
AcDbEntity
  8
0
100
AcDbLine
 62
7
  6
CONTINUOUS
 10
3.2720530532
 20
3.3288840866
 11
3.2717854678
 21
3.3285750745
  0
LINE
  5
23F
100
AcDbEntity
  8
0
100
AcDbLine
 62
7
  6
CONTINUOUS
 10
3.2720530532
 20
3.2038840866
 11
3.2717854678
 21
3.2035750745
  0
LINE
  5
240
100
AcDbEntity
  8
0
100
AcDbLine
 62
7
  6
CONTINUOUS
 10
3.2720530532
 20
3.0788840866
 11
3.2717854678
 21
3.0785750745
  0
LINE
  5
241
100
AcDbEntity
  8
0
100
AcDbLine
 62
7
  6
CONTINUOUS
 10
3.2720530532
 20
2.9538840866
 11
3.2717854678
 21
2.9535750745
  0
LINE
  5
242
100
AcDbEntity
  8
0
100
AcDbLine
 62
7
  6
CONTINUOUS
 10
3.3487626332
 20
3.9981779177
 11
3.2720530532
 21
3.9538840866
  0
LINE
  5
243
100
AcDbEntity
  8
0
100
AcDbLine
 62
7
  6
CONTINUOUS
 10
3.2720530532
 20
2.8288840866
 11
3.2717854678
 21
2.8285750745
  0
LINE
  5
244
100
AcDbEntity
  8
0
100
AcDbLine
 62
7
  6
CONTINUOUS
 10
3.3487626332
 20
3.8731779177
 11
3.2720530532
 21
3.8288840866
  0
LINE
  5
245
100
AcDbEntity
  8
0
100
AcDbLine
 62
7
  6
CONTINUOUS
 10
3.3487626332
 20
3.7481779177
 11
3.2720530532
 21
3.7038840866
  0
LINE
  5
246
100
AcDbEntity
  8
0
100
AcDbLine
 62
7
  6
CONTINUOUS
 10
3.3487626332
 20
3.6231779177
 11
3.2720530532
 21
3.5788840866
  0
LINE
  5
247
100
AcDbEntity
  8
0
100
AcDbLine
 62
7
  6
CONTINUOUS
 10
3.3487626332
 20
3.4981779177
 11
3.2720530532
 21
3.4538840866
  0
LINE
  5
248
100
AcDbEntity
  8
0
100
AcDbLine
 62
7
  6
CONTINUOUS
 10
5.2853295854
 20
5.9702406058
 11
5.2853295854
 21
4.2802406058
  0
LINE
  5
249
100
AcDbEntity
  8
0
100
AcDbLine
 62
7
  6
CONTINUOUS
 10
3.3487626332
 20
3.3731779177
 11
3.2720530532
 21
3.3288840866
  0
LINE
  5
24A
100
AcDbEntity
  8
0
100
AcDbLine
 62
7
  6
CONTINUOUS
 10
3.3487626332
 20
3.2481779177
 11
3.2720530532
 21
3.2038840866
  0
LINE
  5
24B
100
AcDbEntity
  8
0
100
AcDbLine
 62
7
  6
CONTINUOUS
 10
7.6738730979
 20
2.6611000026
 11
7.6313083024
 21
2.6856779177
  0
LINE
  5
24C
100
AcDbEntity
  8
0
100
AcDbLine
 62
7
  6
CONTINUOUS
 10
7.7080178824
 20
2.7663840866
 11
7.6313083024
 21
2.8106779177
  0
LINE
  5
24D
100
AcDbEntity
  8
0
100
AcDbLine
 62
7
  6
CONTINUOUS
 10
5.3400354678
 20
5.9702406058
 11
5.3400354678
 21
4.2802406058
  0
LINE
  5
24E
100
AcDbEntity
  8
0
100
AcDbLine
 62
7
  6
CONTINUOUS
 10
5.3977948039
 20
5.9702406058
 11
5.3977948039
 21
4.2802406058
  0
LINE
  5
24F
100
AcDbEntity
  8
0
100
AcDbLine
 62
7
  6
CONTINUOUS
 10
3.3487626332
 20
3.1231779177
 11
3.2720530532
 21
3.0788840866
  0
LINE
  5
250
100
AcDbEntity
  8
0
100
AcDbLine
 62
7
  6
CONTINUOUS
 10
7.7500144308
 20
4.2202406058
 11
3.2300565048
 21
4.2202406058
  0
LINE
  5
251
100
AcDbEntity
  8
0
100
AcDbLine
 62
7
  6
CONTINUOUS
 10
7.8100354678
 20
4.2802406058
 11
3.1700354678
 21
4.2802406058
  0
LINE
  5
252
100
AcDbEntity
  8
0
100
AcDbLine
 62
7
  6
CONTINUOUS
 10
7.7080178824
 20
2.8913840866
 11
7.6313083024
 21
2.9356779177
  0
LINE
  5
253
100
AcDbEntity
  8
0
100
AcDbLine
 62
7
  6
CONTINUOUS
 10
7.7080178824
 20
3.0163840866
 11
7.6313083024
 21
3.0606779177
  0
LINE
  5
254
100
AcDbEntity
  8
0
100
AcDbLine
 62
7
  6
CONTINUOUS
 10
5.5822761317
 20
5.9702406058
 11
5.5822761317
 21
4.2802406058
  0
LINE
  5
255
100
AcDbEntity
  8
0
100
AcDbLine
 62
7
  6
CONTINUOUS
 10
5.6400354678
 20
5.9702406058
 11
5.6400354678
 21
4.2802406058
  0
LINE
  5
256
100
AcDbEntity
  8
0
100
AcDbLine
 62
7
  6
CONTINUOUS
 10
5.6947413501
 20
4.2802406058
 11
5.6947413501
 21
5.9702406058
  0
LINE
  5
257
100
AcDbEntity
  8
0
100
AcDbLine
 62
7
  6
CONTINUOUS
 10
3.3487626332
 20
2.9981779177
 11
3.2720530532
 21
2.9538840866
  0
LINE
  5
258
100
AcDbEntity
  8
0
100
AcDbLine
 62
7
  6
CONTINUOUS
 10
3.3487626332
 20
2.8731779177
 11
3.2720530532
 21
2.8288840866
  0
LINE
  5
259
100
AcDbEntity
  8
0
100
AcDbLine
 62
7
  6
CONTINUOUS
 10
7.7080178824
 20
3.1413840866
 11
7.6313083024
 21
3.1856779177
  0
LINE
  5
25A
100
AcDbEntity
  8
0
100
AcDbLine
 62
7
  6
CONTINUOUS
 10
3.3487626332
 20
2.7481779177
 11
3.2720530532
 21
2.7038840866
  0
LINE
  5
25B
100
AcDbEntity
  8
0
100
AcDbLine
 62
7
  6
CONTINUOUS
 10
3.3487626332
 20
2.6231779177
 11
3.3458225936
 21
2.6214802657
  0
LINE
  5
25C
100
AcDbEntity
  8
0
100
AcDbLine
 62
7
  6
CONTINUOUS
 10
7.7080178824
 20
3.2663840866
 11
7.6313083024
 21
3.3106779177
  0
LINE
  5
25D
100
AcDbEntity
  8
0
100
AcDbLine
 62
7
  6
CONTINUOUS
 10
7.7080178824
 20
3.3913840866
 11
7.6313083024
 21
3.4356779177
  0
LINE
  5
25E
100
AcDbEntity
  8
0
100
AcDbLine
 62
7
  6
CONTINUOUS
 10
7.7080178824
 20
3.5163840866
 11
7.6313083024
 21
3.5606779177
  0
LINE
  5
25F
100
AcDbEntity
  8
0
100
AcDbLine
 62
7
  6
CONTINUOUS
 10
7.7080178824
 20
3.6413840866
 11
7.6313083024
 21
3.6856779177
  0
LINE
  5
260
100
AcDbEntity
  8
0
100
AcDbLine
 62
7
  6
CONTINUOUS
 10
7.7080178824
 20
3.7663840866
 11
7.6313083024
 21
3.8106779177
  0
LINE
  5
261
100
AcDbEntity
  8
0
100
AcDbLine
 62
7
  6
CONTINUOUS
 10
7.7080178824
 20
3.8913840866
 11
7.6313083024
 21
3.9356779177
  0
LINE
  5
262
100
AcDbEntity
  8
0
100
AcDbLine
 62
7
  6
CONTINUOUS
 10
7.7080178824
 20
4.0163840866
 11
7.6313083024
 21
4.0606779177
  0
LINE
  5
263
100
AcDbEntity
  8
0
100
AcDbLine
 62
7
  6
CONTINUOUS
 10
7.6313083024
 20
4.0756377626
 11
7.7080178824
 21
4.1199315937
  0
LINE
  5
264
100
AcDbEntity
  8
0
100
AcDbLine
 62
7
  6
CONTINUOUS
 10
7.6313083024
 20
3.9506377626
 11
7.7080178824
 21
3.9949315937
  0
LINE
  5
265
100
AcDbEntity
  8
0
100
AcDbLine
 62
7
  6
CONTINUOUS
 10
7.6313083024
 20
3.8256377626
 11
7.7080178824
 21
3.8699315937
  0
LINE
  5
266
100
AcDbEntity
  8
0
100
AcDbLine
 62
7
  6
CONTINUOUS
 10
7.6313083024
 20
3.7006377626
 11
7.7080178824
 21
3.7449315937
  0
LINE
  5
267
100
AcDbEntity
  8
0
100
AcDbLine
 62
7
  6
CONTINUOUS
 10
7.6313083024
 20
3.5756377626
 11
7.7080178824
 21
3.6199315937
  0
LINE
  5
268
100
AcDbEntity
  8
0
100
AcDbLine
 62
7
  6
CONTINUOUS
 10
3.1700570423
 20
5.9702406058
 11
7.8100138933
 21
5.9702406058
  0
LINE
  5
269
100
AcDbEntity
  8
0
100
AcDbLine
 62
7
  6
CONTINUOUS
 10
7.7080178824
 20
4.1199315937
 11
7.7082854678
 21
4.1202406058
  0
LINE
  5
26A
100
AcDbEntity
  8
0
100
AcDbLine
 62
7
  6
CONTINUOUS
 10
7.7080178824
 20
3.9949315937
 11
7.7082854678
 21
3.9952406058
  0
LINE
  5
26B
100
AcDbEntity
  8
0
100
AcDbLine
 62
7
  6
CONTINUOUS
 10
7.6313083024
 20
3.4506377626
 11
7.7080178824
 21
3.4949315937
  0
LINE
  5
26C
100
AcDbEntity
  8
0
100
AcDbLine
 62
7
  6
CONTINUOUS
 10
7.6313083024
 20
3.3256377626
 11
7.7080178824
 21
3.3699315937
  0
LINE
  5
26D
100
AcDbEntity
  8
0
100
AcDbLine
 62
7
  6
CONTINUOUS
 10
7.7080178824
 20
3.8699315937
 11
7.7082854678
 21
3.8702406058
  0
LINE
  5
26E
100
AcDbEntity
  8
0
100
AcDbLine
 62
7
  6
CONTINUOUS
 10
7.7080178824
 20
3.7449315937
 11
7.7082854678
 21
3.7452406058
  0
LINE
  5
26F
100
AcDbEntity
  8
0
100
AcDbLine
 62
7
  6
CONTINUOUS
 10
7.7080178824
 20
3.6199315937
 11
7.7082854678
 21
3.6202406058
  0
LINE
  5
270
100
AcDbEntity
  8
0
100
AcDbLine
 62
7
  6
CONTINUOUS
 10
7.6313083024
 20
3.2006377626
 11
7.7080178824
 21
3.2449315937
  0
LINE
  5
271
100
AcDbEntity
  8
0
100
AcDbLine
 62
7
  6
CONTINUOUS
 10
7.6313083024
 20
3.0756377626
 11
7.7080178824
 21
3.1199315937
  0
LINE
  5
272
100
AcDbEntity
  8
0
100
AcDbLine
 62
7
  6
CONTINUOUS
 10
7.6315854678
 20
2.6853578402
 11
7.6315854678
 21
2.7009578402
  0
LINE
  5
273
100
AcDbEntity
  8
0
100
AcDbLine
 62
7
  6
CONTINUOUS
 10
7.6315854678
 20
2.8103578402
 11
7.6315854678
 21
2.8259578402
  0
LINE
  5
274
100
AcDbEntity
  8
0
100
AcDbLine
 62
7
  6
CONTINUOUS
 10
7.6315854678
 20
2.9353578402
 11
7.6315854678
 21
2.9509578402
  0
LINE
  5
275
100
AcDbEntity
  8
0
100
AcDbLine
 62
7
  6
CONTINUOUS
 10
7.6315854678
 20
3.0603578402
 11
7.6315854678
 21
3.0759578402
  0
LINE
  5
276
100
AcDbEntity
  8
0
100
AcDbLine
 62
7
  6
CONTINUOUS
 10
7.6315854678
 20
3.1853578402
 11
7.6315854678
 21
3.2009578402
  0
LINE
  5
277
100
AcDbEntity
  8
0
100
AcDbLine
 62
7
  6
CONTINUOUS
 10
7.6315854678
 20
3.3103578402
 11
7.6315854678
 21
3.3259578402
  0
LINE
  5
278
100
AcDbEntity
  8
0
100
AcDbLine
 62
7
  6
CONTINUOUS
 10
7.6315854678
 20
3.4353578402
 11
7.6315854678
 21
3.4509578402
  0
LINE
  5
279
100
AcDbEntity
  8
0
100
AcDbLine
 62
7
  6
CONTINUOUS
 10
7.6315854678
 20
3.5603578402
 11
7.6315854678
 21
3.5759578402
  0
LINE
  5
27A
100
AcDbEntity
  8
0
100
AcDbLine
 62
7
  6
CONTINUOUS
 10
7.6315854678
 20
3.6853578402
 11
7.6315854678
 21
3.7009578402
  0
LINE
  5
27B
100
AcDbEntity
  8
0
100
AcDbLine
 62
7
  6
CONTINUOUS
 10
7.6315854678
 20
3.8103578402
 11
7.6315854678
 21
3.8259578402
  0
LINE
  5
27C
100
AcDbEntity
  8
0
100
AcDbLine
 62
7
  6
CONTINUOUS
 10
7.6315854678
 20
3.9353578402
 11
7.6315854678
 21
3.9509578402
  0
LINE
  5
27D
100
AcDbEntity
  8
0
100
AcDbLine
 62
7
  6
CONTINUOUS
 10
7.6315854678
 20
4.0603578402
 11
7.6315854678
 21
4.0759578402
  0
LINE
  5
27E
100
AcDbEntity
  8
0
100
AcDbLine
 62
7
  6
CONTINUOUS
 10
7.7082854678
 20
2.7452406058
 11
7.7082854678
 21
2.7660750745
  0
LINE
  5
27F
100
AcDbEntity
  8
0
100
AcDbLine
 62
7
  6
CONTINUOUS
 10
7.7082854678
 20
2.8702406058
 11
7.7082854678
 21
2.8910750745
  0
LINE
  5
280
100
AcDbEntity
  8
0
100
AcDbLine
 62
7
  6
CONTINUOUS
 10
7.7082854678
 20
2.9952406058
 11
7.7082854678
 21
3.0160750745
  0
LINE
  5
281
100
AcDbEntity
  8
0
100
AcDbLine
 62
7
  6
CONTINUOUS
 10
7.7082854678
 20
3.1202406058
 11
7.7082854678
 21
3.1410750745
  0
LINE
  5
282
100
AcDbEntity
  8
0
100
AcDbLine
 62
7
  6
CONTINUOUS
 10
7.7082854678
 20
3.2452406058
 11
7.7082854678
 21
3.2660750745
  0
LINE
  5
283
100
AcDbEntity
  8
0
100
AcDbLine
 62
7
  6
CONTINUOUS
 10
7.7082854678
 20
3.3702406058
 11
7.7082854678
 21
3.3910750745
  0
LINE
  5
284
100
AcDbEntity
  8
0
100
AcDbLine
 62
7
  6
CONTINUOUS
 10
7.7082854678
 20
3.4952406058
 11
7.7082854678
 21
3.5160750745
  0
LINE
  5
285
100
AcDbEntity
  8
0
100
AcDbLine
 62
7
  6
CONTINUOUS
 10
7.7082854678
 20
3.6202406058
 11
7.7082854678
 21
3.6410750745
  0
LINE
  5
286
100
AcDbEntity
  8
0
100
AcDbLine
 62
7
  6
CONTINUOUS
 10
7.7082854678
 20
3.7452406058
 11
7.7082854678
 21
3.7660750745
  0
LINE
  5
287
100
AcDbEntity
  8
0
100
AcDbLine
 62
7
  6
CONTINUOUS
 10
7.7082854678
 20
3.8702406058
 11
7.7082854678
 21
3.8910750745
  0
LINE
  5
288
100
AcDbEntity
  8
0
100
AcDbLine
 62
7
  6
CONTINUOUS
 10
7.7082854678
 20
3.9952406058
 11
7.7082854678
 21
4.0160750745
  0
LINE
  5
289
100
AcDbEntity
  8
0
100
AcDbLine
 62
7
  6
CONTINUOUS
 10
7.7082854678
 20
4.1202406058
 11
7.7082854678
 21
4.2202406058
  0
LINE
  5
28A
100
AcDbEntity
  8
0
100
AcDbLine
 62
7
  6
CONTINUOUS
 10
7.7080178824
 20
3.4949315937
 11
7.7082854678
 21
3.4952406058
  0
LINE
  5
28B
100
AcDbEntity
  8
0
100
AcDbLine
 62
7
  6
CONTINUOUS
 10
7.7080178824
 20
3.3699315937
 11
7.7082854678
 21
3.3702406058
  0
LINE
  5
28C
100
AcDbEntity
  8
0
100
AcDbLine
 62
7
  6
CONTINUOUS
 10
7.6313083024
 20
2.9506377626
 11
7.7080178824
 21
2.9949315937
  0
LINE
  5
28D
100
AcDbEntity
  8
0
100
AcDbLine
 62
7
  6
CONTINUOUS
 10
7.8100354678
 20
5.9702406058
 11
7.8100354678
 21
4.2802406058
  0
LINE
  5
28E
100
AcDbEntity
  8
0
100
AcDbLine
 62
7
  6
CONTINUOUS
 10
7.7080178824
 20
3.2449315937
 11
7.7082854678
 21
3.2452406058
  0
LINE
  5
28F
100
AcDbEntity
  8
0
100
AcDbLine
 62
7
  6
CONTINUOUS
 10
7.7080178824
 20
3.1199315937
 11
7.7082854678
 21
3.1202406058
  0
LINE
  5
290
100
AcDbEntity
  8
0
100
AcDbLine
 62
7
  6
CONTINUOUS
 10
7.6313083024
 20
2.8256377626
 11
7.7080178824
 21
2.8699315937
  0
LINE
  5
291
100
AcDbEntity
  8
0
100
AcDbLine
 62
7
  6
CONTINUOUS
 10
7.6313083024
 20
2.7006377626
 11
7.7080178824
 21
2.7449315937
  0
LINE
  5
292
100
AcDbEntity
  8
0
100
AcDbLine
 62
7
  6
CONTINUOUS
 10
7.7080178824
 20
2.9949315937
 11
7.7082854678
 21
2.9952406058
  0
LINE
  5
293
100
AcDbEntity
  8
0
100
AcDbLine
 62
7
  6
CONTINUOUS
 10
7.7080178824
 20
2.8699315937
 11
7.7082854678
 21
2.8702406058
  0
LINE
  5
294
100
AcDbEntity
  8
0
100
AcDbLine
 62
7
  6
CONTINUOUS
 10
7.7080178824
 20
2.7449315937
 11
7.7082854678
 21
2.7452406058
  0
LINE
  5
295
100
AcDbEntity
  8
0
100
AcDbLine
 62
7
  6
CONTINUOUS
 10
7.673945897
 20
2.660901035
 11
7.6082854678
 21
2.5952406058
  0
ARC
  5
296
100
AcDbEntity
  8
0
100
AcDbCircle
 62
7
  6
CONTINUOUS
 10
7.7500354678
 20
4.2802406058
 40
0.06
100
AcDbArc
 50
270.0
 51
360.0
  0
ARC
  5
297
100
AcDbEntity
  8
0
100
AcDbCircle
 62
7
  6
CONTINUOUS
 10
3.2300354678
 20
4.2802406058
 40
0.06
100
AcDbArc
 50
180.0
 51
270.0
  0
ARC
  5
298
100
AcDbEntity
  8
0
100
AcDbCircle
 62
7
  6
CONTINUOUS
 10
5.5800354678
 20
4.2802406058
 40
0.06
100
AcDbArc
 50
270.0
 51
360.0
  0
ARC
  5
299
100
AcDbEntity
  8
0
100
AcDbCircle
 62
7
  6
CONTINUOUS
 10
5.4000354678
 20
4.2802406058
 40
0.06
100
AcDbArc
 50
180.0
 51
270.0
  0
LINE
  5
29A
100
AcDbEntity
  8
0
100
AcDbLine
 62
7
  6
CONTINUOUS
 10
3.2717857165
 20
2.7035750739
 11
3.2720530416
 21
2.7038840872
  0
SPLINE
  5
29B
100
AcDbEntity
  8
0
100
AcDbSpline
 62
7
  6
CONTINUOUS
 70
0
 71
3
 72
80
 73
76
 74
0
 42
0.0000001
 43
0.0000001
 44
0.0000000001
 40
0.0
 40
0.0
 40
0.0
 40
0.0
 40
0.000066228
 40
0.000120303
 40
0.0001910913
 40
0.0002793615
 40
0.0003854988
 40
0.0005097187
 40
0.0006521513
 40
0.0009919462
 40
0.0014052894
 40
0.0024532054
 40
0.0037964565
 40
0.0054349798
 40
0.0073682424
 40
0.0095949495
 40
0.012113649
 40
0.0149228582
 40
0.018021075
 40
0.0214067804
 40
0.0250780959
 40
0.0290325511
 40
0.0377807517
 40
0.0476310918
 40
0.0585609645
 40
0.0705430517
 40
0.0835494117
 40
0.0975496317
 40
0.1125091813
 40
0.1283930771
 40
0.1451637995
 40
0.1627803779
 40
0.1812015048
 40
0.2202795511
 40
0.2620251919
 40
0.3060399409
 40
0.3519046474
 40
0.3991819614
 40
0.4474208191
 40
0.4961615587
 40
0.5449393109
 40
0.5932889868
 40
0.6407497875
 40
0.6868687904
 40
0.7312065337
 40
0.7733405613
 40
0.8128684618
 40
0.8494137617
 40
0.8664581266
 40
0.8826285622
 40
0.8978860678
 40
0.9121953573
 40
0.9255215704
 40
0.9378326437
 40
0.9491003824
 40
0.9592970032
 40
0.968398137
 40
0.9763832854
 40
0.9799510383
 40
0.9832324051
 40
0.9862257269
 40
0.9889294933
 40
0.9913422083
 40
0.9934623986
 40
0.9952886295
 40
0.99681983
 40
0.9974746943
 40
0.9980557186
 40
0.9985629235
 40
0.9989963737
 40
0.9993562134
 40
0.9996427489
 40
0.9998566698
 40
0.9999369361
 40
1.0
 40
1.0
 40
1.0
 40
1.0
 10
7.7082854678
 20
4.0160750745
 30
0.0
 10
7.7082854678
 20
4.0159771181
 30
0.0
 10
7.708135476
 20
4.0158266464
 30
0.0
 10
7.7078947494
 20
4.0156970351
 30
0.0
 10
7.7075996844
 20
4.0155756693
 30
0.0
 10
7.7072267091
 20
4.0154573546
 30
0.0
 10
7.7067704513
 20
4.0153371363
 30
0.0
 10
7.7062323549
 20
4.0152169988
 30
0.0
 10
7.7053516648
 20
4.0150460539
 30
0.0
 10
7.7040432642
 20
4.0148375613
 30
0.0
 10
7.7014018974
 20
4.0144903205
 30
0.0
 10
7.6972739903
 20
4.0140740901
 30
0.0
 10
7.691332634
 20
4.0135984404
 30
0.0
 10
7.6840784322
 20
4.013120355
 30
0.0
 10
7.6755153884
 20
4.0126399715
 30
0.0
 10
7.6656487845
 20
4.0121583788
 30
0.0
 10
7.654485292
 20
4.0116758558
 30
0.0
 10
7.6420317228
 20
4.0111927078
 30
0.0
 10
7.6282949352
 20
4.0107090788
 30
0.0
 10
7.6132823177
 20
4.0102251088
 30
0.0
 10
7.5970026619
 20
4.0097408547
 30
0.0
 10
7.5727934858
 20
4.0090721205
 30
0.0
 10
7.5394460371
 20
4.0082441797
 30
0.0
 10
7.4957818047
 20
4.0072793081
 30
0.0
 10
7.447333374
 20
4.0063133877
 30
0.0
 10
7.3942161246
 20
4.0053463748
 30
0.0
 10
7.3365569125
 20
4.0043786796
 30
0.0
 10
7.2744932338
 20
4.0034105024
 30
0.0
 10
7.2081729785
 20
4.0024418056
 30
0.0
 10
7.1377545262
 20
4.0014727872
 30
0.0
 10
7.0634057708
 20
4.000503544
 30
0.0
 10
6.9853039516
 20
3.9995339889
 30
0.0
 10
6.8742096521
 20
3.9982149724
 30
0.0
 10
6.7274278619
 20
3.9965767905
 30
0.0
 10
6.5427920482
 20
3.9946458813
 30
0.0
 10
6.3481177231
 20
3.9927137574
 30
0.0
 10
6.145261242
 20
3.9907807504
 30
0.0
 10
5.9361567028
 20
3.9888471453
 30
0.0
 10
5.7227981103
 20
3.9869131393
 30
0.0
 10
5.5072201632
 20
3.9849789545
 30
0.0
 10
5.2914783009
 20
3.9830447519
 30
0.0
 10
5.077629644
 20
3.9811107053
 30
0.0
 10
4.8677136466
 20
3.9791770273
 30
0.0
 10
4.663731866
 20
3.9772439035
 30
0.0
 10
4.4676291606
 20
3.9753116032
 30
0.0
 10
4.2812756959
 20
3.9733805425
 30
0.0
 10
4.1064485085
 20
3.9714510093
 30
0.0
 10
3.9687300379
 20
3.9698092168
 30
0.0
 10
3.8655578249
 20
3.9684857791
 30
0.0
 10
3.7938700019
 20
3.9675166832
 30
0.0
 10
3.7262279573
 20
3.9665478585
 30
0.0
 10
3.6627931923
 20
3.9655795084
 30
0.0
 10
3.6037169668
 20
3.9646116622
 30
0.0
 10
3.549140073
 20
3.963644392
 30
0.0
 10
3.4991928629
 20
3.9626780765
 30
0.0
 10
3.4539943497
 20
3.9617129294
 30
0.0
 10
3.4136522459
 20
3.9607491558
 30
0.0
 10
3.3831144626
 20
3.9599200963
 30
0.0
 10
3.3611836517
 20
3.9592490799
 30
0.0
 10
3.3466339277
 20
3.9587651936
 30
0.0
 10
3.3333628611
 20
3.9582817289
 30
0.0
 10
3.3213775107
 20
3.9577987911
 30
0.0
 10
3.3106847226
 20
3.9573165478
 30
0.0
 10
3.3012912899
 20
3.9568354025
 30
0.0
 10
3.2932035832
 20
3.9563555615
 30
0.0
 10
3.2872835005
 20
3.9559390036
 30
0.0
 10
3.2832048422
 20
3.9555990279
 30
0.0
 10
3.2806379158
 20
3.955357912
 30
0.0
 10
3.2784000084
 20
3.955117445
 30
0.0
 10
3.2764913849
 20
3.9548777479
 30
0.0
 10
3.2749116901
 20
3.9546397495
 30
0.0
 10
3.27366135
 20
3.9544033149
 30
0.0
 10
3.2728263383
 20
3.9541956539
 30
0.0
 10
3.2723277563
 20
3.9540197908
 30
0.0
 10
3.2721346148
 20
3.953930644
 30
0.0
 10
3.2720537884
 20
3.9538840867
 30
0.0
  0
SPLINE
  5
29C
100
AcDbEntity
  8
0
100
AcDbSpline
 62
7
  6
CONTINUOUS
 70
0
 71
3
 72
80
 73
76
 74
0
 42
0.0000001
 43
0.0000001
 44
0.0000000001
 40
0.0
 40
0.0
 40
0.0
 40
0.0
 40
0.000066228
 40
0.000120303
 40
0.0001910913
 40
0.0002793615
 40
0.0003854988
 40
0.0005097186
 40
0.0006521512
 40
0.0009919461
 40
0.0014052894
 40
0.0024532053
 40
0.0037964564
 40
0.0054349796
 40
0.007368242
 40
0.0095949488
 40
0.0121136481
 40
0.014922857
 40
0.0180210735
 40
0.0214067786
 40
0.0250780937
 40
0.0290325483
 40
0.0377807479
 40
0.0476310874
 40
0.0585609595
 40
0.0705430461
 40
0.0835494058
 40
0.0975496253
 40
0.1125091743
 40
0.1283930698
 40
0.1451637918
 40
0.1627803696
 40
0.1812014964
 40
0.2202795417
 40
0.2620251819
 40
0.3060399305
 40
0.3519046365
 40
0.3991819499
 40
0.4474208085
 40
0.4961615509
 40
0.5449393065
 40
0.5932889848
 40
0.6407497864
 40
0.6868687892
 40
0.7312065323
 40
0.7733405606
 40
0.8128684632
 40
0.8494137648
 40
0.86645813
 40
0.8826285658
 40
0.8978860713
 40
0.9121953605
 40
0.9255215734
 40
0.9378326463
 40
0.9491003845
 40
0.9592970049
 40
0.9683981382
 40
0.9763832862
 40
0.9799510389
 40
0.9832324056
 40
0.9862257273
 40
0.9889294936
 40
0.9913422085
 40
0.9934623987
 40
0.9952886296
 40
0.9968198301
 40
0.9974746943
 40
0.9980557186
 40
0.9985629236
 40
0.9989963737
 40
0.9993562134
 40
0.999642749
 40
0.9998566698
 40
0.9999369361
 40
1.0
 40
1.0
 40
1.0
 40
1.0
 10
3.2717854678
 20
3.9327406058
 30
0.0
 10
3.2717854678
 20
3.9328385623
 30
0.0
 10
3.2719354596
 20
3.932989034
 30
0.0
 10
3.2721761862
 20
3.9331186452
 30
0.0
 10
3.2724712512
 20
3.9332400111
 30
0.0
 10
3.2728442265
 20
3.9333583258
 30
0.0
 10
3.2733004842
 20
3.933478544
 30
0.0
 10
3.2738385806
 20
3.9335986816
 30
0.0
 10
3.2747192706
 20
3.9337696264
 30
0.0
 10
3.2760276712
 20
3.9339781191
 30
0.0
 10
3.2786690379
 20
3.9343253598
 30
0.0
 10
3.2827969448
 20
3.9347415903
 30
0.0
 10
3.2887383007
 20
3.93521724
 30
0.0
 10
3.2959925021
 20
3.9356953253
 30
0.0
 10
3.3045555453
 20
3.9361757088
 30
0.0
 10
3.3144221482
 20
3.9366573015
 30
0.0
 10
3.3255856396
 20
3.9371398245
 30
0.0
 10
3.3380392074
 20
3.9376229724
 30
0.0
 10
3.3517759937
 20
3.9381066014
 30
0.0
 10
3.3667886097
 20
3.9385905713
 30
0.0
 10
3.3830682636
 20
3.9390748254
 30
0.0
 10
3.4072774367
 20
3.9397435596
 30
0.0
 10
3.4406248822
 20
3.9405715004
 30
0.0
 10
3.4842891112
 20
3.9415363719
 30
0.0
 10
3.5327375392
 20
3.9425022922
 30
0.0
 10
3.5858547864
 20
3.9434693052
 30
0.0
 10
3.6435139966
 20
3.9444370004
 30
0.0
 10
3.7055776733
 20
3.9454051776
 30
0.0
 10
3.7718979266
 20
3.9463738744
 30
0.0
 10
3.842316377
 20
3.9473428927
 30
0.0
 10
3.9166651305
 20
3.9483121359
 30
0.0
 10
3.9947669478
 20
3.9492816911
 30
0.0
 10
4.1058612449
 20
3.9506007076
 30
0.0
 10
4.2526430326
 20
3.9522388894
 30
0.0
 10
4.4372788432
 20
3.9541697986
 30
0.0
 10
4.6319531661
 20
3.9561019225
 30
0.0
 10
4.8348096451
 20
3.9580349295
 30
0.0
 10
5.043914184
 20
3.9599685346
 30
0.0
 10
5.257272781
 20
3.9619025407
 30
0.0
 10
5.4728507386
 20
3.9638367256
 30
0.0
 10
5.6885926138
 20
3.9657709283
 30
0.0
 10
5.9024412806
 20
3.967704975
 30
0.0
 10
6.1123572827
 20
3.969638653
 30
0.0
 10
6.3163390641
 20
3.9715717768
 30
0.0
 10
6.51244177
 20
3.9735040771
 30
0.0
 10
6.6987952384
 20
3.9754351379
 30
0.0
 10
6.8736224326
 20
3.9773646712
 30
0.0
 10
7.0113409093
 20
3.9790064637
 30
0.0
 10
7.1145131256
 20
3.9803299015
 30
0.0
 10
7.1862009492
 20
3.9812989974
 30
0.0
 10
7.2538429935
 20
3.9822678221
 30
0.0
 10
7.3172777576
 20
3.9832361722
 30
0.0
 10
7.3763539817
 20
3.9842040184
 30
0.0
 10
7.4309308738
 20
3.9851712886
 30
0.0
 10
7.480878082
 20
3.986137604
 30
0.0
 10
7.5260765933
 20
3.9871027512
 30
0.0
 10
7.5664186952
 20
3.9880665247
 30
0.0
 10
7.5969564769
 20
3.9888955842
 30
0.0
 10
7.6188872867
 20
3.9895666006
 30
0.0
 10
7.6334370101
 20
3.9900504869
 30
0.0
 10
7.6467080762
 20
3.9905339515
 30
0.0
 10
7.6586934262
 20
3.9910168894
 30
0.0
 10
7.6693862139
 20
3.9914991326
 30
0.0
 10
7.6787796463
 20
3.9919802779
 30
0.0
 10
7.6868673528
 20
3.9924601189
 30
0.0
 10
7.6927874354
 20
3.9928766768
 30
0.0
 10
7.6968660937
 20
3.9932166525
 30
0.0
 10
7.6994330199
 20
3.9934577684
 30
0.0
 10
7.7016709273
 20
3.9936982353
 30
0.0
 10
7.7035795508
 20
3.9939379325
 30
0.0
 10
7.7051592456
 20
3.9941759309
 30
0.0
 10
7.7064095856
 20
3.9944123654
 30
0.0
 10
7.7072445973
 20
3.9946200265
 30
0.0
 10
7.7077431793
 20
3.9947958896
 30
0.0
 10
7.7079363208
 20
3.9948850364
 30
0.0
 10
7.7080171472
 20
3.9949315937
 30
0.0
  0
SPLINE
  5
29D
100
AcDbEntity
  8
0
100
AcDbSpline
 62
7
  6
CONTINUOUS
 70
0
 71
3
 72
80
 73
76
 74
0
 42
0.0000001
 43
0.0000001
 44
0.0000000001
 40
0.0
 40
0.0
 40
0.0
 40
0.0
 40
0.000066228
 40
0.000120303
 40
0.0001910913
 40
0.0002793615
 40
0.0003854988
 40
0.0005097186
 40
0.0006521513
 40
0.0009919462
 40
0.0014052894
 40
0.0024532054
 40
0.0037964564
 40
0.0054349797
 40
0.0073682422
 40
0.0095949492
 40
0.0121136486
 40
0.0149228577
 40
0.0180210743
 40
0.0214067796
 40
0.0250780949
 40
0.0290325498
 40
0.0377807498
 40
0.0476310895
 40
0.0585609616
 40
0.0705430482
 40
0.0835494078
 40
0.0975496274
 40
0.1125091768
 40
0.1283930727
 40
0.1451637953
 40
0.1627803741
 40
0.181201502
 40
0.2202795503
 40
0.262025192
 40
0.3060399406
 40
0.3519046467
 40
0.3991819613
 40
0.4474208212
 40
0.4961615641
 40
0.5449393194
 40
0.5932889965
 40
0.6407497967
 40
0.6868687993
 40
0.7312065425
 40
0.7733405695
 40
0.8128684692
 40
0.8494137686
 40
0.866458133
 40
0.8826285684
 40
0.8978860735
 40
0.9121953625
 40
0.9255215755
 40
0.9378326484
 40
0.9491003865
 40
0.959297007
 40
0.9683981398
 40
0.9763832873
 40
0.9799510398
 40
0.9832324064
 40
0.9862257279
 40
0.9889294941
 40
0.9913422089
 40
0.9934623989
 40
0.9952886297
 40
0.9968198302
 40
0.9974746944
 40
0.9980557186
 40
0.9985629236
 40
0.9989963737
 40
0.9993562134
 40
0.999642749
 40
0.9998566698
 40
0.9999369361
 40
1.0
 40
1.0
 40
1.0
 40
1.0
 10
7.7082854678
 20
3.8910750745
 30
0.0
 10
7.7082854678
 20
3.8909771181
 30
0.0
 10
7.708135476
 20
3.8908266464
 30
0.0
 10
7.7078947494
 20
3.8906970351
 30
0.0
 10
7.7075996844
 20
3.8905756693
 30
0.0
 10
7.7072267091
 20
3.8904573546
 30
0.0
 10
7.7067704514
 20
3.8903371363
 30
0.0
 10
7.7062323549
 20
3.8902169988
 30
0.0
 10
7.7053516649
 20
3.8900460539
 30
0.0
 10
7.7040432644
 20
3.8898375613
 30
0.0
 10
7.7014018976
 20
3.8894903205
 30
0.0
 10
7.6972739905
 20
3.8890740901
 30
0.0
 10
7.6913326344
 20
3.8885984404
 30
0.0
 10
7.6840784328
 20
3.888120355
 30
0.0
 10
7.6755153893
 20
3.8876399716
 30
0.0
 10
7.6656487858
 20
3.8871583788
 30
0.0
 10
7.6544852937
 20
3.8866758558
 30
0.0
 10
7.6420317252
 20
3.8861927079
 30
0.0
 10
7.6282949381
 20
3.8857090789
 30
0.0
 10
7.6132823214
 20
3.885225109
 30
0.0
 10
7.5970026665
 20
3.8847408548
 30
0.0
 10
7.572793492
 20
3.8840721206
 30
0.0
 10
7.5394460452
 20
3.8832441798
 30
0.0
 10
7.4957818153
 20
3.8822793083
 30
0.0
 10
7.4473333871
 20
3.881313388
 30
0.0
 10
7.39421614
 20
3.8803463751
 30
0.0
 10
7.3365569297
 20
3.8793786799
 30
0.0
 10
7.2744932525
 20
3.8784105027
 30
0.0
 10
7.2081729979
 20
3.8774418058
 30
0.0
 10
7.1377545455
 20
3.8764727875
 30
0.0
 10
7.0634057891
 20
3.8755035442
 30
0.0
 10
6.9853039677
 20
3.8745339891
 30
0.0
 10
6.8742096632
 20
3.8732149725
 30
0.0
 10
6.7274278672
 20
3.8715767906
 30
0.0
 10
6.5427920497
 20
3.8696458813
 30
0.0
 10
6.3481177245
 20
3.8677137574
 30
0.0
 10
6.1452612436
 20
3.8657807504
 30
0.0
 10
5.9361567009
 20
3.8638471453
 30
0.0
 10
5.7227980994
 20
3.8619131392
 30
0.0
 10
5.5072201396
 20
3.8599789543
 30
0.0
 10
5.291478266
 20
3.8580447516
 30
0.0
 10
5.0776296036
 20
3.8561107049
 30
0.0
 10
4.8677136055
 20
3.8541770269
 30
0.0
 10
4.6637318263
 20
3.8522439031
 30
0.0
 10
4.4676291224
 20
3.8503116028
 30
0.0
 10
4.28127566
 20
3.8483805421
 30
0.0
 10
4.1064484754
 20
3.8464510089
 30
0.0
 10
3.9687300073
 20
3.8448092165
 30
0.0
 10
3.8655577961
 20
3.8434857787
 30
0.0
 10
3.7938699747
 20
3.8425166828
 30
0.0
 10
3.7262279319
 20
3.8415478581
 30
0.0
 10
3.6627931686
 20
3.840579508
 30
0.0
 10
3.6037169447
 20
3.8396116618
 30
0.0
 10
3.5491400525
 20
3.8386443916
 30
0.0
 10
3.4991928443
 20
3.8376780761
 30
0.0
 10
3.4539943337
 20
3.836712929
 30
0.0
 10
3.4136522332
 20
3.8357491555
 30
0.0
 10
3.3831144532
 20
3.8349200961
 30
0.0
 10
3.3611836447
 20
3.8342490797
 30
0.0
 10
3.346633922
 20
3.8337651934
 30
0.0
 10
3.3333628566
 20
3.8332817287
 30
0.0
 10
3.3213775073
 20
3.8327987909
 30
0.0
 10
3.3106847203
 20
3.8323165477
 30
0.0
 10
3.3012912884
 20
3.8318354024
 30
0.0
 10
3.2932035822
 20
3.8313555615
 30
0.0
 10
3.2872834998
 20
3.8309390036
 30
0.0
 10
3.2832048417
 20
3.8305990279
 30
0.0
 10
3.2806379155
 20
3.830357912
 30
0.0
 10
3.2784000082
 20
3.830117445
 30
0.0
 10
3.2764913847
 20
3.8298777479
 30
0.0
 10
3.27491169
 20
3.8296397495
 30
0.0
 10
3.2736613499
 20
3.8294033149
 30
0.0
 10
3.2728263383
 20
3.8291956539
 30
0.0
 10
3.2723277562
 20
3.8290197908
 30
0.0
 10
3.2721346148
 20
3.828930644
 30
0.0
 10
3.2720537884
 20
3.8288840867
 30
0.0
  0
SPLINE
  5
29E
100
AcDbEntity
  8
0
100
AcDbSpline
 62
7
  6
CONTINUOUS
 70
0
 71
3
 72
80
 73
76
 74
0
 42
0.0000001
 43
0.0000001
 44
0.0000000001
 40
0.0
 40
0.0
 40
0.0
 40
0.0
 40
0.000066228
 40
0.000120303
 40
0.0001910913
 40
0.0002793615
 40
0.0003854988
 40
0.0005097186
 40
0.0006521512
 40
0.0009919461
 40
0.0014052894
 40
0.0024532053
 40
0.0037964563
 40
0.0054349796
 40
0.007368242
 40
0.0095949489
 40
0.0121136482
 40
0.014922857
 40
0.0180210735
 40
0.0214067787
 40
0.0250780938
 40
0.0290325484
 40
0.037780748
 40
0.0476310875
 40
0.0585609597
 40
0.0705430463
 40
0.0835494061
 40
0.0975496256
 40
0.1125091746
 40
0.1283930701
 40
0.145163792
 40
0.1627803702
 40
0.1812014979
 40
0.2202795462
 40
0.2620251892
 40
0.3060399397
 40
0.3519046467
 40
0.3991819599
 40
0.4474208173
 40
0.4961615582
 40
0.5449393127
 40
0.5932889903
 40
0.6407497915
 40
0.6868687945
 40
0.7312065373
 40
0.7733405643
 40
0.8128684656
 40
0.8494137664
 40
0.8664581313
 40
0.8826285669
 40
0.8978860723
 40
0.9121953615
 40
0.9255215746
 40
0.9378326475
 40
0.9491003857
 40
0.9592970062
 40
0.9683981391
 40
0.9763832868
 40
0.9799510393
 40
0.9832324059
 40
0.9862257275
 40
0.9889294938
 40
0.9913422086
 40
0.9934623988
 40
0.9952886296
 40
0.9968198301
 40
0.9974746943
 40
0.9980557186
 40
0.9985629236
 40
0.9989963737
 40
0.9993562134
 40
0.999642749
 40
0.9998566698
 40
0.9999369361
 40
1.0
 40
1.0
 40
1.0
 40
1.0
 10
3.2717854678
 20
3.8077406058
 30
0.0
 10
3.2717854678
 20
3.8078385623
 30
0.0
 10
3.2719354596
 20
3.807989034
 30
0.0
 10
3.2721761862
 20
3.8081186452
 30
0.0
 10
3.2724712512
 20
3.8082400111
 30
0.0
 10
3.2728442265
 20
3.8083583258
 30
0.0
 10
3.2733004842
 20
3.808478544
 30
0.0
 10
3.2738385806
 20
3.8085986816
 30
0.0
 10
3.2747192706
 20
3.8087696264
 30
0.0
 10
3.2760276711
 20
3.8089781191
 30
0.0
 10
3.2786690378
 20
3.8093253598
 30
0.0
 10
3.2827969447
 20
3.8097415903
 30
0.0
 10
3.2887383007
 20
3.81021724
 30
0.0
 10
3.2959925021
 20
3.8106953253
 30
0.0
 10
3.3045555453
 20
3.8111757088
 30
0.0
 10
3.3144221482
 20
3.8116573015
 30
0.0
 10
3.3255856397
 20
3.8121398245
 30
0.0
 10
3.3380392076
 20
3.8126229724
 30
0.0
 10
3.351775994
 20
3.8131066014
 30
0.0
 10
3.36678861
 20
3.8135905713
 30
0.0
 10
3.383068264
 20
3.8140748254
 30
0.0
 10
3.4072774371
 20
3.8147435596
 30
0.0
 10
3.4406248827
 20
3.8155715004
 30
0.0
 10
3.4842891119
 20
3.8165363719
 30
0.0
 10
3.5327375402
 20
3.8175022922
 30
0.0
 10
3.5858547875
 20
3.8184693052
 30
0.0
 10
3.6435139978
 20
3.8194370004
 30
0.0
 10
3.7055776746
 20
3.8204051776
 30
0.0
 10
3.7718979279
 20
3.8213738744
 30
0.0
 10
3.8423163782
 20
3.8223428927
 30
0.0
 10
3.9166651322
 20
3.823312136
 30
0.0
 10
3.9947669513
 20
3.8242816911
 30
0.0
 10
4.1058612545
 20
3.8256007077
 30
0.0
 10
4.252643052
 20
3.8272388896
 30
0.0
 10
4.4372788742
 20
3.8291697989
 30
0.0
 10
4.6319532055
 20
3.8311019229
 30
0.0
 10
4.8348096885
 20
3.8330349299
 30
0.0
 10
5.0439142268
 20
3.834968535
 30
0.0
 10
5.2572728196
 20
3.8369025411
 30
0.0
 10
5.4728507717
 20
3.8388367259
 30
0.0
 10
5.6885926418
 20
3.8407709285
 30
0.0
 10
5.9024413054
 20
3.8427049752
 30
0.0
 10
6.1123573063
 20
3.8446386532
 30
0.0
 10
6.316339087
 20
3.8465717771
 30
0.0
 10
6.5124417908
 20
3.8485040773
 30
0.0
 10
6.6987952549
 20
3.8504351381
 30
0.0
 10
6.8736224439
 20
3.8523646713
 30
0.0
 10
7.0113409171
 20
3.8540064638
 30
0.0
 10
7.1145131315
 20
3.8553299016
 30
0.0
 10
7.1862009544
 20
3.8562989975
 30
0.0
 10
7.2538429983
 20
3.8572678222
 30
0.0
 10
7.3172777623
 20
3.8582361723
 30
0.0
 10
7.3763539866
 20
3.8592040185
 30
0.0
 10
7.4309308791
 20
3.8601712887
 30
0.0
 10
7.4808780875
 20
3.8611376042
 30
0.0
 10
7.5260765983
 20
3.8621027513
 30
0.0
 10
7.5664186993
 20
3.8630665248
 30
0.0
 10
7.5969564797
 20
3.8638955842
 30
0.0
 10
7.6188872886
 20
3.8645666006
 30
0.0
 10
7.6334370115
 20
3.8650504869
 30
0.0
 10
7.6467080772
 20
3.8655339516
 30
0.0
 10
7.6586934269
 20
3.8660168894
 30
0.0
 10
7.6693862143
 20
3.8664991327
 30
0.0
 10
7.6787796466
 20
3.866980278
 30
0.0
 10
7.686867353
 20
3.8674601189
 30
0.0
 10
7.6927874355
 20
3.8678766768
 30
0.0
 10
7.6968660937
 20
3.8682166525
 30
0.0
 10
7.69943302
 20
3.8684577684
 30
0.0
 10
7.7016709273
 20
3.8686982353
 30
0.0
 10
7.7035795508
 20
3.8689379325
 30
0.0
 10
7.7051592456
 20
3.8691759309
 30
0.0
 10
7.7064095856
 20
3.8694123654
 30
0.0
 10
7.7072445973
 20
3.8696200265
 30
0.0
 10
7.7077431793
 20
3.8697958896
 30
0.0
 10
7.7079363208
 20
3.8698850364
 30
0.0
 10
7.7080171472
 20
3.8699315937
 30
0.0
  0
SPLINE
  5
29F
100
AcDbEntity
  8
0
100
AcDbSpline
 62
7
  6
CONTINUOUS
 70
0
 71
3
 72
52
 73
48
 74
0
 42
0.0000001
 43
0.0000001
 44
0.0000000001
 40
0.0
 40
0.0
 40
0.0
 40
0.0
 40
0.0000249375
 40
0.0000547663
 40
0.0000925181
 40
0.0001397193
 40
0.0002651428
 40
0.0004341322
 40
0.000647777
 40
0.000906589
 40
0.00121084
 40
0.0015606852
 40
0.0023974722
 40
0.0034173444
 40
0.0046203976
 40
0.0060066038
 40
0.0075757979
 40
0.0093274924
 40
0.0112611045
 40
0.0133760354
 40
0.0181474037
 40
0.0236366518
 40
0.0298382041
 40
0.036744231
 40
0.0443463249
 40
0.0526360622
 40
0.0616044811
 40
0.0712405027
 40
0.0815325146
 40
0.0924689004
 40
0.1162243808
 40
0.1423943105
 40
0.170858528
 40
0.2014825804
 40
0.2341252946
 40
0.26863293
 40
0.304845947
 40
0.34259419
 40
0.3817027319
 40
0.4219881825
 40
0.5053354422
 40
0.5910828077
 40
0.6776323741
 40
0.7633712821
 40
0.8467017811
 40
0.9260710217
 40
1.0
 40
1.0
 40
1.0
 40
1.0
 10
3.2717854678
 20
3.6827406058
 30
0.0
 10
3.2717854678
 20
3.6827696915
 30
0.0
 10
3.2718025275
 20
3.6828339169
 30
0.0
 10
3.2718697283
 20
3.6829204191
 30
0.0
 10
3.2719746661
 20
3.6830046528
 30
0.0
 10
3.2721873973
 20
3.6831281164
 30
0.0
 10
3.2725599056
 20
3.6832740017
 30
0.0
 10
3.2731291111
 20
3.6834392235
 30
0.0
 10
3.2738589403
 20
3.6836055703
 30
0.0
 10
3.2747493305
 20
3.6837730469
 30
0.0
 10
3.2758008583
 20
3.6839411285
 30
0.0
 10
3.2775232887
 20
3.6841803205
 30
0.0
 10
3.2800805918
 20
3.6844718494
 30
0.0
 10
3.2836336359
 20
3.6848066179
 30
0.0
 10
3.2878297975
 20
3.6851425736
 30
0.0
 10
3.2926683117
 20
3.68547951
 30
0.0
 10
3.2981480505
 20
3.6858169874
 30
0.0
 10
3.3042672951
 20
3.6861548966
 30
0.0
 10
3.3110239086
 20
3.6864931388
 30
0.0
 10
3.3213001877
 20
3.6869635755
 30
0.0
 10
3.3357227085
 20
3.6875441612
 30
0.0
 10
3.354911434
 20
3.6882177291
 30
0.0
 10
3.3765912124
 20
3.6888923837
 30
0.0
 10
3.4007363141
 20
3.6895680448
 30
0.0
 10
3.4273177911
 20
3.6902444021
 30
0.0
 10
3.4563054147
 20
3.6909212735
 30
0.0
 10
3.4876658768
 20
3.6915984568
 30
0.0
 10
3.5213621694
 20
3.6922759574
 30
0.0
 10
3.5573542076
 20
3.6929537432
 30
0.0
 10
3.6098124794
 20
3.6938835543
 30
0.0
 10
3.6807887044
 20
3.695036859
 30
0.0
 10
3.7722077215
 20
3.696387437
 30
0.0
 10
3.8716386144
 20
3.6977390831
 30
0.0
 10
3.9786196032
 20
3.6990918658
 30
0.0
 10
4.0926497909
 20
3.7004452707
 30
0.0
 10
4.2131990362
 20
3.7017993571
 30
0.0
 10
4.3397034168
 20
3.7031538089
 30
0.0
 10
4.4715743087
 20
3.7045086889
 30
0.0
 10
4.608195282
 20
3.7058638034
 30
0.0
 10
4.7979981377
 20
3.7076916693
 30
0.0
 10
5.042196006
 20
3.7099588965
 30
0.0
 10
5.3403519326
 20
3.7126512871
 30
0.0
 10
5.6412974432
 20
3.7153440766
 30
0.0
 10
5.9394239563
 20
3.718036422
 30
0.0
 10
6.2291754353
 20
3.7207272713
 30
0.0
 10
6.505151926
 20
3.7234155034
 30
0.0
 10
6.683940078
 20
3.7252819507
 30
0.0
 10
6.7701612141
 20
3.7262287992
 30
0.0
  0
SPLINE
  5
2A0
100
AcDbEntity
  8
0
100
AcDbSpline
 62
7
  6
CONTINUOUS
 70
0
 71
3
 72
80
 73
76
 74
0
 42
0.0000001
 43
0.0000001
 44
0.0000000001
 40
0.0
 40
0.0
 40
0.0
 40
0.0
 40
0.000066228
 40
0.000120303
 40
0.0001910913
 40
0.0002793615
 40
0.0003854988
 40
0.0005097186
 40
0.0006521513
 40
0.0009919462
 40
0.0014052894
 40
0.0024532054
 40
0.0037964564
 40
0.0054349797
 40
0.0073682421
 40
0.0095949491
 40
0.0121136485
 40
0.0149228574
 40
0.018021074
 40
0.0214067791
 40
0.0250780943
 40
0.029032549
 40
0.0377807487
 40
0.0476310882
 40
0.0585609603
 40
0.070543047
 40
0.0835494068
 40
0.0975496264
 40
0.1125091757
 40
0.1283930715
 40
0.1451637938
 40
0.1627803722
 40
0.1812014997
 40
0.2202795468
 40
0.2620251872
 40
0.3060399353
 40
0.3519046415
 40
0.3991819559
 40
0.4474208151
 40
0.496161557
 40
0.5449393108
 40
0.5932889866
 40
0.6407497865
 40
0.6868687899
 40
0.7312065348
 40
0.7733405646
 40
0.8128684674
 40
0.8494137682
 40
0.8664581328
 40
0.8826285681
 40
0.8978860732
 40
0.9121953622
 40
0.9255215752
 40
0.9378326481
 40
0.9491003864
 40
0.9592970069
 40
0.9683981398
 40
0.9763832872
 40
0.9799510398
 40
0.9832324063
 40
0.9862257279
 40
0.988929494
 40
0.9913422088
 40
0.9934623989
 40
0.9952886297
 40
0.9968198302
 40
0.9974746944
 40
0.9980557187
 40
0.9985629236
 40
0.9989963737
 40
0.9993562134
 40
0.999642749
 40
0.9998566698
 40
0.9999369361
 40
1.0
 40
1.0
 40
1.0
 40
1.0
 10
7.7082854678
 20
3.7660750745
 30
0.0
 10
7.7082854678
 20
3.7659771181
 30
0.0
 10
7.708135476
 20
3.7658266464
 30
0.0
 10
7.7078947494
 20
3.7656970351
 30
0.0
 10
7.7075996844
 20
3.7655756693
 30
0.0
 10
7.7072267091
 20
3.7654573546
 30
0.0
 10
7.7067704514
 20
3.7653371363
 30
0.0
 10
7.7062323549
 20
3.7652169988
 30
0.0
 10
7.7053516649
 20
3.7650460539
 30
0.0
 10
7.7040432644
 20
3.7648375613
 30
0.0
 10
7.7014018976
 20
3.7644903205
 30
0.0
 10
7.6972739906
 20
3.7640740901
 30
0.0
 10
7.6913326346
 20
3.7635984404
 30
0.0
 10
7.684078433
 20
3.763120355
 30
0.0
 10
7.6755153896
 20
3.7626399716
 30
0.0
 10
7.6656487863
 20
3.7621583789
 30
0.0
 10
7.6544852945
 20
3.7616758559
 30
0.0
 10
7.6420317263
 20
3.7611927079
 30
0.0
 10
7.6282949397
 20
3.7607090789
 30
0.0
 10
7.6132823235
 20
3.760225109
 30
0.0
 10
7.5970026693
 20
3.7597408549
 30
0.0
 10
7.5727934959
 20
3.7590721207
 30
0.0
 10
7.53944605
 20
3.7582441799
 30
0.0
 10
7.4957818207
 20
3.7572793084
 30
0.0
 10
7.4473333924
 20
3.7563133881
 30
0.0
 10
7.394216145
 20
3.7553463751
 30
0.0
 10
7.3365569345
 20
3.7543786799
 30
0.0
 10
7.2744932572
 20
3.7534105027
 30
0.0
 10
7.2081730029
 20
3.7524418059
 30
0.0
 10
7.1377545512
 20
3.7514727876
 30
0.0
 10
7.0634057958
 20
3.7505035443
 30
0.0
 10
6.9853039759
 20
3.7495339892
 30
0.0
 10
6.8742096743
 20
3.7482149726
 30
0.0
 10
6.7274278828
 20
3.7465767907
 30
0.0
 10
6.54279207
 20
3.7446458815
 30
0.0
 10
6.3481177472
 20
3.7427137576
 30
0.0
 10
6.1452612671
 20
3.7407807506
 30
0.0
 10
5.9361567254
 20
3.7388471455
 30
0.0
 10
5.7227981267
 20
3.7369131394
 30
0.0
 10
5.5072201717
 20
3.7349789546
 30
0.0
 10
5.2914783038
 20
3.7330447519
 30
0.0
 10
5.0776296459
 20
3.7311107053
 30
0.0
 10
4.8677136491
 20
3.7291770273
 30
0.0
 10
4.6637318667
 20
3.7272439035
 30
0.0
 10
4.4676291549
 20
3.7253116032
 30
0.0
 10
4.2812756813
 20
3.7233805423
 30
0.0
 10
4.1064484858
 20
3.721451009
 30
0.0
 10
3.9687300109
 20
3.7198092165
 30
0.0
 10
3.8655577974
 20
3.7184857787
 30
0.0
 10
3.793869976
 20
3.7175166828
 30
0.0
 10
3.7262279332
 20
3.7165478581
 30
0.0
 10
3.6627931699
 20
3.7155795081
 30
0.0
 10
3.6037169459
 20
3.7146116619
 30
0.0
 10
3.5491400535
 20
3.7136443916
 30
0.0
 10
3.4991928451
 20
3.7126780761
 30
0.0
 10
3.4539943343
 20
3.7117129291
 30
0.0
 10
3.4136522336
 20
3.7107491555
 30
0.0
 10
3.3831144536
 20
3.7099200961
 30
0.0
 10
3.361183645
 20
3.7092490797
 30
0.0
 10
3.3466339222
 20
3.7087651934
 30
0.0
 10
3.3333628568
 20
3.7082817287
 30
0.0
 10
3.3213775074
 20
3.7077987909
 30
0.0
 10
3.3106847203
 20
3.7073165477
 30
0.0
 10
3.3012912883
 20
3.7068354024
 30
0.0
 10
3.2932035821
 20
3.7063555615
 30
0.0
 10
3.2872834997
 20
3.7059390036
 30
0.0
 10
3.2832048416
 20
3.7055990279
 30
0.0
 10
3.2806379154
 20
3.705357912
 30
0.0
 10
3.2784000081
 20
3.705117445
 30
0.0
 10
3.2764913846
 20
3.7048777479
 30
0.0
 10
3.2749116899
 20
3.7046397495
 30
0.0
 10
3.2736613499
 20
3.7044033149
 30
0.0
 10
3.2728263383
 20
3.7041956539
 30
0.0
 10
3.2723277562
 20
3.7040197908
 30
0.0
 10
3.2721346148
 20
3.703930644
 30
0.0
 10
3.2720537884
 20
3.7038840867
 30
0.0
  0
SPLINE
  5
2A1
100
AcDbEntity
  8
0
100
AcDbSpline
 62
7
  6
CONTINUOUS
 70
0
 71
3
 72
37
 73
33
 74
0
 42
0.0000001
 43
0.0000001
 44
0.0000000001
 40
0.0
 40
0.0
 40
0.0
 40
0.0
 40
0.1110025074
 40
0.2169750739
 40
0.3174811016
 40
0.4121623614
 40
0.5007100774
 40
0.5828264316
 40
0.6582285992
 40
0.7266463631
 40
0.7878511673
 40
0.8156803855
 40
0.8416275376
 40
0.8656723359
 40
0.8877947632
 40
0.9079748357
 40
0.9261932103
 40
0.9424355197
 40
0.9566899316
 40
0.9689448169
 40
0.9743189074
 40
0.9791889299
 40
0.9835538927
 40
0.9874135128
 40
0.9907677208
 40
0.9936166836
 40
0.9959610087
 40
0.9978022279
 40
0.9985353181
 40
0.9991445078
 40
0.9996315477
 40
1.0
 40
1.0
 40
1.0
 40
1.0
 10
6.7701612141
 20
3.7262287992
 30
0.0
 10
6.8048742688
 20
3.726610005
 30
0.0
 10
6.872727235
 20
3.7273702463
 30
0.0
 10
6.9720100799
 20
3.728535683
 30
0.0
 10
7.066188219
 20
3.7297009004
 30
0.0
 10
7.1549164426
 20
3.7308655368
 30
0.0
 10
7.2378929263
 20
3.7320294752
 30
0.0
 10
7.3148394032
 20
3.7331927117
 30
0.0
 10
7.3854896435
 20
3.7343547483
 30
0.0
 10
7.4495990155
 20
3.7355156364
 30
0.0
 10
7.498830816
 20
3.7365101516
 30
0.0
 10
7.5347813082
 20
3.7373130556
 30
0.0
 10
7.5591122926
 20
3.7378957752
 30
0.0
 10
7.5816579833
 20
3.7384781615
 30
0.0
 10
7.6023994277
 20
3.7390601545
 30
0.0
 10
7.6213179423
 20
3.7396416065
 30
0.0
 10
7.6383965643
 20
3.7402224454
 30
0.0
 10
7.6536208381
 20
3.7408023425
 30
0.0
 10
7.6669785971
 20
3.741381067
 30
0.0
 10
7.6769374636
 20
3.7418810201
 30
0.0
 10
7.6839621578
 20
3.7422869763
 30
0.0
 10
7.6885218043
 20
3.742577696
 30
0.0
 10
7.6926067732
 20
3.7428680653
 30
0.0
 10
7.6962163993
 20
3.7431579077
 30
0.0
 10
7.699350226
 20
3.7434470392
 30
0.0
 10
7.702008052
 20
3.7437348203
 30
0.0
 10
7.7041894649
 20
3.7440211272
 30
0.0
 10
7.7057078837
 20
3.7442717503
 30
0.0
 10
7.7066816116
 20
3.7444800914
 30
0.0
 10
7.7072358014
 20
3.7446235336
 30
0.0
 10
7.7076713371
 20
3.7447659152
 30
0.0
 10
7.7079173727
 20
3.7448740678
 30
0.0
 10
7.7080172168
 20
3.7449315937
 30
0.0
  0
SPLINE
  5
2A2
100
AcDbEntity
  8
0
100
AcDbSpline
 62
7
  6
CONTINUOUS
 70
0
 71
3
 72
47
 73
43
 74
0
 42
0.0000001
 43
0.0000001
 44
0.0000000001
 40
0.0
 40
0.0
 40
0.0
 40
0.0
 40
0.0733912529
 40
0.1521567625
 40
0.2348490312
 40
0.319949259
 40
0.4058938789
 40
0.4911040215
 40
0.5740142378
 40
0.6141282389
 40
0.653101375
 40
0.6907534828
 40
0.726912532
 40
0.7614110664
 40
0.7940917832
 40
0.8248030324
 40
0.853405121
 40
0.879765012
 40
0.9037631874
 40
0.9252877014
 40
0.9350916024
 40
0.9442414316
 40
0.9527259522
 40
0.96053565
 40
0.9676622478
 40
0.974097508
 40
0.9798333297
 40
0.9848633933
 40
0.9891827818
 40
0.9910744763
 40
0.9927867196
 40
0.9943189442
 40
0.9956707101
 40
0.9968418881
 40
0.9978324622
 40
0.9986425473
 40
0.9989800267
 40
0.9992725788
 40
0.9995203742
 40
0.999723713
 40
0.99988317
 40
1.0
 40
1.0
 40
1.0
 40
1.0
 10
6.7701612141
 20
3.6220632679
 30
0.0
 10
6.6845776217
 20
3.6211234207
 30
0.0
 10
6.5071423153
 20
3.6192704123
 30
0.0
 10
6.2332747785
 20
3.6166009149
 30
0.0
 10
5.9457516658
 20
3.613928854
 30
0.0
 10
5.6498559547
 20
3.6112553163
 30
0.0
 10
5.3510237897
 20
3.6085813204
 30
0.0
 10
5.0547457117
 20
3.6059076813
 30
0.0
 10
4.811913585
 20
3.6036568884
 30
0.0
 10
4.6230012609
 20
3.6018425351
 30
0.0
 10
4.4868668019
 20
3.6004969746
 30
0.0
 10
4.3553448309
 20
3.5991516349
 30
0.0
 10
4.2290414114
 20
3.5978067
 30
0.0
 10
4.1085359584
 20
3.5964621109
 30
0.0
 10
3.9943841279
 20
3.5951181575
 30
0.0
 10
3.8871092184
 20
3.5937748007
 30
0.0
 10
3.7872062476
 20
3.5924324637
 30
0.0
 10
3.6951327938
 20
3.5910912404
 30
0.0
 10
3.6113141242
 20
3.589751699
 30
0.0
 10
3.5468024956
 20
3.5886044646
 30
0.0
 10
3.499605912
 20
3.5876782476
 30
0.0
 10
3.4676145273
 20
3.587005713
 30
0.0
 10
3.4379493224
 20
3.5863334981
 30
0.0
 10
3.41064425
 20
3.5856616851
 30
0.0
 10
3.3857297901
 20
3.5849904928
 30
0.0
 10
3.3632348195
 20
3.5843201255
 30
0.0
 10
3.3431859823
 20
3.583650874
 30
0.0
 10
3.3256061775
 20
3.5829829671
 30
0.0
 10
3.3125093436
 20
3.5824058636
 30
0.0
 10
3.3032810369
 20
3.581937123
 30
0.0
 10
3.2973006234
 20
3.5816016193
 30
0.0
 10
3.2919509355
 20
3.5812665842
 30
0.0
 10
3.2872335867
 20
3.5809320969
 30
0.0
 10
3.2831496008
 20
3.5805986278
 30
0.0
 10
3.2796996938
 20
3.5802663788
 30
0.0
 10
3.277222705
 20
3.5799769051
 30
0.0
 10
3.2755600649
 20
3.5797391936
 30
0.0
 10
3.2745498957
 20
3.5795723851
 30
0.0
 10
3.2736985771
 20
3.5794062508
 30
0.0
 10
3.2730053963
 20
3.579241227
 30
0.0
 10
3.2724704598
 20
3.5790776549
 30
0.0
 10
3.2721717735
 20
3.5789521044
 30
0.0
 10
3.2720537192
 20
3.5788840867
 30
0.0
  0
SPLINE
  5
2A3
100
AcDbEntity
  8
0
100
AcDbSpline
 62
7
  6
CONTINUOUS
 70
0
 71
3
 72
41
 73
37
 74
0
 42
0.0000001
 43
0.0000001
 44
0.0000000001
 40
0.0
 40
0.0
 40
0.0
 40
0.0
 40
0.0001713299
 40
0.0002855538
 40
0.0004254381
 40
0.0007910393
 40
0.0012787522
 40
0.001892502
 40
0.0026341801
 40
0.0035048138
 40
0.0045050069
 40
0.0068953618
 40
0.0098069659
 40
0.0132404375
 40
0.0171959365
 40
0.0216733782
 40
0.0266724243
 40
0.0382305232
 40
0.0518589488
 40
0.0675456138
 40
0.0852781799
 40
0.1050432893
 40
0.1268220963
 40
0.1505936391
 40
0.1763369113
 40
0.2040308484
 40
0.233651774
 40
0.265171431
 40
0.3337919867
 40
0.4096556773
 40
0.4924830904
 40
0.5819777013
 40
0.6778283705
 40
0.7797113111
 40
0.8872542231
 40
1.0
 40
1.0
 40
1.0
 40
1.0
 10
7.7082854678
 20
3.6410750745
 30
0.0
 10
7.7082854678
 20
3.6410214683
 30
0.0
 10
7.7082400046
 20
3.6409341257
 30
0.0
 10
7.7081418378
 20
3.6408453448
 30
0.0
 10
7.7079798605
 20
3.6407368979
 30
0.0
 10
7.7076950926
 20
3.6406094397
 30
0.0
 10
7.707259266
 20
3.6404645268
 30
0.0
 10
7.7067008842
 20
3.6403190105
 30
0.0
 10
7.7060198529
 20
3.6401725021
 30
0.0
 10
7.7052156574
 20
3.6400255219
 30
0.0
 10
7.7038988179
 20
3.6398164322
 30
0.0
 10
7.7019431948
 20
3.6395615324
 30
0.0
 10
7.6992256305
 20
3.6392688084
 30
0.0
 10
7.6960160566
 20
3.6389750485
 30
0.0
 10
7.692314904
 20
3.6386804281
 30
0.0
 10
7.6881225918
 20
3.6383852686
 30
0.0
 10
7.6815542342
 20
3.6379709504
 30
0.0
 10
7.6721232132
 20
3.6374622036
 30
0.0
 10
7.659348098
 20
3.6368748222
 30
0.0
 10
7.6446393907
 20
3.636286002
 30
0.0
 10
7.6280093284
 20
3.6356959916
 30
0.0
 10
7.6094720945
 20
3.6351052608
 30
0.0
 10
7.5890445235
 20
3.6345139119
 30
0.0
 10
7.5667457864
 20
3.6339220924
 30
0.0
 10
7.542595716
 20
3.6333299106
 30
0.0
 10
7.5166149696
 20
3.6327374853
 30
0.0
 10
7.4888264567
 20
3.6321448711
 30
0.0
 10
7.4482345304
 20
3.6313312292
 30
0.0
 10
7.39317509
 20
3.6303217992
 30
0.0
 10
7.3220628873
 20
3.6291408226
 30
0.0
 10
7.2444187427
 20
3.6279586715
 30
0.0
 10
7.1605203571
 20
3.6267756899
 30
0.0
 10
7.0706592781
 20
3.625591992
 30
0.0
 10
6.9751507398
 20
3.6244076556
 30
0.0
 10
6.8743556274
 20
3.6232230803
 30
0.0
 10
6.8054353385
 20
3.6224506352
 30
0.0
 10
6.7701612141
 20
3.6220632679
 30
0.0
  0
SPLINE
  5
2A4
100
AcDbEntity
  8
0
100
AcDbSpline
 62
7
  6
CONTINUOUS
 70
0
 71
3
 72
80
 73
76
 74
0
 42
0.0000001
 43
0.0000001
 44
0.0000000001
 40
0.0
 40
0.0
 40
0.0
 40
0.0
 40
0.000066228
 40
0.000120303
 40
0.0001910913
 40
0.0002793615
 40
0.0003854988
 40
0.0005097186
 40
0.0006521513
 40
0.0009919462
 40
0.0014052894
 40
0.0024532054
 40
0.0037964564
 40
0.0054349796
 40
0.007368242
 40
0.0095949488
 40
0.0121136481
 40
0.0149228569
 40
0.0180210735
 40
0.0214067787
 40
0.0250780939
 40
0.0290325487
 40
0.0377807487
 40
0.0476310885
 40
0.0585609611
 40
0.0705430481
 40
0.0835494082
 40
0.097549628
 40
0.1125091774
 40
0.1283930731
 40
0.1451637953
 40
0.1627803735
 40
0.1812015005
 40
0.2202795466
 40
0.2620251877
 40
0.3060399372
 40
0.351904644
 40
0.3991819583
 40
0.4474208166
 40
0.4961615568
 40
0.5449393091
 40
0.593288985
 40
0.640749786
 40
0.6868687896
 40
0.731206534
 40
0.7733405626
 40
0.8128684639
 40
0.8494137638
 40
0.8664581284
 40
0.8826285638
 40
0.8978860694
 40
0.9121953589
 40
0.9255215722
 40
0.9378326457
 40
0.9491003845
 40
0.9592970055
 40
0.9683981389
 40
0.976383287
 40
0.9799510397
 40
0.9832324064
 40
0.9862257279
 40
0.9889294941
 40
0.9913422089
 40
0.9934623989
 40
0.9952886297
 40
0.9968198302
 40
0.9974746944
 40
0.9980557186
 40
0.9985629236
 40
0.9989963737
 40
0.9993562134
 40
0.999642749
 40
0.9998566698
 40
0.9999369361
 40
1.0
 40
1.0
 40
1.0
 40
1.0
 10
3.2717854678
 20
3.5577406058
 30
0.0
 10
3.2717854678
 20
3.5578385623
 30
0.0
 10
3.2719354596
 20
3.557989034
 30
0.0
 10
3.2721761862
 20
3.5581186452
 30
0.0
 10
3.2724712512
 20
3.5582400111
 30
0.0
 10
3.2728442265
 20
3.5583583258
 30
0.0
 10
3.2733004843
 20
3.558478544
 30
0.0
 10
3.2738385807
 20
3.5585986816
 30
0.0
 10
3.2747192707
 20
3.5587696264
 30
0.0
 10
3.2760276713
 20
3.5589781191
 30
0.0
 10
3.2786690381
 20
3.5593253598
 30
0.0
 10
3.282796945
 20
3.5597415903
 30
0.0
 10
3.2887383009
 20
3.56021724
 30
0.0
 10
3.2959925022
 20
3.5606953253
 30
0.0
 10
3.3045555453
 20
3.5611757088
 30
0.0
 10
3.3144221481
 20
3.5616573015
 30
0.0
 10
3.3255856394
 20
3.5621398245
 30
0.0
 10
3.3380392072
 20
3.5626229724
 30
0.0
 10
3.3517759938
 20
3.5631066014
 30
0.0
 10
3.3667886101
 20
3.5635905713
 30
0.0
 10
3.3830682647
 20
3.5640748254
 30
0.0
 10
3.4072774388
 20
3.5647435596
 30
0.0
 10
3.4406248857
 20
3.5655715004
 30
0.0
 10
3.4842891165
 20
3.566536372
 30
0.0
 10
3.5327375464
 20
3.5675022924
 30
0.0
 10
3.5858547953
 20
3.5684693053
 30
0.0
 10
3.6435140072
 20
3.5694370005
 30
0.0
 10
3.7055776854
 20
3.5704051778
 30
0.0
 10
3.7718979401
 20
3.5713738746
 30
0.0
 10
3.8423163917
 20
3.5723428929
 30
0.0
 10
3.9166651464
 20
3.5733121361
 30
0.0
 10
3.9947669649
 20
3.5742816913
 30
0.0
 10
4.1058612639
 20
3.5756007078
 30
0.0
 10
4.2526430544
 20
3.5772388896
 30
0.0
 10
4.4372788689
 20
3.5791697989
 30
0.0
 10
4.6319531957
 20
3.5811019228
 30
0.0
 10
4.8348096785
 20
3.5830349298
 30
0.0
 10
5.0439142195
 20
3.5849685349
 30
0.0
 10
5.2572728142
 20
3.586902541
 30
0.0
 10
5.4728507633
 20
3.5888367258
 30
0.0
 10
5.6885926267
 20
3.5907709284
 30
0.0
 10
5.9024412843
 20
3.592704975
 30
0.0
 10
6.1123572831
 20
3.594638653
 30
0.0
 10
6.3163390666
 20
3.5965717769
 30
0.0
 10
6.5124417762
 20
3.5985040772
 30
0.0
 10
6.698795245
 20
3.600435138
 30
0.0
 10
6.8736224352
 20
3.6023646712
 30
0.0
 10
7.0113409065
 20
3.6040064636
 30
0.0
 10
7.1145131189
 20
3.6053299014
 30
0.0
 10
7.1862009412
 20
3.6062989973
 30
0.0
 10
7.2538429854
 20
3.607267822
 30
0.0
 10
7.3172777506
 20
3.6082361721
 30
0.0
 10
7.3763539767
 20
3.6092040183
 30
0.0
 10
7.4309308712
 20
3.6101712885
 30
0.0
 10
7.480878082
 20
3.611137604
 30
0.0
 10
7.5260765952
 20
3.6121027512
 30
0.0
 10
7.5664186982
 20
3.6130665248
 30
0.0
 10
7.5969564802
 20
3.6138955843
 30
0.0
 10
7.61888729
 20
3.6145666007
 30
0.0
 10
7.6334370133
 20
3.615050487
 30
0.0
 10
7.646708079
 20
3.6155339516
 30
0.0
 10
7.6586934284
 20
3.6160168895
 30
0.0
 10
7.6693862154
 20
3.6164991327
 30
0.0
 10
7.6787796473
 20
3.616980278
 30
0.0
 10
7.6868673534
 20
3.6174601189
 30
0.0
 10
7.6927874357
 20
3.6178766768
 30
0.0
 10
7.6968660938
 20
3.6182166525
 30
0.0
 10
7.6994330201
 20
3.6184577684
 30
0.0
 10
7.7016709274
 20
3.6186982353
 30
0.0
 10
7.7035795508
 20
3.6189379325
 30
0.0
 10
7.7051592456
 20
3.6191759309
 30
0.0
 10
7.7064095856
 20
3.6194123654
 30
0.0
 10
7.7072445973
 20
3.6196200265
 30
0.0
 10
7.7077431793
 20
3.6197958896
 30
0.0
 10
7.7079363208
 20
3.6198850364
 30
0.0
 10
7.7080171472
 20
3.6199315937
 30
0.0
  0
SPLINE
  5
2A5
100
AcDbEntity
  8
0
100
AcDbSpline
 62
7
  6
CONTINUOUS
 70
0
 71
3
 72
80
 73
76
 74
0
 42
0.0000001
 43
0.0000001
 44
0.0000000001
 40
0.0
 40
0.0
 40
0.0
 40
0.0
 40
0.000066228
 40
0.000120303
 40
0.0001910913
 40
0.0002793615
 40
0.0003854988
 40
0.0005097186
 40
0.0006521513
 40
0.0009919462
 40
0.0014052894
 40
0.0024532053
 40
0.0037964564
 40
0.0054349796
 40
0.007368242
 40
0.0095949488
 40
0.0121136481
 40
0.014922857
 40
0.0180210736
 40
0.0214067788
 40
0.0250780942
 40
0.029032549
 40
0.0377807492
 40
0.0476310892
 40
0.058560962
 40
0.0705430492
 40
0.0835494094
 40
0.0975496293
 40
0.1125091789
 40
0.1283930744
 40
0.1451637965
 40
0.1627803746
 40
0.1812015016
 40
0.2202795484
 40
0.2620251902
 40
0.3060399401
 40
0.3519046472
 40
0.3991819614
 40
0.4474208192
 40
0.4961615588
 40
0.5449393116
 40
0.5932889881
 40
0.6407497892
 40
0.6868687927
 40
0.7312065366
 40
0.7733405647
 40
0.8128684652
 40
0.8494137651
 40
0.8664581298
 40
0.8826285653
 40
0.8978860708
 40
0.9121953602
 40
0.9255215735
 40
0.9378326467
 40
0.9491003854
 40
0.9592970062
 40
0.9683981394
 40
0.9763832872
 40
0.9799510399
 40
0.9832324065
 40
0.986225728
 40
0.9889294942
 40
0.9913422089
 40
0.9934623989
 40
0.9952886297
 40
0.9968198301
 40
0.9974746943
 40
0.9980557186
 40
0.9985629235
 40
0.9989963737
 40
0.9993562134
 40
0.9996427489
 40
0.9998566698
 40
0.9999369361
 40
1.0
 40
1.0
 40
1.0
 40
1.0
 10
7.7082854678
 20
3.5160750745
 30
0.0
 10
7.7082854678
 20
3.5159771181
 30
0.0
 10
7.708135476
 20
3.5158266464
 30
0.0
 10
7.7078947494
 20
3.5156970351
 30
0.0
 10
7.7075996844
 20
3.5155756693
 30
0.0
 10
7.7072267091
 20
3.5154573546
 30
0.0
 10
7.7067704514
 20
3.5153371363
 30
0.0
 10
7.7062323549
 20
3.5152169988
 30
0.0
 10
7.7053516649
 20
3.5150460539
 30
0.0
 10
7.7040432644
 20
3.5148375613
 30
0.0
 10
7.7014018976
 20
3.5144903205
 30
0.0
 10
7.6972739907
 20
3.5140740901
 30
0.0
 10
7.6913326348
 20
3.5135984404
 30
0.0
 10
7.6840784335
 20
3.513120355
 30
0.0
 10
7.6755153904
 20
3.5126399716
 30
0.0
 10
7.6656487875
 20
3.5121583789
 30
0.0
 10
7.6544852961
 20
3.5116758559
 30
0.0
 10
7.6420317281
 20
3.511192708
 30
0.0
 10
7.6282949414
 20
3.510709079
 30
0.0
 10
7.6132823247
 20
3.5102251091
 30
0.0
 10
7.5970026698
 20
3.5097408549
 30
0.0
 10
7.5727934951
 20
3.5090721207
 30
0.0
 10
7.5394460475
 20
3.5082441799
 30
0.0
 10
7.4957818159
 20
3.5072793083
 30
0.0
 10
7.4473333852
 20
3.5063133879
 30
0.0
 10
7.3942161356
 20
3.505346375
 30
0.0
 10
7.3365569231
 20
3.5043786798
 30
0.0
 10
7.2744932444
 20
3.5034105025
 30
0.0
 10
7.2081729895
 20
3.5024418057
 30
0.0
 10
7.1377545381
 20
3.5014727874
 30
0.0
 10
7.0634057839
 20
3.5005035442
 30
0.0
 10
6.9853039656
 20
3.499533989
 30
0.0
 10
6.8742096657
 20
3.4982149725
 30
0.0
 10
6.7274278731
 20
3.4965767906
 30
0.0
 10
6.542792056
 20
3.4946458814
 30
0.0
 10
6.3481177272
 20
3.4927137574
 30
0.0
 10
6.1452612435
 20
3.4907807504
 30
0.0
 10
5.936156703
 20
3.4888471453
 30
0.0
 10
5.72279811
 20
3.4869131393
 30
0.0
 10
5.5072201618
 20
3.4849789545
 30
0.0
 10
5.2914782976
 20
3.4830447519
 30
0.0
 10
5.0776296383
 20
3.4811107052
 30
0.0
 10
4.8677136386
 20
3.4791770272
 30
0.0
 10
4.6637318558
 20
3.4772439034
 30
0.0
 10
4.467629148
 20
3.4753116031
 30
0.0
 10
4.2812756816
 20
3.4733805423
 30
0.0
 10
4.1064484936
 20
3.4714510091
 30
0.0
 10
3.9687300232
 20
3.4698092167
 30
0.0
 10
3.8655578106
 20
3.4684857789
 30
0.0
 10
3.793869988
 20
3.467516683
 30
0.0
 10
3.7262279438
 20
3.4665478583
 30
0.0
 10
3.6627931791
 20
3.4655795082
 30
0.0
 10
3.6037169536
 20
3.464611662
 30
0.0
 10
3.5491400597
 20
3.4636443918
 30
0.0
 10
3.4991928497
 20
3.4626780762
 30
0.0
 10
3.4539943373
 20
3.4617129291
 30
0.0
 10
3.4136522352
 20
3.4607491555
 30
0.0
 10
3.3831144539
 20
3.4599200961
 30
0.0
 10
3.3611836446
 20
3.4592490797
 30
0.0
 10
3.3466339216
 20
3.4587651934
 30
0.0
 10
3.3333628562
 20
3.4582817287
 30
0.0
 10
3.3213775069
 20
3.4577987909
 30
0.0
 10
3.3106847201
 20
3.4573165477
 30
0.0
 10
3.3012912883
 20
3.4568354024
 30
0.0
 10
3.2932035823
 20
3.4563555615
 30
0.0
 10
3.2872835
 20
3.4559390036
 30
0.0
 10
3.2832048419
 20
3.4555990279
 30
0.0
 10
3.2806379156
 20
3.455357912
 30
0.0
 10
3.2784000083
 20
3.455117445
 30
0.0
 10
3.2764913848
 20
3.4548777479
 30
0.0
 10
3.2749116901
 20
3.4546397495
 30
0.0
 10
3.27366135
 20
3.4544033149
 30
0.0
 10
3.2728263383
 20
3.4541956539
 30
0.0
 10
3.2723277563
 20
3.4540197908
 30
0.0
 10
3.2721346148
 20
3.453930644
 30
0.0
 10
3.2720537884
 20
3.4538840867
 30
0.0
  0
SPLINE
  5
2A6
100
AcDbEntity
  8
0
100
AcDbSpline
 62
7
  6
CONTINUOUS
 70
0
 71
3
 72
80
 73
76
 74
0
 42
0.0000001
 43
0.0000001
 44
0.0000000001
 40
0.0
 40
0.0
 40
0.0
 40
0.0
 40
0.000066228
 40
0.000120303
 40
0.0001910913
 40
0.0002793615
 40
0.0003854988
 40
0.0005097186
 40
0.0006521513
 40
0.0009919462
 40
0.0014052894
 40
0.0024532053
 40
0.0037964564
 40
0.0054349796
 40
0.007368242
 40
0.0095949489
 40
0.0121136482
 40
0.0149228571
 40
0.0180210736
 40
0.0214067788
 40
0.0250780939
 40
0.0290325485
 40
0.0377807481
 40
0.0476310877
 40
0.0585609598
 40
0.0705430465
 40
0.0835494063
 40
0.0975496259
 40
0.1125091751
 40
0.1283930707
 40
0.1451637929
 40
0.1627803711
 40
0.1812014982
 40
0.2202795444
 40
0.2620251845
 40
0.3060399326
 40
0.3519046388
 40
0.3991819528
 40
0.4474208115
 40
0.4961615525
 40
0.5449393053
 40
0.5932889807
 40
0.640749781
 40
0.6868687845
 40
0.7312065292
 40
0.7733405587
 40
0.8128684613
 40
0.8494137618
 40
0.8664581265
 40
0.8826285617
 40
0.8978860672
 40
0.9121953568
 40
0.9255215702
 40
0.9378326439
 40
0.949100383
 40
0.9592970041
 40
0.9683981379
 40
0.9763832863
 40
0.9799510391
 40
0.9832324059
 40
0.9862257276
 40
0.9889294938
 40
0.9913422088
 40
0.9934623989
 40
0.9952886298
 40
0.9968198302
 40
0.9974746944
 40
0.9980557187
 40
0.9985629236
 40
0.9989963737
 40
0.9993562134
 40
0.999642749
 40
0.9998566698
 40
0.9999369361
 40
1.0
 40
1.0
 40
1.0
 40
1.0
 10
3.2717854678
 20
3.4327406058
 30
0.0
 10
3.2717854678
 20
3.4328385623
 30
0.0
 10
3.2719354596
 20
3.432989034
 30
0.0
 10
3.2721761862
 20
3.4331186452
 30
0.0
 10
3.2724712512
 20
3.4332400111
 30
0.0
 10
3.2728442265
 20
3.4333583258
 30
0.0
 10
3.2733004842
 20
3.433478544
 30
0.0
 10
3.2738385806
 20
3.4335986816
 30
0.0
 10
3.2747192706
 20
3.4337696264
 30
0.0
 10
3.2760276712
 20
3.4339781191
 30
0.0
 10
3.2786690379
 20
3.4343253598
 30
0.0
 10
3.2827969449
 20
3.4347415903
 30
0.0
 10
3.2887383009
 20
3.43521724
 30
0.0
 10
3.2959925023
 20
3.4356953253
 30
0.0
 10
3.3045555455
 20
3.4361757088
 30
0.0
 10
3.3144221485
 20
3.4366573015
 30
0.0
 10
3.32558564
 20
3.4371398245
 30
0.0
 10
3.3380392079
 20
3.4376229724
 30
0.0
 10
3.3517759944
 20
3.4381066014
 30
0.0
 10
3.3667886104
 20
3.4385905713
 30
0.0
 10
3.3830682644
 20
3.4390748254
 30
0.0
 10
3.4072774376
 20
3.4397435596
 30
0.0
 10
3.4406248833
 20
3.4405715004
 30
0.0
 10
3.4842891126
 20
3.4415363719
 30
0.0
 10
3.5327375409
 20
3.4425022922
 30
0.0
 10
3.5858547884
 20
3.4434693052
 30
0.0
 10
3.6435139989
 20
3.4444370004
 30
0.0
 10
3.705577676
 20
3.4454051776
 30
0.0
 10
3.7718979299
 20
3.4463738745
 30
0.0
 10
3.8423163811
 20
3.4473428927
 30
0.0
 10
3.9166651356
 20
3.448312136
 30
0.0
 10
3.9947669544
 20
3.4492816911
 30
0.0
 10
4.1058612537
 20
3.4506007077
 30
0.0
 10
4.252643043
 20
3.4522388895
 30
0.0
 10
4.4372788542
 20
3.4541697987
 30
0.0
 10
4.6319531765
 20
3.4561019226
 30
0.0
 10
4.834809656
 20
3.4580349296
 30
0.0
 10
5.0439141962
 20
3.4599685347
 30
0.0
 10
5.2572727924
 20
3.4619025408
 30
0.0
 10
5.4728507438
 20
3.4638367256
 30
0.0
 10
5.6885926083
 20
3.4657709282
 30
0.0
 10
5.9024412647
 20
3.4677049748
 30
0.0
 10
6.1123572617
 20
3.4696386528
 30
0.0
 10
6.3163390446
 20
3.4715717767
 30
0.0
 10
6.5124417557
 20
3.473504077
 30
0.0
 10
6.6987952282
 20
3.4754351378
 30
0.0
 10
6.8736224225
 20
3.4773646711
 30
0.0
 10
7.0113408968
 20
3.4790064635
 30
0.0
 10
7.1145131099
 20
3.4803299013
 30
0.0
 10
7.186200932
 20
3.4812989972
 30
0.0
 10
7.2538429762
 20
3.4822678219
 30
0.0
 10
7.3172777415
 20
3.4832361719
 30
0.0
 10
7.376353968
 20
3.4842040182
 30
0.0
 10
7.4309308633
 20
3.4851712884
 30
0.0
 10
7.4808780751
 20
3.4861376039
 30
0.0
 10
7.5260765894
 20
3.4871027511
 30
0.0
 10
7.5664186937
 20
3.4880665247
 30
0.0
 10
7.5969564768
 20
3.4888955842
 30
0.0
 10
7.6188872874
 20
3.4895666006
 30
0.0
 10
7.6334370112
 20
3.4900504869
 30
0.0
 10
7.6467080774
 20
3.4905339516
 30
0.0
 10
7.6586934273
 20
3.4910168894
 30
0.0
 10
7.6693862148
 20
3.4914991327
 30
0.0
 10
7.6787796471
 20
3.491980278
 30
0.0
 10
7.6868673535
 20
3.4924601189
 30
0.0
 10
7.692787436
 20
3.4928766768
 30
0.0
 10
7.6968660942
 20
3.4932166525
 30
0.0
 10
7.6994330204
 20
3.4934577684
 30
0.0
 10
7.7016709277
 20
3.4936982353
 30
0.0
 10
7.7035795511
 20
3.4939379325
 30
0.0
 10
7.7051592458
 20
3.4941759309
 30
0.0
 10
7.7064095858
 20
3.4944123654
 30
0.0
 10
7.7072445974
 20
3.4946200265
 30
0.0
 10
7.7077431794
 20
3.4947958896
 30
0.0
 10
7.7079363209
 20
3.4948850364
 30
0.0
 10
7.7080171472
 20
3.4949315937
 30
0.0
  0
SPLINE
  5
2A7
100
AcDbEntity
  8
0
100
AcDbSpline
 62
7
  6
CONTINUOUS
 70
0
 71
3
 72
28
 73
24
 74
0
 42
0.0000001
 43
0.0000001
 44
0.0000000001
 40
0.0
 40
0.0
 40
0.0
 40
0.0
 40
0.0016996963
 40
0.0031162907
 40
0.0049799923
 40
0.0073096857
 40
0.0101147349
 40
0.0134003348
 40
0.0171696012
 40
0.0261660167
 40
0.0371134594
 40
0.0648742039
 40
0.1004626144
 40
0.1438734399
 40
0.1950837253
 40
0.254059964
 40
0.3207672345
 40
0.3951698758
 40
0.4772314892
 40
0.566898542
 40
0.6640912005
 40
0.7687272398
 40
1.0
 40
1.0
 40
1.0
 40
1.0
 10
3.2717854678
 20
3.3077406058
 30
0.0
 10
3.2717854678
 20
3.3078450666
 30
0.0
 10
3.2719538808
 20
3.3080029893
 30
0.0
 10
3.2722162236
 20
3.3081375313
 30
0.0
 10
3.2725414778
 20
3.3082649786
 30
0.0
 10
3.2729520326
 20
3.3083890248
 30
0.0
 10
3.2734545907
 20
3.3085152029
 30
0.0
 10
3.2740472322
 20
3.3086412726
 30
0.0
 10
3.2750174228
 20
3.3088207165
 30
0.0
 10
3.2764585591
 20
3.309039535
 30
0.0
 10
3.2793678693
 20
3.3094039986
 30
0.0
 10
3.2839138341
 20
3.3098408124
 30
0.0
 10
3.2904562651
 20
3.3103399665
 30
0.0
 10
3.2984432208
 20
3.3108415961
 30
0.0
 10
3.3078696924
 20
3.3113457171
 30
0.0
 10
3.3187296376
 20
3.311851117
 30
0.0
 10
3.3310162437
 20
3.3123575268
 30
0.0
 10
3.3447226862
 20
3.3128646455
 30
0.0
 10
3.3598410509
 20
3.3133722934
 30
0.0
 10
3.3763607609
 20
3.313880324
 30
0.0
 10
3.3942684533
 20
3.3143886881
 30
0.0
 10
3.4208769821
 20
3.3150904029
 30
0.0
 10
3.4415156767
 20
3.3155797599
 30
0.0
 10
3.4557257595
 20
3.3158994014
 30
0.0
  0
SPLINE
  5
2A8
100
AcDbEntity
  8
0
100
AcDbSpline
 62
7
  6
CONTINUOUS
 70
0
 71
3
 72
80
 73
76
 74
0
 42
0.0000001
 43
0.0000001
 44
0.0000000001
 40
0.0
 40
0.0
 40
0.0
 40
0.0
 40
0.000066228
 40
0.000120303
 40
0.0001910913
 40
0.0002793615
 40
0.0003854988
 40
0.0005097186
 40
0.0006521512
 40
0.0009919461
 40
0.0014052893
 40
0.0024532053
 40
0.0037964563
 40
0.0054349795
 40
0.007368242
 40
0.009594949
 40
0.0121136484
 40
0.0149228574
 40
0.0180210741
 40
0.0214067794
 40
0.0250780949
 40
0.0290325499
 40
0.0377807505
 40
0.0476310907
 40
0.0585609637
 40
0.0705430511
 40
0.0835494113
 40
0.0975496313
 40
0.1125091809
 40
0.1283930764
 40
0.1451637984
 40
0.1627803766
 40
0.181201504
 40
0.2202795521
 40
0.2620251948
 40
0.306039945
 40
0.3519046521
 40
0.3991819656
 40
0.4474208229
 40
0.4961615627
 40
0.5449393163
 40
0.5932889933
 40
0.6407497942
 40
0.6868687971
 40
0.73120654
 40
0.7733405668
 40
0.8128684673
 40
0.8494137674
 40
0.8664581321
 40
0.8826285676
 40
0.8978860729
 40
0.912195362
 40
0.9255215751
 40
0.937832648
 40
0.9491003862
 40
0.9592970067
 40
0.9683981396
 40
0.9763832872
 40
0.9799510397
 40
0.9832324063
 40
0.9862257278
 40
0.988929494
 40
0.9913422088
 40
0.9934623989
 40
0.9952886297
 40
0.9968198302
 40
0.9974746943
 40
0.9980557186
 40
0.9985629236
 40
0.9989963737
 40
0.9993562134
 40
0.999642749
 40
0.9998566698
 40
0.9999369361
 40
1.0
 40
1.0
 40
1.0
 40
1.0
 10
7.7082854678
 20
3.3910750745
 30
0.0
 10
7.7082854678
 20
3.3909771181
 30
0.0
 10
7.708135476
 20
3.3908266464
 30
0.0
 10
7.7078947494
 20
3.3906970351
 30
0.0
 10
7.7075996844
 20
3.3905756693
 30
0.0
 10
7.7072267092
 20
3.3904573546
 30
0.0
 10
7.7067704515
 20
3.3903371363
 30
0.0
 10
7.7062323551
 20
3.3902169988
 30
0.0
 10
7.7053516651
 20
3.3900460539
 30
0.0
 10
7.7040432646
 20
3.3898375613
 30
0.0
 10
7.701401898
 20
3.3894903205
 30
0.0
 10
7.6972739911
 20
3.3890740901
 30
0.0
 10
7.6913326351
 20
3.3885984404
 30
0.0
 10
7.6840784336
 20
3.388120355
 30
0.0
 10
7.6755153901
 20
3.3876399716
 30
0.0
 10
7.6656487868
 20
3.3871583789
 30
0.0
 10
7.6544852949
 20
3.3866758559
 30
0.0
 10
7.6420317264
 20
3.3861927079
 30
0.0
 10
7.6282949392
 20
3.3857090789
 30
0.0
 10
7.613282322
 20
3.385225109
 30
0.0
 10
7.5970026665
 20
3.3847408548
 30
0.0
 10
7.5727934909
 20
3.3840721206
 30
0.0
 10
7.5394460422
 20
3.3832441798
 30
0.0
 10
7.4957818095
 20
3.3822793082
 30
0.0
 10
7.4473333778
 20
3.3813133878
 30
0.0
 10
7.3942161273
 20
3.3803463748
 30
0.0
 10
7.3365569144
 20
3.3793786796
 30
0.0
 10
7.2744932355
 20
3.3784105024
 30
0.0
 10
7.2081729806
 20
3.3774418056
 30
0.0
 10
7.1377545294
 20
3.3764727873
 30
0.0
 10
7.0634057753
 20
3.3755035441
 30
0.0
 10
6.9853039564
 20
3.3745339889
 30
0.0
 10
6.8742096538
 20
3.3732149724
 30
0.0
 10
6.7274278575
 20
3.3715767905
 30
0.0
 10
6.5427920366
 20
3.3696458812
 30
0.0
 10
6.348117706
 20
3.3677137572
 30
0.0
 10
6.1452612227
 20
3.3657807502
 30
0.0
 10
5.936156684
 20
3.3638471451
 30
0.0
 10
5.7227980925
 20
3.3619131391
 30
0.0
 10
5.5072201437
 20
3.3599789543
 30
0.0
 10
5.2914782772
 20
3.3580447517
 30
0.0
 10
5.0776296163
 20
3.356110705
 30
0.0
 10
4.867713617
 20
3.354177027
 30
0.0
 10
4.6637318368
 20
3.3522439032
 30
0.0
 10
4.4676291332
 20
3.3503116029
 30
0.0
 10
4.2812756704
 20
3.3483805422
 30
0.0
 10
4.1064484839
 20
3.346451009
 30
0.0
 10
3.9687300134
 20
3.3448092165
 30
0.0
 10
3.8655578004
 20
3.3434857788
 30
0.0
 10
3.7938699782
 20
3.3425166829
 30
0.0
 10
3.7262279347
 20
3.3415478581
 30
0.0
 10
3.6627931709
 20
3.3405795081
 30
0.0
 10
3.6037169467
 20
3.3396116619
 30
0.0
 10
3.5491400542
 20
3.3386443916
 30
0.0
 10
3.4991928457
 20
3.3376780762
 30
0.0
 10
3.4539943349
 20
3.3367129291
 30
0.0
 10
3.4136522342
 20
3.3357491555
 30
0.0
 10
3.383114454
 20
3.3349200961
 30
0.0
 10
3.3611836454
 20
3.3342490797
 30
0.0
 10
3.3466339226
 20
3.3337651934
 30
0.0
 10
3.3333628571
 20
3.3332817288
 30
0.0
 10
3.3213775077
 20
3.3327987909
 30
0.0
 10
3.3106847206
 20
3.3323165477
 30
0.0
 10
3.3012912886
 20
3.3318354024
 30
0.0
 10
3.2932035824
 20
3.3313555615
 30
0.0
 10
3.2872834999
 20
3.3309390036
 30
0.0
 10
3.2832048418
 20
3.3305990279
 30
0.0
 10
3.2806379155
 20
3.330357912
 30
0.0
 10
3.2784000082
 20
3.330117445
 30
0.0
 10
3.2764913847
 20
3.3298777479
 30
0.0
 10
3.27491169
 20
3.3296397495
 30
0.0
 10
3.2736613499
 20
3.3294033149
 30
0.0
 10
3.2728263383
 20
3.3291956539
 30
0.0
 10
3.2723277562
 20
3.3290197908
 30
0.0
 10
3.2721346148
 20
3.328930644
 30
0.0
 10
3.2720537884
 20
3.3288840867
 30
0.0
  0
SPLINE
  5
2A9
100
AcDbEntity
  8
0
100
AcDbSpline
 62
7
  6
CONTINUOUS
 70
0
 71
3
 72
53
 73
49
 74
0
 42
0.0000001
 43
0.0000001
 44
0.0000000001
 40
0.0
 40
0.0
 40
0.0
 40
0.0
 40
0.0193520136
 40
0.0420148729
 40
0.0678141826
 40
0.0965682212
 40
0.1280712323
 40
0.162096279
 40
0.2367139623
 40
0.318277485
 40
0.4044425941
 40
0.4927326304
 40
0.5368819184
 40
0.5806098527
 40
0.6236020577
 40
0.6655485535
 40
0.7061478414
 40
0.745107514
 40
0.7821468331
 40
0.8170000215
 40
0.8494149538
 40
0.8791596623
 40
0.8929623456
 40
0.9060191686
 40
0.9183061029
 40
0.9298004347
 40
0.9404825113
 40
0.9503331202
 40
0.9593334958
 40
0.9674681605
 40
0.9747231358
 40
0.9810845402
 40
0.9839263805
 40
0.9865408549
 40
0.988926926
 40
0.9910835664
 40
0.9930097627
 40
0.9947045246
 40
0.996167032
 40
0.9973969994
 40
0.9983943683
 40
0.9988058917
 40
0.9991593932
 40
0.9994550247
 40
0.9996930816
 40
0.9998741847
 40
0.9999438297
 40
1.0
 40
1.0
 40
1.0
 40
1.0
 10
3.4557257595
 20
3.3158994014
 30
0.0
 10
3.4831526238
 20
3.316516341
 30
0.0
 10
3.5427017777
 20
3.3177182113
 30
0.0
 10
3.6388221463
 20
3.3193846651
 30
0.0
 10
3.7482726996
 20
3.3210555272
 30
0.0
 10
3.8702564629
 20
3.3227297732
 30
0.0
 10
4.0039021574
 20
3.3244065393
 30
0.0
 10
4.2025621665
 20
3.326715833
 30
0.0
 10
4.4721874863
 20
3.3295545652
 30
0.0
 10
4.8157264412
 20
3.3328756903
 30
0.0
 10
5.178648399
 20
3.3362019172
 30
0.0
 10
5.4885340079
 20
3.338975696
 30
0.0
 10
5.7382621684
 20
3.3412188213
 30
0.0
 10
5.9237776626
 20
3.3429011189
 30
0.0
 10
6.1061703066
 20
3.344583178
 30
0.0
 10
6.2841275294
 20
3.3462649433
 30
0.0
 10
6.4563678958
 20
3.3479462436
 30
0.0
 10
6.6216514135
 20
3.3496269197
 30
0.0
 10
6.7787887135
 20
3.3513068311
 30
0.0
 10
6.9266475143
 20
3.3529855305
 30
0.0
 10
7.0641646326
 20
3.3546629378
 30
0.0
 10
7.1718408912
 20
3.3560921966
 30
0.0
 10
7.2520758969
 20
3.3572442371
 30
0.0
 10
7.3075642931
 20
3.3580863123
 30
0.0
 10
7.3597799306
 20
3.3589280729
 30
0.0
 10
7.4086286197
 20
3.3597695637
 30
0.0
 10
7.4540229858
 20
3.3606105821
 30
0.0
 10
7.4958812295
 20
3.3614509738
 30
0.0
 10
7.5341274345
 20
3.3622907451
 30
0.0
 10
7.5686930743
 20
3.3631294901
 30
0.0
 10
7.5995164663
 20
3.3639668475
 30
0.0
 10
7.6228369289
 20
3.3646873132
 30
0.0
 10
7.6395798344
 20
3.3652704026
 30
0.0
 10
7.6506894248
 20
3.3656908416
 30
0.0
 10
7.6608269208
 20
3.3661109302
 30
0.0
 10
7.6699878013
 20
3.3665305968
 30
0.0
 10
7.6781675651
 20
3.3669496565
 30
0.0
 10
7.6853619061
 20
3.367367916
 30
0.0
 10
7.691567479
 20
3.3677848577
 30
0.0
 10
7.6967818952
 20
3.3682001589
 30
0.0
 10
7.7005056047
 20
3.3685624052
 30
0.0
 10
7.7029862814
 20
3.368860593
 30
0.0
 10
7.704475458
 20
3.3690690518
 30
0.0
 10
7.7057162825
 20
3.3692762199
 30
0.0
 10
7.7067085602
 20
3.3694821369
 30
0.0
 10
7.7073786801
 20
3.3696630355
 30
0.0
 10
7.7077866514
 20
3.3698149757
 30
0.0
 10
7.7079481356
 20
3.3698918498
 30
0.0
 10
7.7080171361
 20
3.3699315937
 30
0.0
  0
SPLINE
  5
2AA
100
AcDbEntity
  8
0
100
AcDbSpline
 62
7
  6
CONTINUOUS
 70
0
 71
3
 72
26
 73
22
 74
0
 42
0.0000001
 43
0.0000001
 44
0.0000000001
 40
0.0
 40
0.0
 40
0.0
 40
0.0
 40
0.2235435903
 40
0.4197941959
 40
0.5075010182
 40
0.5881650454
 40
0.6617321225
 40
0.72816885
 40
0.7874432614
 40
0.8395239341
 40
0.8843803454
 40
0.9219860655
 40
0.9380663914
 40
0.9523311484
 40
0.9647807168
 40
0.9754165431
 40
0.9842420184
 40
0.9912644807
 40
0.9965006327
 40
0.9984619442
 40
1.0
 40
1.0
 40
1.0
 40
1.0
 10
3.4557257595
 20
3.2117338701
 30
0.0
 10
3.44202149
 20
3.2114256064
 30
0.0
 10
3.4162868092
 20
3.2108161902
 30
0.0
 10
3.385177925
 20
3.2099790476
 30
0.0
 10
3.3628295183
 20
3.2093013835
 30
0.0
 10
3.3480018678
 20
3.2088127113
 30
0.0
 10
3.3344792583
 20
3.2083244795
 30
0.0
 10
3.3222691764
 20
3.2078368286
 30
0.0
 10
3.3113777784
 20
3.2073499132
 30
0.0
 10
3.3018111027
 20
3.206864118
 30
0.0
 10
3.2935750536
 20
3.2063796698
 30
0.0
 10
3.2875468452
 20
3.2059591058
 30
0.0
 10
3.2833941939
 20
3.2056158151
 30
0.0
 10
3.2807812819
 20
3.2053723605
 30
0.0
 10
3.2785037622
 20
3.2051295602
 30
0.0
 10
3.2765619251
 20
3.2048875364
 30
0.0
 10
3.2749554256
 20
3.2046472434
 30
0.0
 10
3.2736847262
 20
3.2044085328
 30
0.0
 10
3.2728367515
 20
3.2041988828
 30
0.0
 10
3.2723311006
 20
3.2040212285
 30
0.0
 10
3.2721355144
 20
3.2039311621
 30
0.0
 10
3.2720537891
 20
3.2038840868
 30
0.0
  0
SPLINE
  5
2AB
100
AcDbEntity
  8
0
100
AcDbSpline
 62
7
  6
CONTINUOUS
 70
0
 71
3
 72
59
 73
55
 74
0
 42
0.0000001
 43
0.0000001
 44
0.0000000001
 40
0.0
 40
0.0
 40
0.0
 40
0.0
 40
0.0000260181
 40
0.0000594694
 40
0.0001042183
 40
0.0001618971
 40
0.0003186
 40
0.0005323943
 40
0.0006610212
 40
0.0008042138
 40
0.0011344424
 40
0.0015232986
 40
0.0019708889
 40
0.0030424404
 40
0.0043492385
 40
0.0058911739
 40
0.0076678024
 40
0.0096781879
 40
0.0119213146
 40
0.0143961464
 40
0.0171016345
 40
0.0200367213
 40
0.0232003258
 40
0.0302070331
 40
0.0381079624
 40
0.04688891
 40
0.05653502
 40
0.0670279495
 40
0.0783481595
 40
0.0904759846
 40
0.1033893316
 40
0.1170638421
 40
0.1314750653
 40
0.1465974247
 40
0.178861507
 40
0.213622187
 40
0.2506251685
 40
0.2896021247
 40
0.3302686125
 40
0.3723287048
 40
0.4154763947
 40
0.4593971258
 40
0.5037714887
 40
0.5482760861
 40
0.5925871338
 40
0.6793412818
 40
0.7615117495
 40
0.8367097923
 40
0.8710019348
 40
0.9027502052
 40
0.931723346
 40
0.9577114485
 40
0.9805294853
 40
1.0
 40
1.0
 40
1.0
 40
1.0
 10
7.7082854678
 20
3.2660750745
 30
0.0
 10
7.7082854678
 20
3.266038187
 30
0.0
 10
7.7082561617
 20
3.2659539642
 30
0.0
 10
7.7081501019
 20
3.2658478744
 30
0.0
 10
7.7079872629
 20
3.265743639
 30
0.0
 10
7.707653152
 20
3.2655890587
 30
0.0
 10
7.7070720623
 20
3.2654076208
 30
0.0
 10
7.7063827272
 20
3.2652473826
 30
0.0
 10
7.7057070855
 20
3.2651146008
 30
0.0
 10
7.7048664035
 20
3.2649666817
 30
0.0
 10
7.7036573244
 20
3.2647848153
 30
0.0
 10
7.7020165681
 20
3.2645747646
 30
0.0
 10
7.6993279507
 20
3.2642758256
 30
0.0
 10
7.6953377121
 20
3.263911536
 30
0.0
 10
7.689795324
 20
3.2634932643
 30
0.0
 10
7.6832509964
 20
3.2630735433
 30
0.0
 10
7.6757074892
 20
3.2626526479
 30
0.0
 10
7.6671685444
 20
3.2622310077
 30
0.0
 10
7.6576386722
 20
3.2618088138
 30
0.0
 10
7.6471224581
 20
3.2613862199
 30
0.0
 10
7.6356245025
 20
3.2609633225
 30
0.0
 10
7.6231494356
 20
3.2605401615
 30
0.0
 10
7.6045782877
 20
3.2599556122
 30
0.0
 10
7.5789677318
 20
3.259231995
 30
0.0
 10
7.5453935146
 20
3.2583888421
 30
0.0
 10
7.508076223
 20
3.2575446002
 30
0.0
 10
7.4670832623
 20
3.2566996293
 30
0.0
 10
7.4224895474
 20
3.2558540147
 30
0.0
 10
7.3743767795
 20
3.2550078618
 30
0.0
 10
7.3228319496
 20
3.2541613785
 30
0.0
 10
7.2679488668
 20
3.253314615
 30
0.0
 10
7.209828112
 20
3.2524675555
 30
0.0
 10
7.1485751929
 20
3.2516202746
 30
0.0
 10
7.0609684459
 20
3.2504653467
 30
0.0
 10
6.944512229
 20
3.2490306168
 30
0.0
 10
6.7970353396
 20
3.2473425199
 30
0.0
 10
6.6400406261
 20
3.2456532186
 30
0.0
 10
6.4746724373
 20
3.2439631014
 30
0.0
 10
6.302134121
 20
3.2422723098
 30
0.0
 10
6.1236824304
 20
3.2405810437
 30
0.0
 10
5.9406168007
 20
3.238889454
 30
0.0
 10
5.7542699526
 20
3.2371976162
 30
0.0
 10
5.5659992561
 20
3.2355056652
 30
0.0
 10
5.3771751617
 20
3.2338136864
 30
0.0
 10
5.1282691371
 20
3.2315735478
 30
0.0
 10
4.8259644664
 20
3.2288063015
 30
0.0
 10
4.4798728388
 20
3.2254666075
 30
0.0
 10
4.2081586547
 20
3.2226120967
 30
0.0
 10
4.0079296463
 20
3.2202897484
 30
0.0
 10
3.8732336117
 20
3.2186034667
 30
0.0
 10
3.7503116923
 20
3.2169197461
 30
0.0
 10
3.6400519561
 20
3.2152394624
 30
0.0
 10
3.5432663762
 20
3.2135636691
 30
0.0
 10
3.483323326
 20
3.2123546495
 30
0.0
 10
3.4557257595
 20
3.2117338701
 30
0.0
  0
SPLINE
  5
2AC
100
AcDbEntity
  8
0
100
AcDbSpline
 62
7
  6
CONTINUOUS
 70
0
 71
3
 72
80
 73
76
 74
0
 42
0.0000001
 43
0.0000001
 44
0.0000000001
 40
0.0
 40
0.0
 40
0.0
 40
0.0
 40
0.000066228
 40
0.000120303
 40
0.0001910913
 40
0.0002793615
 40
0.0003854988
 40
0.0005097186
 40
0.0006521513
 40
0.0009919462
 40
0.0014052894
 40
0.0024532054
 40
0.0037964564
 40
0.0054349797
 40
0.0073682422
 40
0.0095949492
 40
0.0121136487
 40
0.0149228577
 40
0.0180210744
 40
0.0214067798
 40
0.0250780952
 40
0.0290325502
 40
0.0377807504
 40
0.0476310902
 40
0.0585609624
 40
0.0705430492
 40
0.0835494089
 40
0.0975496285
 40
0.1125091779
 40
0.1283930738
 40
0.1451637965
 40
0.1627803755
 40
0.1812015036
 40
0.2202795525
 40
0.2620251952
 40
0.3060399447
 40
0.3519046509
 40
0.3991819645
 40
0.4474208219
 40
0.4961615611
 40
0.5449393129
 40
0.5932889884
 40
0.6407497887
 40
0.6868687914
 40
0.7312065346
 40
0.7733405619
 40
0.812868462
 40
0.8494137617
 40
0.8664581266
 40
0.882628562
 40
0.8978860675
 40
0.9121953569
 40
0.92552157
 40
0.9378326434
 40
0.9491003823
 40
0.9592970032
 40
0.968398137
 40
0.9763832855
 40
0.9799510384
 40
0.9832324052
 40
0.986225727
 40
0.9889294934
 40
0.9913422084
 40
0.9934623986
 40
0.9952886296
 40
0.9968198301
 40
0.9974746943
 40
0.9980557186
 40
0.9985629235
 40
0.9989963737
 40
0.9993562134
 40
0.999642749
 40
0.9998566698
 40
0.9999369361
 40
1.0
 40
1.0
 40
1.0
 40
1.0
 10
3.2717854678
 20
3.1827406058
 30
0.0
 10
3.2717854678
 20
3.1828385623
 30
0.0
 10
3.2719354596
 20
3.182989034
 30
0.0
 10
3.2721761862
 20
3.1831186452
 30
0.0
 10
3.2724712512
 20
3.1832400111
 30
0.0
 10
3.2728442265
 20
3.1833583258
 30
0.0
 10
3.2733004842
 20
3.183478544
 30
0.0
 10
3.2738385806
 20
3.1835986816
 30
0.0
 10
3.2747192706
 20
3.1837696264
 30
0.0
 10
3.2760276712
 20
3.1839781191
 30
0.0
 10
3.278669038
 20
3.1843253598
 30
0.0
 10
3.282796945
 20
3.1847415903
 30
0.0
 10
3.2887383011
 20
3.18521724
 30
0.0
 10
3.2959925028
 20
3.1856953254
 30
0.0
 10
3.3045555464
 20
3.1861757088
 30
0.0
 10
3.3144221499
 20
3.1866573016
 30
0.0
 10
3.3255856421
 20
3.1871398246
 30
0.0
 10
3.3380392108
 20
3.1876229725
 30
0.0
 10
3.351775998
 20
3.1881066015
 30
0.0
 10
3.366788615
 20
3.1885905714
 30
0.0
 10
3.3830682703
 20
3.1890748256
 30
0.0
 10
3.4072774454
 20
3.1897435598
 30
0.0
 10
3.4406248929
 20
3.1905715006
 30
0.0
 10
3.4842891236
 20
3.1915363721
 30
0.0
 10
3.5327375524
 20
3.1925022925
 30
0.0
 10
3.5858547999
 20
3.1934693054
 30
0.0
 10
3.6435140104
 20
3.1944370006
 30
0.0
 10
3.7055776877
 20
3.1954051778
 30
0.0
 10
3.7718979424
 20
3.1963738746
 30
0.0
 10
3.8423163951
 20
3.1973428929
 30
0.0
 10
3.916665152
 20
3.1983121362
 30
0.0
 10
3.9947669741
 20
3.1992816914
 30
0.0
 10
4.1058612801
 20
3.200600708
 30
0.0
 10
4.2526430788
 20
3.2022388899
 30
0.0
 10
4.4372789
 20
3.2041697992
 30
0.0
 10
4.6319532281
 20
3.2061019231
 30
0.0
 10
4.834809709
 20
3.2080349301
 30
0.0
 10
5.0439142467
 20
3.2099685352
 30
0.0
 10
5.2572728376
 20
3.2119025412
 30
0.0
 10
5.4728507832
 20
3.213836726
 30
0.0
 10
5.6885926437
 20
3.2157709286
 30
0.0
 10
5.9024412988
 20
3.2177049751
 30
0.0
 10
6.1123572947
 20
3.2196386531
 30
0.0
 10
6.3163390742
 20
3.2215717769
 30
0.0
 10
6.5124417787
 20
3.2235040772
 30
0.0
 10
6.6987952421
 20
3.2254351379
 30
0.0
 10
6.8736224282
 20
3.2273646711
 30
0.0
 10
7.011340898
 20
3.2290064635
 30
0.0
 10
7.1145131104
 20
3.2303299013
 30
0.0
 10
7.186200933
 20
3.2312989972
 30
0.0
 10
7.2538429771
 20
3.2322678219
 30
0.0
 10
7.3172777417
 20
3.2332361719
 30
0.0
 10
7.3763539672
 20
3.2342040181
 30
0.0
 10
7.4309308613
 20
3.2351712884
 30
0.0
 10
7.4808780719
 20
3.2361376038
 30
0.0
 10
7.5260765856
 20
3.237102751
 30
0.0
 10
7.5664186898
 20
3.2380665246
 30
0.0
 10
7.5969564732
 20
3.2388955841
 30
0.0
 10
7.6188872842
 20
3.2395666005
 30
0.0
 10
7.6334370082
 20
3.2400504868
 30
0.0
 10
7.6467080748
 20
3.2405339515
 30
0.0
 10
7.6586934252
 20
3.2410168893
 30
0.0
 10
7.6693862132
 20
3.2414991326
 30
0.0
 10
7.6787796459
 20
3.2419802779
 30
0.0
 10
7.6868673526
 20
3.2424601189
 30
0.0
 10
7.6927874353
 20
3.2428766768
 30
0.0
 10
7.6968660936
 20
3.2432166525
 30
0.0
 10
7.6994330199
 20
3.2434577684
 30
0.0
 10
7.7016709273
 20
3.2436982353
 30
0.0
 10
7.7035795508
 20
3.2439379325
 30
0.0
 10
7.7051592456
 20
3.2441759309
 30
0.0
 10
7.7064095856
 20
3.2444123654
 30
0.0
 10
7.7072445973
 20
3.2446200265
 30
0.0
 10
7.7077431793
 20
3.2447958896
 30
0.0
 10
7.7079363208
 20
3.2448850364
 30
0.0
 10
7.7080171472
 20
3.2449315937
 30
0.0
  0
SPLINE
  5
2AD
100
AcDbEntity
  8
0
100
AcDbSpline
 62
7
  6
CONTINUOUS
 70
0
 71
3
 72
80
 73
76
 74
0
 42
0.0000001
 43
0.0000001
 44
0.0000000001
 40
0.0
 40
0.0
 40
0.0
 40
0.0
 40
0.000066228
 40
0.000120303
 40
0.0001910913
 40
0.0002793615
 40
0.0003854988
 40
0.0005097186
 40
0.0006521513
 40
0.0009919462
 40
0.0014052894
 40
0.0024532054
 40
0.0037964564
 40
0.0054349796
 40
0.0073682421
 40
0.0095949489
 40
0.0121136482
 40
0.0149228571
 40
0.0180210737
 40
0.0214067788
 40
0.025078094
 40
0.0290325486
 40
0.0377807483
 40
0.0476310879
 40
0.0585609601
 40
0.0705430468
 40
0.0835494066
 40
0.0975496262
 40
0.1125091754
 40
0.1283930711
 40
0.1451637932
 40
0.1627803712
 40
0.1812014982
 40
0.2202795439
 40
0.2620251845
 40
0.3060399334
 40
0.3519046399
 40
0.3991819535
 40
0.4474208111
 40
0.4961615509
 40
0.5449393032
 40
0.5932889791
 40
0.6407497801
 40
0.6868687833
 40
0.7312065271
 40
0.7733405563
 40
0.8128684598
 40
0.849413762
 40
0.8664581275
 40
0.8826285635
 40
0.8978860693
 40
0.9121953588
 40
0.9255215719
 40
0.9378326449
 40
0.9491003834
 40
0.959297004
 40
0.9683981375
 40
0.9763832857
 40
0.9799510385
 40
0.9832324053
 40
0.986225727
 40
0.9889294934
 40
0.9913422084
 40
0.9934623986
 40
0.9952886295
 40
0.9968198301
 40
0.9974746943
 40
0.9980557186
 40
0.9985629235
 40
0.9989963737
 40
0.9993562134
 40
0.9996427489
 40
0.9998566698
 40
0.9999369361
 40
1.0
 40
1.0
 40
1.0
 40
1.0
 10
3.2717854678
 20
3.0577406058
 30
0.0
 10
3.2717854678
 20
3.0578385623
 30
0.0
 10
3.2719354596
 20
3.057989034
 30
0.0
 10
3.2721761862
 20
3.0581186452
 30
0.0
 10
3.2724712512
 20
3.0582400111
 30
0.0
 10
3.2728442265
 20
3.0583583258
 30
0.0
 10
3.2733004842
 20
3.058478544
 30
0.0
 10
3.2738385807
 20
3.0585986816
 30
0.0
 10
3.2747192707
 20
3.0587696264
 30
0.0
 10
3.2760276713
 20
3.0589781191
 30
0.0
 10
3.278669038
 20
3.0593253598
 30
0.0
 10
3.282796945
 20
3.0597415903
 30
0.0
 10
3.288738301
 20
3.06021724
 30
0.0
 10
3.2959925024
 20
3.0606953254
 30
0.0
 10
3.3045555456
 20
3.0611757088
 30
0.0
 10
3.3144221486
 20
3.0616573015
 30
0.0
 10
3.3255856401
 20
3.0621398245
 30
0.0
 10
3.3380392081
 20
3.0626229724
 30
0.0
 10
3.3517759946
 20
3.0631066014
 30
0.0
 10
3.3667886107
 20
3.0635905713
 30
0.0
 10
3.3830682648
 20
3.0640748254
 30
0.0
 10
3.4072774382
 20
3.0647435596
 30
0.0
 10
3.4406248841
 20
3.0655715004
 30
0.0
 10
3.4842891136
 20
3.0665363719
 30
0.0
 10
3.532737542
 20
3.0675022923
 30
0.0
 10
3.5858547897
 20
3.0684693052
 30
0.0
 10
3.6435140003
 20
3.0694370004
 30
0.0
 10
3.7055776775
 20
3.0704051776
 30
0.0
 10
3.7718979315
 20
3.0713738745
 30
0.0
 10
3.8423163826
 20
3.0723428928
 30
0.0
 10
3.9166651368
 20
3.073312136
 30
0.0
 10
3.994766955
 20
3.0742816912
 30
0.0
 10
4.1058612532
 20
3.0756007077
 30
0.0
 10
4.2526430423
 20
3.0772388895
 30
0.0
 10
4.4372788547
 20
3.0791697987
 30
0.0
 10
4.6319531793
 20
3.0811019227
 30
0.0
 10
4.8348096599
 20
3.0830349297
 30
0.0
 10
5.0439141983
 20
3.0849685347
 30
0.0
 10
5.2572727904
 20
3.0869025408
 30
0.0
 10
5.4728507377
 20
3.0888367256
 30
0.0
 10
5.6885926004
 20
3.0907709282
 30
0.0
 10
5.9024412579
 20
3.0927049748
 30
0.0
 10
6.1123572562
 20
3.0946386528
 30
0.0
 10
6.3163390383
 20
3.0965717766
 30
0.0
 10
6.5124417474
 20
3.0985040769
 30
0.0
 10
6.6987952195
 20
3.1004351377
 30
0.0
 10
6.873622417
 20
3.102364671
 30
0.0
 10
7.0113408964
 20
3.1040064635
 30
0.0
 10
7.1145131144
 20
3.1053299013
 30
0.0
 10
7.1862009393
 20
3.1062989973
 30
0.0
 10
7.2538429847
 20
3.107267822
 30
0.0
 10
7.3172777498
 20
3.1082361721
 30
0.0
 10
7.3763539749
 20
3.1092040183
 30
0.0
 10
7.4309308679
 20
3.1101712885
 30
0.0
 10
7.480878077
 20
3.1111376039
 30
0.0
 10
7.5260765892
 20
3.1121027511
 30
0.0
 10
7.5664186921
 20
3.1130665247
 30
0.0
 10
7.5969564745
 20
3.1138955841
 30
0.0
 10
7.6188872849
 20
3.1145666005
 30
0.0
 10
7.6334370086
 20
3.1150504868
 30
0.0
 10
7.646708075
 20
3.1155339515
 30
0.0
 10
7.6586934253
 20
3.1160168893
 30
0.0
 10
7.6693862132
 20
3.1164991326
 30
0.0
 10
7.6787796458
 20
3.1169802779
 30
0.0
 10
7.6868673525
 20
3.1174601188
 30
0.0
 10
7.6927874351
 20
3.1178766768
 30
0.0
 10
7.6968660934
 20
3.1182166525
 30
0.0
 10
7.6994330197
 20
3.1184577684
 30
0.0
 10
7.7016709272
 20
3.1186982353
 30
0.0
 10
7.7035795507
 20
3.1189379325
 30
0.0
 10
7.7051592455
 20
3.1191759309
 30
0.0
 10
7.7064095856
 20
3.1194123654
 30
0.0
 10
7.7072445972
 20
3.1196200265
 30
0.0
 10
7.7077431793
 20
3.1197958896
 30
0.0
 10
7.7079363208
 20
3.1198850364
 30
0.0
 10
7.7080171472
 20
3.1199315937
 30
0.0
  0
SPLINE
  5
2AE
100
AcDbEntity
  8
0
100
AcDbSpline
 62
7
  6
CONTINUOUS
 70
0
 71
3
 72
80
 73
76
 74
0
 42
0.0000001
 43
0.0000001
 44
0.0000000001
 40
0.0
 40
0.0
 40
0.0
 40
0.0
 40
0.000066228
 40
0.000120303
 40
0.0001910913
 40
0.0002793615
 40
0.0003854988
 40
0.0005097186
 40
0.0006521513
 40
0.0009919462
 40
0.0014052894
 40
0.0024532054
 40
0.0037964565
 40
0.0054349798
 40
0.0073682423
 40
0.0095949494
 40
0.0121136489
 40
0.014922858
 40
0.0180210748
 40
0.0214067802
 40
0.0250780957
 40
0.0290325508
 40
0.0377807514
 40
0.0476310915
 40
0.0585609642
 40
0.0705430514
 40
0.0835494114
 40
0.0975496311
 40
0.1125091806
 40
0.1283930762
 40
0.1451637985
 40
0.1627803767
 40
0.1812015035
 40
0.2202795493
 40
0.2620251897
 40
0.3060399383
 40
0.3519046445
 40
0.399181958
 40
0.4474208153
 40
0.4961615545
 40
0.5449393063
 40
0.5932889819
 40
0.6407497823
 40
0.686868785
 40
0.7312065288
 40
0.7733405582
 40
0.8128684615
 40
0.8494137635
 40
0.8664581289
 40
0.8826285647
 40
0.8978860702
 40
0.9121953595
 40
0.9255215724
 40
0.9378326453
 40
0.9491003837
 40
0.9592970043
 40
0.9683981377
 40
0.976383286
 40
0.9799510387
 40
0.9832324055
 40
0.9862257272
 40
0.9889294936
 40
0.9913422085
 40
0.9934623987
 40
0.9952886296
 40
0.9968198301
 40
0.9974746943
 40
0.9980557186
 40
0.9985629236
 40
0.9989963737
 40
0.9993562134
 40
0.999642749
 40
0.9998566698
 40
0.9999369361
 40
1.0
 40
1.0
 40
1.0
 40
1.0
 10
7.7082854678
 20
3.1410750745
 30
0.0
 10
7.7082854678
 20
3.1409771181
 30
0.0
 10
7.708135476
 20
3.1408266464
 30
0.0
 10
7.7078947494
 20
3.1406970351
 30
0.0
 10
7.7075996844
 20
3.1405756693
 30
0.0
 10
7.7072267091
 20
3.1404573546
 30
0.0
 10
7.7067704514
 20
3.1403371363
 30
0.0
 10
7.7062323549
 20
3.1402169988
 30
0.0
 10
7.7053516649
 20
3.1400460539
 30
0.0
 10
7.7040432643
 20
3.1398375613
 30
0.0
 10
7.7014018975
 20
3.1394903205
 30
0.0
 10
7.6972739905
 20
3.1390740901
 30
0.0
 10
7.6913326343
 20
3.1385984404
 30
0.0
 10
7.6840784325
 20
3.138120355
 30
0.0
 10
7.6755153888
 20
3.1376399715
 30
0.0
 10
7.665648785
 20
3.1371583788
 30
0.0
 10
7.6544852926
 20
3.1366758558
 30
0.0
 10
7.6420317236
 20
3.1361927078
 30
0.0
 10
7.628294936
 20
3.1357090788
 30
0.0
 10
7.6132823187
 20
3.1352251089
 30
0.0
 10
7.597002663
 20
3.1347408547
 30
0.0
 10
7.572793487
 20
3.1340721205
 30
0.0
 10
7.5394460383
 20
3.1332441797
 30
0.0
 10
7.495781806
 20
3.1322793081
 30
0.0
 10
7.4473333753
 20
3.1313133877
 30
0.0
 10
7.394216126
 20
3.1303463748
 30
0.0
 10
7.3365569142
 20
3.1293786796
 30
0.0
 10
7.2744932361
 20
3.1284105024
 30
0.0
 10
7.2081729815
 20
3.1274418056
 30
0.0
 10
7.1377545299
 20
3.1264727873
 30
0.0
 10
7.0634057753
 20
3.1255035441
 30
0.0
 10
6.9853039568
 20
3.1245339889
 30
0.0
 10
6.8742096585
 20
3.1232149724
 30
0.0
 10
6.7274278697
 20
3.1215767906
 30
0.0
 10
6.5427920579
 20
3.1196458814
 30
0.0
 10
6.3481177345
 20
3.1177137575
 30
0.0
 10
6.145261255
 20
3.1157807505
 30
0.0
 10
5.9361567177
 20
3.1138471455
 30
0.0
 10
5.7227981271
 20
3.1119131394
 30
0.0
 10
5.5072201818
 20
3.1099789547
 30
0.0
 10
5.2914783212
 20
3.1080447521
 30
0.0
 10
5.0776296657
 20
3.1061107055
 30
0.0
 10
4.8677136694
 20
3.1041770275
 30
0.0
 10
4.6637318888
 20
3.1022439037
 30
0.0
 10
4.4676291803
 20
3.1003116034
 30
0.0
 10
4.2812757082
 20
3.0983805426
 30
0.0
 10
4.1064485109
 20
3.0964510093
 30
0.0
 10
3.9687300323
 20
3.0948092168
 30
0.0
 10
3.8655578152
 20
3.093485779
 30
0.0
 10
3.7938699912
 20
3.0925166831
 30
0.0
 10
3.7262279467
 20
3.0915478583
 30
0.0
 10
3.6627931826
 20
3.0905795083
 30
0.0
 10
3.6037169583
 20
3.0896116621
 30
0.0
 10
3.5491400658
 20
3.0886443919
 30
0.0
 10
3.4991928571
 20
3.0876780764
 30
0.0
 10
3.4539943451
 20
3.0867129293
 30
0.0
 10
3.4136522424
 20
3.0857491557
 30
0.0
 10
3.38311446
 20
3.0849200963
 30
0.0
 10
3.3611836496
 20
3.0842490798
 30
0.0
 10
3.3466339259
 20
3.0837651935
 30
0.0
 10
3.3333628597
 20
3.0832817289
 30
0.0
 10
3.3213775095
 20
3.082798791
 30
0.0
 10
3.3106847218
 20
3.0823165477
 30
0.0
 10
3.3012912893
 20
3.0818354024
 30
0.0
 10
3.2932035828
 20
3.0813555615
 30
0.0
 10
3.2872835002
 20
3.0809390036
 30
0.0
 10
3.2832048419
 20
3.0805990279
 30
0.0
 10
3.2806379156
 20
3.080357912
 30
0.0
 10
3.2784000082
 20
3.080117445
 30
0.0
 10
3.2764913848
 20
3.0798777479
 30
0.0
 10
3.27491169
 20
3.0796397495
 30
0.0
 10
3.2736613499
 20
3.0794033149
 30
0.0
 10
3.2728263383
 20
3.0791956539
 30
0.0
 10
3.2723277562
 20
3.0790197908
 30
0.0
 10
3.2721346148
 20
3.078930644
 30
0.0
 10
3.2720537884
 20
3.0788840867
 30
0.0
  0
SPLINE
  5
2AF
100
AcDbEntity
  8
0
100
AcDbSpline
 62
7
  6
CONTINUOUS
 70
0
 71
3
 72
80
 73
76
 74
0
 42
0.0000001
 43
0.0000001
 44
0.0000000001
 40
0.0
 40
0.0
 40
0.0
 40
0.0
 40
0.000066228
 40
0.000120303
 40
0.0001910913
 40
0.0002793615
 40
0.0003854988
 40
0.0005097187
 40
0.0006521513
 40
0.0009919462
 40
0.0014052894
 40
0.0024532054
 40
0.0037964565
 40
0.0054349798
 40
0.0073682423
 40
0.0095949494
 40
0.0121136489
 40
0.014922858
 40
0.0180210747
 40
0.02140678
 40
0.0250780954
 40
0.0290325504
 40
0.0377807507
 40
0.0476310905
 40
0.0585609628
 40
0.0705430497
 40
0.0835494095
 40
0.0975496293
 40
0.112509179
 40
0.1283930751
 40
0.145163798
 40
0.1627803771
 40
0.1812015053
 40
0.2202795544
 40
0.262025197
 40
0.3060399464
 40
0.351904653
 40
0.3991819672
 40
0.447420825
 40
0.4961615646
 40
0.544939317
 40
0.5932889929
 40
0.6407497932
 40
0.6868687963
 40
0.7312065398
 40
0.7733405672
 40
0.8128684674
 40
0.8494137671
 40
0.8664581317
 40
0.8826285672
 40
0.8978860725
 40
0.9121953617
 40
0.9255215747
 40
0.9378326477
 40
0.949100386
 40
0.9592970065
 40
0.9683981395
 40
0.9763832871
 40
0.9799510396
 40
0.9832324062
 40
0.9862257278
 40
0.9889294939
 40
0.9913422088
 40
0.9934623988
 40
0.9952886297
 40
0.9968198301
 40
0.9974746943
 40
0.9980557186
 40
0.9985629235
 40
0.9989963737
 40
0.9993562134
 40
0.999642749
 40
0.9998566698
 40
0.9999369361
 40
1.0
 40
1.0
 40
1.0
 40
1.0
 10
7.7082854678
 20
3.0160750745
 30
0.0
 10
7.7082854678
 20
3.0159771181
 30
0.0
 10
7.708135476
 20
3.0158266464
 30
0.0
 10
7.7078947494
 20
3.0156970351
 30
0.0
 10
7.7075996844
 20
3.0155756693
 30
0.0
 10
7.7072267091
 20
3.0154573546
 30
0.0
 10
7.7067704513
 20
3.0153371363
 30
0.0
 10
7.7062323549
 20
3.0152169988
 30
0.0
 10
7.7053516648
 20
3.0150460539
 30
0.0
 10
7.7040432642
 20
3.0148375613
 30
0.0
 10
7.7014018974
 20
3.0144903205
 30
0.0
 10
7.6972739903
 20
3.0140740901
 30
0.0
 10
7.6913326341
 20
3.0135984404
 30
0.0
 10
7.6840784324
 20
3.013120355
 30
0.0
 10
7.6755153887
 20
3.0126399715
 30
0.0
 10
7.665648785
 20
3.0121583788
 30
0.0
 10
7.6544852927
 20
3.0116758558
 30
0.0
 10
7.6420317238
 20
3.0111927078
 30
0.0
 10
7.6282949365
 20
3.0107090788
 30
0.0
 10
7.6132823195
 20
3.0102251089
 30
0.0
 10
7.5970026642
 20
3.0097408548
 30
0.0
 10
7.572793489
 20
3.0090721205
 30
0.0
 10
7.5394460414
 20
3.0082441798
 30
0.0
 10
7.4957818106
 20
3.0072793082
 30
0.0
 10
7.4473333814
 20
3.0063133879
 30
0.0
 10
7.3942161334
 20
3.0053463749
 30
0.0
 10
7.3365569222
 20
3.0043786797
 30
0.0
 10
7.274493244
 20
3.0034105025
 30
0.0
 10
7.2081729883
 20
3.0024418057
 30
0.0
 10
7.1377545348
 20
3.0014727874
 30
0.0
 10
7.0634057771
 20
3.0005035441
 30
0.0
 10
6.9853039543
 20
2.9995339889
 30
0.0
 10
6.8742096476
 20
2.9982149723
 30
0.0
 10
6.7274278488
 20
2.9965767904
 30
0.0
 10
6.5427920277
 20
2.9946458811
 30
0.0
 10
6.3481176992
 20
2.9927137572
 30
0.0
 10
6.1452612169
 20
2.9907807502
 30
0.0
 10
5.9361566771
 20
2.9888471451
 30
0.0
 10
5.7227980842
 20
2.986913139
 30
0.0
 10
5.5072201366
 20
2.9849789543
 30
0.0
 10
5.291478274
 20
2.9830447517
 30
0.0
 10
5.0776296174
 20
2.9811107051
 30
0.0
 10
4.8677136204
 20
2.9791770271
 30
0.0
 10
4.6637318398
 20
2.9772439032
 30
0.0
 10
4.4676291341
 20
2.975311603
 30
0.0
 10
4.28127567
 20
2.9733805422
 30
0.0
 10
4.1064484836
 20
2.971451009
 30
0.0
 10
3.9687300141
 20
2.9698092166
 30
0.0
 10
3.8655578019
 20
2.9684857788
 30
0.0
 10
3.7938699798
 20
2.9675166829
 30
0.0
 10
3.7262279363
 20
2.9665478582
 30
0.0
 10
3.6627931725
 20
2.9655795081
 30
0.0
 10
3.6037169481
 20
2.9646116619
 30
0.0
 10
3.5491400555
 20
2.9636443917
 30
0.0
 10
3.4991928468
 20
2.9626780762
 30
0.0
 10
3.4539943358
 20
2.9617129291
 30
0.0
 10
3.4136522348
 20
2.9607491555
 30
0.0
 10
3.3831144544
 20
2.9599200961
 30
0.0
 10
3.3611836456
 20
2.9592490797
 30
0.0
 10
3.3466339227
 20
2.9587651934
 30
0.0
 10
3.3333628572
 20
2.9582817288
 30
0.0
 10
3.3213775078
 20
2.9577987909
 30
0.0
 10
3.3106847207
 20
2.9573165477
 30
0.0
 10
3.3012912887
 20
2.9568354024
 30
0.0
 10
3.2932035825
 20
2.9563555615
 30
0.0
 10
3.2872835
 20
2.9559390036
 30
0.0
 10
3.2832048419
 20
2.9555990279
 30
0.0
 10
3.2806379156
 20
2.955357912
 30
0.0
 10
3.2784000083
 20
2.955117445
 30
0.0
 10
3.2764913848
 20
2.9548777479
 30
0.0
 10
3.27491169
 20
2.9546397495
 30
0.0
 10
3.27366135
 20
2.9544033149
 30
0.0
 10
3.2728263383
 20
2.9541956539
 30
0.0
 10
3.2723277562
 20
2.9540197908
 30
0.0
 10
3.2721346148
 20
2.953930644
 30
0.0
 10
3.2720537884
 20
2.9538840867
 30
0.0
  0
SPLINE
  5
2B0
100
AcDbEntity
  8
0
100
AcDbSpline
 62
7
  6
CONTINUOUS
 70
0
 71
3
 72
80
 73
76
 74
0
 42
0.0000001
 43
0.0000001
 44
0.0000000001
 40
0.0
 40
0.0
 40
0.0
 40
0.0
 40
0.000066228
 40
0.000120303
 40
0.0001910913
 40
0.0002793615
 40
0.0003854988
 40
0.0005097186
 40
0.0006521512
 40
0.0009919461
 40
0.0014052894
 40
0.0024532053
 40
0.0037964563
 40
0.0054349796
 40
0.007368242
 40
0.0095949489
 40
0.0121136481
 40
0.014922857
 40
0.0180210735
 40
0.0214067786
 40
0.0250780937
 40
0.0290325483
 40
0.0377807479
 40
0.0476310874
 40
0.0585609596
 40
0.0705430462
 40
0.0835494059
 40
0.0975496253
 40
0.1125091743
 40
0.1283930698
 40
0.1451637918
 40
0.1627803701
 40
0.1812014979
 40
0.2202795464
 40
0.2620251895
 40
0.30603994
 40
0.3519046469
 40
0.39918196
 40
0.4474208175
 40
0.4961615587
 40
0.5449393133
 40
0.5932889909
 40
0.6407497921
 40
0.6868687949
 40
0.7312065375
 40
0.7733405645
 40
0.8128684659
 40
0.8494137668
 40
0.8664581317
 40
0.8826285673
 40
0.8978860726
 40
0.9121953617
 40
0.9255215747
 40
0.9378326476
 40
0.9491003857
 40
0.9592970061
 40
0.9683981391
 40
0.9763832867
 40
0.9799510393
 40
0.9832324059
 40
0.9862257275
 40
0.9889294938
 40
0.9913422087
 40
0.9934623988
 40
0.9952886296
 40
0.9968198301
 40
0.9974746943
 40
0.9980557186
 40
0.9985629236
 40
0.9989963737
 40
0.9993562134
 40
0.999642749
 40
0.9998566698
 40
0.9999369361
 40
1.0
 40
1.0
 40
1.0
 40
1.0
 10
3.2717854678
 20
2.9327406058
 30
0.0
 10
3.2717854678
 20
2.9328385623
 30
0.0
 10
3.2719354596
 20
2.932989034
 30
0.0
 10
3.2721761862
 20
2.9331186452
 30
0.0
 10
3.2724712512
 20
2.9332400111
 30
0.0
 10
3.2728442265
 20
2.9333583258
 30
0.0
 10
3.2733004842
 20
2.933478544
 30
0.0
 10
3.2738385806
 20
2.9335986816
 30
0.0
 10
3.2747192706
 20
2.9337696264
 30
0.0
 10
3.2760276711
 20
2.9339781191
 30
0.0
 10
3.2786690379
 20
2.9343253598
 30
0.0
 10
3.2827969448
 20
2.9347415903
 30
0.0
 10
3.2887383007
 20
2.93521724
 30
0.0
 10
3.2959925021
 20
2.9356953253
 30
0.0
 10
3.3045555453
 20
2.9361757088
 30
0.0
 10
3.3144221482
 20
2.9366573015
 30
0.0
 10
3.3255856396
 20
2.9371398245
 30
0.0
 10
3.3380392075
 20
2.9376229724
 30
0.0
 10
3.3517759938
 20
2.9381066014
 30
0.0
 10
3.3667886098
 20
2.9385905713
 30
0.0
 10
3.3830682637
 20
2.9390748254
 30
0.0
 10
3.4072774368
 20
2.9397435596
 30
0.0
 10
3.4406248823
 20
2.9405715004
 30
0.0
 10
3.4842891114
 20
2.9415363719
 30
0.0
 10
3.5327375396
 20
2.9425022922
 30
0.0
 10
3.5858547868
 20
2.9434693052
 30
0.0
 10
3.6435139968
 20
2.9444370004
 30
0.0
 10
3.7055776733
 20
2.9454051776
 30
0.0
 10
3.7718979264
 20
2.9463738744
 30
0.0
 10
3.8423163769
 20
2.9473428927
 30
0.0
 10
3.9166651313
 20
2.9483121359
 30
0.0
 10
3.9947669509
 20
2.9492816911
 30
0.0
 10
4.1058612548
 20
2.9506007077
 30
0.0
 10
4.2526430529
 20
2.9522388896
 30
0.0
 10
4.4372788754
 20
2.954169799
 30
0.0
 10
4.6319532068
 20
2.9561019229
 30
0.0
 10
4.8348096895
 20
2.9580349299
 30
0.0
 10
5.0439142276
 20
2.959968535
 30
0.0
 10
5.2572728208
 20
2.9619025411
 30
0.0
 10
5.4728507736
 20
2.9638367259
 30
0.0
 10
5.6885926444
 20
2.9657709286
 30
0.0
 10
5.9024413081
 20
2.9677049752
 30
0.0
 10
6.1123573087
 20
2.9696386532
 30
0.0
 10
6.3163390887
 20
2.9715717771
 30
0.0
 10
6.5124417921
 20
2.9735040773
 30
0.0
 10
6.6987952561
 20
2.9754351381
 30
0.0
 10
6.8736224454
 20
2.9773646713
 30
0.0
 10
7.0113409188
 20
2.9790064638
 30
0.0
 10
7.1145131332
 20
2.9803299016
 30
0.0
 10
7.1862009559
 20
2.9812989975
 30
0.0
 10
7.2538429996
 20
2.9822678222
 30
0.0
 10
7.3172777634
 20
2.9832361723
 30
0.0
 10
7.3763539874
 20
2.9842040185
 30
0.0
 10
7.4309308795
 20
2.9851712887
 30
0.0
 10
7.4808780876
 20
2.9861376042
 30
0.0
 10
7.5260765983
 20
2.9871027513
 30
0.0
 10
7.5664186991
 20
2.9880665248
 30
0.0
 10
7.5969564796
 20
2.9888955842
 30
0.0
 10
7.6188872885
 20
2.9895666006
 30
0.0
 10
7.6334370115
 20
2.9900504869
 30
0.0
 10
7.6467080772
 20
2.9905339516
 30
0.0
 10
7.658693427
 20
2.9910168894
 30
0.0
 10
7.6693862143
 20
2.9914991327
 30
0.0
 10
7.6787796466
 20
2.991980278
 30
0.0
 10
7.686867353
 20
2.9924601189
 30
0.0
 10
7.6927874356
 20
2.9928766768
 30
0.0
 10
7.6968660938
 20
2.9932166525
 30
0.0
 10
7.69943302
 20
2.9934577684
 30
0.0
 10
7.7016709274
 20
2.9936982353
 30
0.0
 10
7.7035795508
 20
2.9939379325
 30
0.0
 10
7.7051592456
 20
2.9941759309
 30
0.0
 10
7.7064095857
 20
2.9944123654
 30
0.0
 10
7.7072445973
 20
2.9946200265
 30
0.0
 10
7.7077431794
 20
2.9947958896
 30
0.0
 10
7.7079363208
 20
2.9948850364
 30
0.0
 10
7.7080171472
 20
2.9949315937
 30
0.0
  0
SPLINE
  5
2B1
100
AcDbEntity
  8
0
100
AcDbSpline
 62
7
  6
CONTINUOUS
 70
0
 71
3
 72
80
 73
76
 74
0
 42
0.0000001
 43
0.0000001
 44
0.0000000001
 40
0.0
 40
0.0
 40
0.0
 40
0.0
 40
0.000066228
 40
0.000120303
 40
0.0001910913
 40
0.0002793615
 40
0.0003854988
 40
0.0005097186
 40
0.0006521512
 40
0.0009919461
 40
0.0014052893
 40
0.0024532053
 40
0.0037964563
 40
0.0054349795
 40
0.007368242
 40
0.0095949489
 40
0.0121136482
 40
0.0149228572
 40
0.0180210738
 40
0.0214067792
 40
0.0250780946
 40
0.0290325496
 40
0.03778075
 40
0.0476310901
 40
0.058560963
 40
0.0705430504
 40
0.0835494106
 40
0.0975496306
 40
0.1125091802
 40
0.1283930757
 40
0.1451637976
 40
0.1627803757
 40
0.1812015029
 40
0.2202795506
 40
0.262025193
 40
0.3060399431
 40
0.3519046503
 40
0.3991819642
 40
0.4474208215
 40
0.4961615611
 40
0.5449393144
 40
0.5932889913
 40
0.6407497924
 40
0.6868687955
 40
0.7312065388
 40
0.7733405661
 40
0.8128684664
 40
0.8494137664
 40
0.8664581312
 40
0.8826285667
 40
0.8978860721
 40
0.9121953613
 40
0.9255215745
 40
0.9378326475
 40
0.9491003859
 40
0.9592970066
 40
0.9683981396
 40
0.9763832872
 40
0.9799510397
 40
0.9832324063
 40
0.9862257279
 40
0.988929494
 40
0.9913422088
 40
0.9934623989
 40
0.9952886297
 40
0.9968198301
 40
0.9974746943
 40
0.9980557186
 40
0.9985629235
 40
0.9989963737
 40
0.9993562134
 40
0.999642749
 40
0.9998566698
 40
0.9999369361
 40
1.0
 40
1.0
 40
1.0
 40
1.0
 10
3.2717854678
 20
2.8077406058
 30
0.0
 10
3.2717854678
 20
2.8078385623
 30
0.0
 10
3.2719354596
 20
2.807989034
 30
0.0
 10
3.2721761862
 20
2.8081186452
 30
0.0
 10
3.2724712512
 20
2.8082400111
 30
0.0
 10
3.2728442264
 20
2.8083583258
 30
0.0
 10
3.2733004841
 20
2.808478544
 30
0.0
 10
3.2738385805
 20
2.8085986816
 30
0.0
 10
3.2747192705
 20
2.8087696264
 30
0.0
 10
3.276027671
 20
2.8089781191
 30
0.0
 10
3.2786690377
 20
2.8093253598
 30
0.0
 10
3.2827969446
 20
2.8097415902
 30
0.0
 10
3.2887383005
 20
2.81021724
 30
0.0
 10
3.2959925019
 20
2.8106953253
 30
0.0
 10
3.3045555452
 20
2.8111757088
 30
0.0
 10
3.3144221483
 20
2.8116573015
 30
0.0
 10
3.32558564
 20
2.8121398245
 30
0.0
 10
3.3380392083
 20
2.8126229724
 30
0.0
 10
3.3517759954
 20
2.8131066014
 30
0.0
 10
3.3667886123
 20
2.8135905714
 30
0.0
 10
3.3830682676
 20
2.8140748255
 30
0.0
 10
3.4072774429
 20
2.8147435597
 30
0.0
 10
3.4406248912
 20
2.8155715006
 30
0.0
 10
3.4842891236
 20
2.8165363721
 30
0.0
 10
3.5327375549
 20
2.8175022925
 30
0.0
 10
3.5858548051
 20
2.8184693055
 30
0.0
 10
3.643514018
 20
2.8194370007
 30
0.0
 10
3.7055776969
 20
2.8204051779
 30
0.0
 10
3.7718979518
 20
2.8213738747
 30
0.0
 10
3.842316403
 20
2.822342893
 30
0.0
 10
3.9166651568
 20
2.8233121363
 30
0.0
 10
3.9947669752
 20
2.8242816914
 30
0.0
 10
4.1058612767
 20
2.8256007079
 30
0.0
 10
4.2526430718
 20
2.8272388898
 30
0.0
 10
4.4372788915
 20
2.8291697991
 30
0.0
 10
4.6319532217
 20
2.8311019231
 30
0.0
 10
4.8348097053
 20
2.8330349301
 30
0.0
 10
5.0439142448
 20
2.8349685352
 30
0.0
 10
5.2572728366
 20
2.8369025412
 30
0.0
 10
5.4728507848
 20
2.838836726
 30
0.0
 10
5.6885926503
 20
2.8407709286
 30
0.0
 10
5.9024413108
 20
2.8427049753
 30
0.0
 10
6.1123573106
 20
2.8446386533
 30
0.0
 10
6.3163390919
 20
2.8465717771
 30
0.0
 10
6.5124417972
 20
2.8485040774
 30
0.0
 10
6.6987952611
 20
2.8504351381
 30
0.0
 10
6.8736224479
 20
2.8523646714
 30
0.0
 10
7.0113409182
 20
2.8540064638
 30
0.0
 10
7.114513131
 20
2.8553299016
 30
0.0
 10
7.1862009535
 20
2.8562989974
 30
0.0
 10
7.2538429974
 20
2.8572678222
 30
0.0
 10
7.3172777616
 20
2.8582361723
 30
0.0
 10
7.3763539863
 20
2.8592040185
 30
0.0
 10
7.4309308794
 20
2.8601712887
 30
0.0
 10
7.4808780884
 20
2.8611376042
 30
0.0
 10
7.5260765998
 20
2.8621027513
 30
0.0
 10
7.5664187011
 20
2.8630665249
 30
0.0
 10
7.5969564816
 20
2.8638955843
 30
0.0
 10
7.6188872905
 20
2.8645666007
 30
0.0
 10
7.6334370133
 20
2.865050487
 30
0.0
 10
7.6467080788
 20
2.8655339516
 30
0.0
 10
7.6586934281
 20
2.8660168894
 30
0.0
 10
7.6693862151
 20
2.8664991327
 30
0.0
 10
7.6787796471
 20
2.866980278
 30
0.0
 10
7.6868673532
 20
2.8674601189
 30
0.0
 10
7.6927874356
 20
2.8678766768
 30
0.0
 10
7.6968660937
 20
2.8682166525
 30
0.0
 10
7.69943302
 20
2.8684577684
 30
0.0
 10
7.7016709273
 20
2.8686982353
 30
0.0
 10
7.7035795508
 20
2.8689379325
 30
0.0
 10
7.7051592455
 20
2.8691759309
 30
0.0
 10
7.7064095856
 20
2.8694123654
 30
0.0
 10
7.7072445973
 20
2.8696200265
 30
0.0
 10
7.7077431793
 20
2.8697958896
 30
0.0
 10
7.7079363208
 20
2.8698850364
 30
0.0
 10
7.7080171472
 20
2.8699315937
 30
0.0
  0
SPLINE
  5
2B2
100
AcDbEntity
  8
0
100
AcDbSpline
 62
7
  6
CONTINUOUS
 70
0
 71
3
 72
80
 73
76
 74
0
 42
0.0000001
 43
0.0000001
 44
0.0000000001
 40
0.0
 40
0.0
 40
0.0
 40
0.0
 40
0.000066228
 40
0.000120303
 40
0.0001910913
 40
0.0002793615
 40
0.0003854988
 40
0.0005097186
 40
0.0006521512
 40
0.0009919462
 40
0.0014052894
 40
0.0024532054
 40
0.0037964564
 40
0.0054349797
 40
0.0073682421
 40
0.0095949491
 40
0.0121136485
 40
0.0149228574
 40
0.018021074
 40
0.0214067791
 40
0.0250780943
 40
0.029032549
 40
0.0377807487
 40
0.0476310882
 40
0.0585609603
 40
0.0705430468
 40
0.0835494066
 40
0.0975496261
 40
0.1125091754
 40
0.1283930711
 40
0.1451637934
 40
0.1627803718
 40
0.1812014994
 40
0.2202795465
 40
0.2620251869
 40
0.3060399349
 40
0.351904641
 40
0.3991819553
 40
0.4474208145
 40
0.4961615564
 40
0.5449393105
 40
0.5932889865
 40
0.6407497863
 40
0.6868687896
 40
0.7312065345
 40
0.7733405643
 40
0.8128684673
 40
0.8494137684
 40
0.8664581331
 40
0.8826285684
 40
0.8978860736
 40
0.9121953625
 40
0.9255215754
 40
0.9378326483
 40
0.9491003865
 40
0.959297007
 40
0.9683981398
 40
0.9763832873
 40
0.9799510398
 40
0.9832324064
 40
0.9862257279
 40
0.988929494
 40
0.9913422088
 40
0.9934623989
 40
0.9952886297
 40
0.9968198302
 40
0.9974746944
 40
0.9980557186
 40
0.9985629236
 40
0.9989963737
 40
0.9993562134
 40
0.999642749
 40
0.9998566698
 40
0.9999369361
 40
1.0
 40
1.0
 40
1.0
 40
1.0
 10
7.7082854678
 20
2.8910750745
 30
0.0
 10
7.7082854678
 20
2.8909771181
 30
0.0
 10
7.708135476
 20
2.8908266464
 30
0.0
 10
7.7078947494
 20
2.8906970351
 30
0.0
 10
7.7075996844
 20
2.8905756693
 30
0.0
 10
7.7072267091
 20
2.8904573546
 30
0.0
 10
7.7067704514
 20
2.8903371363
 30
0.0
 10
7.706232355
 20
2.8902169988
 30
0.0
 10
7.7053516649
 20
2.8900460539
 30
0.0
 10
7.7040432644
 20
2.8898375613
 30
0.0
 10
7.7014018976
 20
2.8894903205
 30
0.0
 10
7.6972739906
 20
2.8890740901
 30
0.0
 10
7.6913326346
 20
2.8885984404
 30
0.0
 10
7.6840784331
 20
2.888120355
 30
0.0
 10
7.6755153896
 20
2.8876399716
 30
0.0
 10
7.6656487863
 20
2.8871583789
 30
0.0
 10
7.6544852946
 20
2.8866758559
 30
0.0
 10
7.6420317263
 20
2.8861927079
 30
0.0
 10
7.6282949397
 20
2.8857090789
 30
0.0
 10
7.6132823234
 20
2.885225109
 30
0.0
 10
7.5970026692
 20
2.8847408549
 30
0.0
 10
7.5727934957
 20
2.8840721207
 30
0.0
 10
7.5394460499
 20
2.8832441799
 30
0.0
 10
7.4957818207
 20
2.8822793084
 30
0.0
 10
7.4473333928
 20
2.8813133881
 30
0.0
 10
7.3942161457
 20
2.8803463752
 30
0.0
 10
7.3365569355
 20
2.87937868
 30
0.0
 10
7.2744932584
 20
2.8784105027
 30
0.0
 10
7.2081730044
 20
2.8774418059
 30
0.0
 10
7.1377545529
 20
2.8764727876
 30
0.0
 10
7.0634057976
 20
2.8755035443
 30
0.0
 10
6.9853039777
 20
2.8745339892
 30
0.0
 10
6.8742096759
 20
2.8732149726
 30
0.0
 10
6.7274278841
 20
2.8715767908
 30
0.0
 10
6.5427920712
 20
2.8696458815
 30
0.0
 10
6.3481177489
 20
2.8677137577
 30
0.0
 10
6.1452612693
 20
2.8657807507
 30
0.0
 10
5.9361567281
 20
2.8638471456
 30
0.0
 10
5.7227981294
 20
2.8619131394
 30
0.0
 10
5.5072201738
 20
2.8599789546
 30
0.0
 10
5.291478305
 20
2.8580447519
 30
0.0
 10
5.0776296467
 20
2.8561107053
 30
0.0
 10
4.86771365
 20
2.8541770273
 30
0.0
 10
4.6637318679
 20
2.8522439035
 30
0.0
 10
4.4676291562
 20
2.8503116032
 30
0.0
 10
4.2812756823
 20
2.8483805423
 30
0.0
 10
4.106448486
 20
2.846451009
 30
0.0
 10
3.9687300104
 20
2.8448092165
 30
0.0
 10
3.8655577962
 20
2.8434857787
 30
0.0
 10
3.7938699745
 20
2.8425166828
 30
0.0
 10
3.7262279318
 20
2.8415478581
 30
0.0
 10
3.6627931688
 20
2.840579508
 30
0.0
 10
3.603716945
 20
2.8396116618
 30
0.0
 10
3.5491400529
 20
2.8386443916
 30
0.0
 10
3.4991928446
 20
2.8376780761
 30
0.0
 10
3.4539943339
 20
2.836712929
 30
0.0
 10
3.4136522333
 20
2.8357491555
 30
0.0
 10
3.3831144533
 20
2.8349200961
 30
0.0
 10
3.3611836448
 20
2.8342490797
 30
0.0
 10
3.3466339221
 20
2.8337651934
 30
0.0
 10
3.3333628567
 20
2.8332817287
 30
0.0
 10
3.3213775073
 20
2.8327987909
 30
0.0
 10
3.3106847203
 20
2.8323165477
 30
0.0
 10
3.3012912884
 20
2.8318354024
 30
0.0
 10
3.2932035822
 20
2.8313555615
 30
0.0
 10
3.2872834998
 20
2.8309390036
 30
0.0
 10
3.2832048416
 20
2.8305990279
 30
0.0
 10
3.2806379154
 20
2.830357912
 30
0.0
 10
3.2784000081
 20
2.830117445
 30
0.0
 10
3.2764913847
 20
2.8298777479
 30
0.0
 10
3.2749116899
 20
2.8296397495
 30
0.0
 10
3.2736613499
 20
2.8294033149
 30
0.0
 10
3.2728263383
 20
2.8291956539
 30
0.0
 10
3.2723277562
 20
2.8290197908
 30
0.0
 10
3.2721346148
 20
2.828930644
 30
0.0
 10
3.2720537884
 20
2.8288840867
 30
0.0
  0
SPLINE
  5
2B3
100
AcDbEntity
  8
0
100
AcDbSpline
 62
7
  6
CONTINUOUS
 70
0
 71
3
 72
50
 73
46
 74
0
 42
0.0000001
 43
0.0000001
 44
0.0000000001
 40
0.0
 40
0.0
 40
0.0
 40
0.0
 40
0.0266933225
 40
0.0559577757
 40
0.0875988439
 40
0.121427455
 40
0.1948211835
 40
0.274351769
 40
0.3580860933
 40
0.4439877088
 40
0.5299677245
 40
0.5723322823
 40
0.6139352359
 40
0.6545226911
 40
0.693848246
 40
0.7316716744
 40
0.7677634057
 40
0.8019032105
 40
0.8338833785
 40
0.8635095503
 40
0.890600557
 40
0.9149928126
 40
0.9261290825
 40
0.9365362517
 40
0.9461989026
 40
0.9551016502
 40
0.9632306738
 40
0.9705745671
 40
0.9771221469
 40
0.9828625772
 40
0.9854275022
 40
0.9877877864
 40
0.9899426062
 40
0.9918911481
 40
0.9936326136
 40
0.9951662316
 40
0.9964914881
 40
0.9976082523
 40
0.9985165429
 40
0.9988925981
 40
0.9992166908
 40
0.9994889798
 40
0.9997097606
 40
0.9998796316
 40
1.0
 40
1.0
 40
1.0
 40
1.0
 10
3.69543352
 20
2.6952406058
 30
0.0
 10
3.731137131
 20
2.6957853757
 30
0.0
 10
3.8059843395
 20
2.6968637923
 30
0.0
 10
3.9231555349
 20
2.6984066506
 30
0.0
 10
4.0498723806
 20
2.699950848
 30
0.0
 10
4.2356184677
 20
2.7020690101
 30
0.0
 10
4.4854250243
 20
2.7046801859
 30
0.0
 10
4.8019894601
 20
2.7077422627
 30
0.0
 10
5.1352864488
 20
2.7108081424
 30
0.0
 10
5.4772111965
 20
2.7138760803
 30
0.0
 10
5.7637976885
 20
2.716445047
 30
0.0
 10
5.9911277314
 20
2.7185191186
 30
0.0
 10
6.1577382328
 20
2.7200668725
 30
0.0
 10
6.3202832707
 20
2.7216144043
 30
0.0
 10
6.4777721907
 20
2.7231615466
 30
0.0
 10
6.6292468666
 20
2.7247082811
 30
0.0
 10
6.7737841734
 20
2.7262543837
 30
0.0
 10
6.9105044661
 20
2.727799719
 30
0.0
 10
7.0385751801
 20
2.7293440491
 30
0.0
 10
7.1572159759
 20
2.7308868921
 30
0.0
 10
7.2657054812
 20
2.7324280749
 30
0.0
 10
7.3494615571
 20
2.7337468059
 30
0.0
 10
7.4109007078
 20
2.7348117281
 30
0.0
 10
7.4526380593
 20
2.7355856657
 30
0.0
 10
7.4913870783
 20
2.7363591282
 30
0.0
 10
7.5270879697
 20
2.7371320972
 30
0.0
 10
7.5596862735
 20
2.7379044844
 30
0.0
 10
7.58913312
 20
2.7386758741
 30
0.0
 10
7.6153835508
 20
2.7394460069
 30
0.0
 10
7.6352414145
 20
2.7401086993
 30
0.0
 10
7.649498824
 20
2.7406449293
 30
0.0
 10
7.6589619304
 20
2.7410316136
 30
0.0
 10
7.6675997651
 20
2.741417984
 30
0.0
 10
7.6754089147
 20
2.7418039775
 30
0.0
 10
7.682385992
 20
2.7421894235
 30
0.0
 10
7.6885279104
 20
2.7425741745
 30
0.0
 10
7.6938324174
 20
2.7429577342
 30
0.0
 10
7.6982979458
 20
2.7433398214
 30
0.0
 10
7.7014929919
 20
2.7436729522
 30
0.0
 10
7.703627175
 20
2.7439469638
 30
0.0
 10
7.7049139605
 20
2.7441387263
 30
0.0
 10
7.7059903427
 20
2.7443296178
 30
0.0
 10
7.7068574351
 20
2.7445188749
 30
0.0
 10
7.7075146649
 20
2.7447061956
 30
0.0
 10
7.707877662
 20
2.744851217
 30
0.0
 10
7.7080171832
 20
2.7449315937
 30
0.0
  0
SPLINE
  5
2B4
100
AcDbEntity
  8
0
100
AcDbSpline
 62
7
  6
CONTINUOUS
 70
0
 71
3
 72
60
 73
56
 74
0
 42
0.0000001
 43
0.0000001
 44
0.0000000001
 40
0.0
 40
0.0
 40
0.0
 40
0.0
 40
0.0194703708
 40
0.0422885869
 40
0.0682768281
 40
0.0972496398
 40
0.1289977695
 40
0.1632897231
 40
0.2384872502
 40
0.3206570638
 40
0.4074104347
 40
0.4517211047
 40
0.4962253321
 40
0.5405992951
 40
0.5845196749
 40
0.62766705
 40
0.6697266787
 40
0.7103930904
 40
0.7493694108
 40
0.7863724297
 40
0.8211326979
 40
0.8533965581
 40
0.868518666
 40
0.8829303838
 40
0.8966046666
 40
0.9095175353
 40
0.9216457425
 40
0.9329662181
 40
0.9434586106
 40
0.9531047237
 40
0.9618864332
 40
0.9697870473
 40
0.9767934178
 40
0.9799573322
 40
0.9828929741
 40
0.985598794
 40
0.988073579
 40
0.9903164838
 40
0.9923266952
 40
0.9941034205
 40
0.9956459016
 40
0.9969534392
 40
0.9980254737
 40
0.9984731803
 40
0.9988621153
 40
0.9991924256
 40
0.9994643642
 40
0.9995785894
 40
0.9996784343
 40
0.9997640475
 40
0.9998356674
 40
0.9998937066
 40
0.999938953
 40
0.9999730943
 40
1.0
 40
1.0
 40
1.0
 40
1.0
 10
3.5260656917
 20
3.2560166357
 30
0.0
 10
3.5527086364
 20
3.2566374061
 30
0.0
 10
3.6105789053
 20
3.2578464103
 30
0.0
 10
3.7040182299
 20
3.2595222308
 30
0.0
 10
3.8104658318
 20
3.2612025097
 30
0.0
 10
3.9291375867
 20
3.2628862368
 30
0.0
 10
4.0591760943
 20
3.2645725075
 30
0.0
 10
4.2524819109
 20
3.2668948659
 30
0.0
 10
4.5148011498
 20
3.2697493683
 30
0.0
 10
4.848926024
 20
3.2730890662
 30
0.0
 10
5.1407779063
 20
3.2758563137
 30
0.0
 10
5.381077483
 20
3.278096452
 30
0.0
 10
5.5633726055
 20
3.2797884296
 30
0.0
 10
5.7451334933
 20
3.2814803821
 30
0.0
 10
5.9250371023
 20
3.2831722208
 30
0.0
 10
6.1017728144
 20
3.2848638027
 30
0.0
 10
6.2740544347
 20
3.2865550881
 30
0.0
 10
6.4406266238
 20
3.2882458467
 30
0.0
 10
6.6002771875
 20
3.2899360066
 30
0.0
 10
6.7518432223
 20
3.2916252661
 30
0.0
 10
6.8942209502
 20
3.2933133944
 30
0.0
 10
7.0066499255
 20
3.2947480937
 30
0.0
 10
7.0912279625
 20
3.2959030696
 30
0.0
 10
7.1503632315
 20
3.2967502923
 30
0.0
 10
7.2064742689
 20
3.2975973652
 30
0.0
 10
7.2594593673
 20
3.2984441763
 30
0.0
 10
7.3092222498
 20
3.2992906263
 30
0.0
 10
7.3556715878
 20
3.3001367475
 30
0.0
 10
7.398722951
 20
3.3009824239
 30
0.0
 10
7.4382986548
 20
3.3018274178
 30
0.0
 10
7.4743259912
 20
3.302671521
 30
0.0
 10
7.5067390941
 20
3.3035147149
 30
0.0
 10
7.5314632135
 20
3.3042384036
 30
0.0
 10
7.5493925106
 20
3.3048229598
 30
0.0
 10
7.5614375011
 20
3.3052461195
 30
0.0
 10
7.572538624
 20
3.3056690351
 30
0.0
 10
7.5826908251
 20
3.3060916696
 30
0.0
 10
7.5918900251
 20
3.3065138901
 30
0.0
 10
7.6001326746
 20
3.306935534
 30
0.0
 10
7.6074152542
 20
3.3073564121
 30
0.0
 10
7.613734337
 20
3.3077760105
 30
0.0
 10
7.619086484
 20
3.3081940812
 30
0.0
 10
7.6229395137
 20
3.3085582252
 30
0.0
 10
7.6255349545
 20
3.3088571609
 30
0.0
 10
7.6271184838
 20
3.3090671138
 30
0.0
 10
7.6284590646
 20
3.3092763402
 30
0.0
 10
7.6294230025
 20
3.3094585291
 30
0.0
 10
7.6300713572
 20
3.3096078093
 30
0.0
 10
7.6304679348
 20
3.3097129712
 30
0.0
 10
7.630803989
 20
3.3098178315
 30
0.0
 10
7.6310797005
 20
3.3099223759
 30
0.0
 10
7.6312958637
 20
3.3100264489
 30
0.0
 10
7.6314531988
 20
3.3101308608
 30
0.0
 10
7.6315554665
 20
3.3102374663
 30
0.0
 10
7.6315834006
 20
3.310321012
 30
0.0
 10
7.6315834798
 20
3.3103578392
 30
0.0
  0
SPLINE
  5
2B5
100
AcDbEntity
  8
0
100
AcDbSpline
 62
7
  6
CONTINUOUS
 70
0
 71
3
 72
52
 73
48
 74
0
 42
0.0000001
 43
0.0000001
 44
0.0000000001
 40
0.0
 40
0.0
 40
0.0
 40
0.0
 40
0.0193477912
 40
0.042005479
 40
0.0677984215
 40
0.0965445693
 40
0.1280389825
 40
0.1620546054
 40
0.2366517364
 40
0.3181936574
 40
0.4043376574
 40
0.4926087995
 40
0.5367499114
 40
0.5804708764
 40
0.6234573553
 40
0.6653995641
 40
0.7059964369
 40
0.7449549398
 40
0.7819956532
 40
0.8168514992
 40
0.8492717274
 40
0.8790237791
 40
0.8928309857
 40
0.9058922872
 40
0.9181848267
 40
0.9296857845
 40
0.9403740369
 40
0.9502314554
 40
0.9592402254
 40
0.9673830708
 40
0.9746461932
 40
0.9810172192
 40
0.983864346
 40
0.9864838903
 40
0.9888748219
 40
0.9910363302
 40
0.9929676212
 40
0.9946679243
 40
0.9961365077
 40
0.9973727078
 40
0.9983760756
 40
0.9987905302
 40
0.9991469638
 40
0.999445566
 40
0.9996866749
 40
0.99987096
 40
1.0
 40
1.0
 40
1.0
 40
1.0
 10
3.5260656917
 20
3.2716166357
 30
0.0
 10
3.5525380596
 20
3.2722334318
 30
0.0
 10
3.6100147195
 20
3.2734350358
 30
0.0
 10
3.7027893305
 20
3.2751011891
 30
0.0
 10
3.808428359
 20
3.2767717158
 30
0.0
 10
3.9261626829
 20
3.278445637
 30
0.0
 10
4.0551516337
 20
3.2801220565
 30
0.0
 10
4.2468896208
 20
3.2824309044
 30
0.0
 10
4.507121529
 20
3.2852690735
 30
0.0
 10
4.8386955767
 20
3.2885895508
 30
0.0
 10
5.1889848234
 20
3.291915128
 30
0.0
 10
5.4880899238
 20
3.2946883345
 30
0.0
 10
5.72913692
 20
3.2969309948
 30
0.0
 10
5.9082094732
 20
3.2986129545
 30
0.0
 10
6.0842724566
 20
3.3002946783
 30
0.0
 10
6.2560595848
 20
3.3019761217
 30
0.0
 10
6.4223337243
 20
3.3036570618
 30
0.0
 10
6.5818992864
 20
3.3053374491
 30
0.0
 10
6.7336071843
 20
3.3070169794
 30
0.0
 10
6.8763661796
 20
3.3086953997
 30
0.0
 10
7.0091491307
 20
3.310372453
 30
0.0
 10
7.1131255191
 20
3.3118014256
 30
0.0
 10
7.1906083489
 20
3.3129531688
 30
0.0
 10
7.2441978871
 20
3.3137951244
 30
0.0
 10
7.2946306673
 20
3.3146367267
 30
0.0
 10
7.3418151977
 20
3.3154779888
 30
0.0
 10
7.3856664411
 20
3.3163188918
 30
0.0
 10
7.4261061931
 20
3.3171591842
 30
0.0
 10
7.4630614812
 20
3.3179986775
 30
0.0
 10
7.4964652171
 20
3.3188372484
 30
0.0
 10
7.5262576822
 20
3.3196745632
 30
0.0
 10
7.5488026808
 20
3.320394891
 30
0.0
 10
7.5649933855
 20
3.3209777987
 30
0.0
 10
7.5757391681
 20
3.3213981913
 30
0.0
 10
7.5855458421
 20
3.3218182423
 30
0.0
 10
7.5944096404
 20
3.322237858
 30
0.0
 10
7.6023271045
 20
3.3226568496
 30
0.0
 10
7.6092947805
 20
3.3230750143
 30
0.0
 10
7.6153093344
 20
3.3234917584
 30
0.0
 10
7.6203674638
 20
3.3239068326
 30
0.0
 10
7.6239821158
 20
3.3242688945
 30
0.0
 10
7.6263921082
 20
3.3245669299
 30
0.0
 10
7.6278410998
 20
3.3247753111
 30
0.0
 10
7.6290499409
 20
3.3249827369
 30
0.0
 10
7.63002009
 20
3.3251882574
 30
0.0
 10
7.6307507898
 20
3.3253916284
 30
0.0
 10
7.6311528579
 20
3.3255494847
 30
0.0
 10
7.6313058169
 20
3.3256377622
 30
0.0
  0
SPLINE
  5
2B6
100
AcDbEntity
  8
0
100
AcDbSpline
 62
7
  6
CONTINUOUS
 70
0
 71
3
 72
25
 73
21
 74
0
 42
0.0000001
 43
0.0000001
 44
0.0000000001
 40
0.0
 40
0.0
 40
0.0
 40
0.0
 40
0.192469947
 40
0.37796524
 40
0.4656279106
 40
0.5488281489
 40
0.6267900259
 40
0.6988014046
 40
0.7642007854
 40
0.8223366288
 40
0.8726718223
 40
0.9148224437
 40
0.9327231659
 40
0.9484585193
 40
0.9620164844
 40
0.9734175655
 40
0.9827121197
 40
0.9900118249
 40
0.9955736113
 40
1.0
 40
1.0
 40
1.0
 40
1.0
 10
5.6947413501
 20
4.2802406058
 30
0.0
 10
5.6947413501
 20
4.2763419443
 30
0.0
 10
5.6946754532
 20
4.2686857584
 30
0.0
 10
5.694429244
 20
4.2592566385
 30
0.0
 10
5.694129889
 20
4.2520443521
 30
0.0
 10
5.6938654788
 20
4.2470109941
 30
0.0
 10
5.6935590902
 20
4.2422976541
 30
0.0
 10
5.69321396
 20
4.2379485743
 30
0.0
 10
5.692834279
 20
4.2340056174
 30
0.0
 10
5.6924238863
 20
4.23050734
 30
0.0
 10
5.6919865624
 20
4.2274874781
 30
0.0
 10
5.6915865432
 20
4.22528665
 30
0.0
 10
5.6912472836
 20
4.2237892229
 30
0.0
 10
5.6910028618
 20
4.2228647782
 30
0.0
 10
5.6907551655
 20
4.2220781364
 30
0.0
 10
5.6905051172
 20
4.221430316
 30
0.0
 10
5.6902537392
 20
4.220920602
 30
0.0
 10
5.6899998457
 20
4.2205482861
 30
0.0
 10
5.6897394709
 20
4.2203061669
 30
0.0
 10
5.6895368932
 20
4.2202406058
 30
0.0
 10
5.6894472325
 20
4.2202406058
 30
0.0
  0
SPLINE
  5
2B7
100
AcDbEntity
  8
0
100
AcDbSpline
 62
7
  6
CONTINUOUS
 70
0
 71
3
 72
41
 73
37
 74
0
 42
0.0000001
 43
0.0000001
 44
0.0000000001
 40
0.0
 40
0.0
 40
0.0
 40
0.0
 40
0.1127335791
 40
0.2202745369
 40
0.3221627657
 40
0.4180126407
 40
0.5075037662
 40
0.5903252152
 40
0.6661874872
 40
0.7348083623
 40
0.7663260181
 40
0.7959459074
 40
0.8236412373
 40
0.8493853255
 40
0.8731550141
 40
0.8949316399
 40
0.9146968729
 40
0.9324324461
 40
0.9481203888
 40
0.9617472648
 40
0.9733041814
 40
0.9783038365
 40
0.9827829962
 40
0.9867408107
 40
0.9901765842
 40
0.9930898872
 40
0.9954811245
 40
0.9964816237
 40
0.9973525953
 40
0.998094754
 40
0.9987092673
 40
0.9991982222
 40
0.9995658548
 40
0.999707221
 40
0.9998233563
 40
1.0
 40
1.0
 40
1.0
 40
1.0
 10
6.7258985544
 20
3.6663460335
 30
0.0
 10
6.7599503774
 20
3.6667333709
 30
0.0
 10
6.8264853866
 20
3.6675057963
 30
0.0
 10
6.9237955856
 20
3.6686903811
 30
0.0
 10
7.0160052418
 20
3.6698747296
 30
0.0
 10
7.1027620229
 20
3.6710584949
 30
0.0
 10
7.1837586432
 20
3.6722414213
 30
0.0
 10
7.2587168255
 20
3.6734236049
 30
0.0
 10
7.3273697912
 20
3.6746045742
 30
0.0
 10
7.38052574
 20
3.6756139623
 30
0.0
 10
7.4197141119
 20
3.6764276562
 30
0.0
 10
7.4465417904
 20
3.6770202891
 30
0.0
 10
7.4716249699
 20
3.6776126685
 30
0.0
 10
7.4949404278
 20
3.6782048021
 30
0.0
 10
7.5164673795
 20
3.6787966416
 30
0.0
 10
7.5361875412
 20
3.6793880298
 30
0.0
 10
7.5540840724
 20
3.6799788132
 30
0.0
 10
7.5701402864
 20
3.6805687863
 30
0.0
 10
7.5843409167
 20
3.6811576118
 30
0.0
 10
7.5966733565
 20
3.6817450684
 30
0.0
 10
7.6057770069
 20
3.682253839
 30
0.0
 10
7.6121179108
 20
3.6826680733
 30
0.0
 10
7.6161660934
 20
3.6829631482
 30
0.0
 10
7.6197405057
 20
3.6832576677
 30
0.0
 10
7.6228402009
 20
3.6835513208
 30
0.0
 10
7.6254642873
 20
3.6838439508
 30
0.0
 10
7.6273520954
 20
3.684098838
 30
0.0
 10
7.6286227525
 20
3.6843079317
 30
0.0
 10
7.6293985739
 20
3.6844549306
 30
0.0
 10
7.630055462
 20
3.6846014709
 30
0.0
 10
7.630593999
 20
3.6847470813
 30
0.0
 10
7.6310143414
 20
3.68489209
 30
0.0
 10
7.6312888482
 20
3.6850197858
 30
0.0
 10
7.6314447015
 20
3.6851281272
 30
0.0
 10
7.631539758
 20
3.685217607
 30
0.0
 10
7.6315828852
 20
3.6853044802
 30
0.0
 10
7.6315829102
 20
3.6853578399
 30
0.0
  0
SPLINE
  5
2B8
100
AcDbEntity
  8
0
100
AcDbSpline
 62
7
  6
CONTINUOUS
 70
0
 71
3
 72
37
 73
33
 74
0
 42
0.0000001
 43
0.0000001
 44
0.0000000001
 40
0.0
 40
0.0
 40
0.0
 40
0.0
 40
0.1109309454
 40
0.2168477697
 40
0.3173121854
 40
0.411953182
 40
0.5004654775
 40
0.582551998
 40
0.6579363339
 40
0.7263486632
 40
0.7875526515
 40
0.8153873634
 40
0.8413432598
 40
0.8653965225
 40
0.8875286126
 40
0.9077220852
 40
0.9259595465
 40
0.9422236802
 40
0.9564991376
 40
0.9687764255
 40
0.9741632363
 40
0.9790475303
 40
0.9834284138
 40
0.9873050843
 40
0.9906768856
 40
0.9935434142
 40
0.9959050473
 40
0.9977638031
 40
0.9985059487
 40
0.9991245017
 40
0.9996213074
 40
1.0
 40
1.0
 40
1.0
 40
1.0
 10
6.7258985544
 20
3.6819460335
 30
0.0
 10
6.759389679
 20
3.682326993
 30
0.0
 10
6.8248579464
 20
3.683086784
 30
0.0
 10
6.9206566843
 20
3.6842515574
 30
0.0
 10
7.0115366329
 20
3.6854161143
 30
0.0
 10
7.0971611978
 20
3.6865801469
 30
0.0
 10
7.1772364068
 20
3.6877433704
 30
0.0
 10
7.2514968209
 20
3.6889059533
 30
0.0
 10
7.3196876878
 20
3.6900673488
 30
0.0
 10
7.3815725306
 20
3.6912274953
 30
0.0
 10
7.429101257
 20
3.6922215267
 30
0.0
 10
7.4638122238
 20
3.6930238944
 30
0.0
 10
7.487308359
 20
3.6936062137
 30
0.0
 10
7.5090821461
 20
3.694188274
 30
0.0
 10
7.529115429
 20
3.6947699656
 30
0.0
 10
7.5473919643
 20
3.6953511469
 30
0.0
 10
7.5638958325
 20
3.6959316635
 30
0.0
 10
7.5786116997
 20
3.6965112089
 30
0.0
 10
7.5915264848
 20
3.6970896883
 30
0.0
 10
7.6011571511
 20
3.6975893747
 30
0.0
 10
7.6079531077
 20
3.6979950044
 30
0.0
 10
7.6123674549
 20
3.6982855254
 30
0.0
 10
7.6163247847
 20
3.6985756572
 30
0.0
 10
7.6198241345
 20
3.6988652563
 30
0.0
 10
7.6228645351
 20
3.6991541483
 30
0.0
 10
7.6254453427
 20
3.6994417331
 30
0.0
 10
7.6275660079
 20
3.6997279303
 30
0.0
 10
7.6290439558
 20
3.6999784678
 30
0.0
 10
7.6299936253
 20
3.7001865822
 30
0.0
 10
7.6305361374
 20
3.7003300789
 30
0.0
 10
7.630964311
 20
3.7004725912
 30
0.0
 10
7.6312068404
 20
3.7005805621
 30
0.0
 10
7.631305842
 20
3.7006377631
 30
0.0
  0
SPLINE
  5
2B9
100
AcDbEntity
  8
0
100
AcDbSpline
 62
7
  6
CONTINUOUS
 70
0
 71
3
 72
25
 73
21
 74
0
 42
0.0000001
 43
0.0000001
 44
0.0000000001
 40
0.0
 40
0.0
 40
0.0
 40
0.0
 40
0.1943799726
 40
0.3816666463
 40
0.4701392289
 40
0.5540721481
 40
0.6326726714
 40
0.7052113411
 40
0.7710074615
 40
0.8293854312
 40
0.8797775309
 40
0.921756635
 40
0.9549126759
 40
0.9789331091
 40
0.9874903644
 40
0.9909087753
 40
0.9937594191
 40
0.9960532474
 40
0.9978140183
 40
1.0
 40
1.0
 40
1.0
 40
1.0
 10
5.3977948039
 20
4.2802406058
 30
0.0
 10
5.3977947803
 20
4.2763420806
 30
0.0
 10
5.3978226667
 20
4.2686872693
 30
0.0
 10
5.3979268772
 20
4.2592585275
 30
0.0
 10
5.3980535782
 20
4.2520455569
 30
0.0
 10
5.3981654678
 20
4.2470125504
 30
0.0
 10
5.3982951184
 20
4.2422996536
 30
0.0
 10
5.3984411549
 20
4.2379511729
 30
0.0
 10
5.3986017928
 20
4.234009096
 30
0.0
 10
5.3987753768
 20
4.230512194
 30
0.0
 10
5.3989602798
 20
4.2274943472
 30
0.0
 10
5.3991532421
 20
4.2249839052
 30
0.0
 10
5.3993525805
 20
4.2230052241
 30
0.0
 10
5.399533076
 20
4.2216982529
 30
0.0
 10
5.3996790047
 20
4.2209909028
 30
0.0
 10
5.3997568896
 20
4.220703597
 30
0.0
 10
5.3998101818
 20
4.2205407283
 30
0.0
 10
5.3998648686
 20
4.2204117599
 30
0.0
 10
5.3999237937
 20
4.2203056846
 30
0.0
 10
5.3999916253
 20
4.2202406058
 30
0.0
 10
5.4000354678
 20
4.2202406058
 30
0.0
  0
SPLINE
  5
2BA
100
AcDbEntity
  8
0
100
AcDbSpline
 62
7
  6
CONTINUOUS
 70
0
 71
3
 72
25
 73
21
 74
0
 42
0.0000001
 43
0.0000001
 44
0.0000000001
 40
0.0
 40
0.0
 40
0.0
 40
0.0
 40
0.1943799726
 40
0.3816666463
 40
0.4701392289
 40
0.5540721481
 40
0.6326726714
 40
0.7052113411
 40
0.7710074615
 40
0.8293854312
 40
0.8797775309
 40
0.921756635
 40
0.9549126759
 40
0.9789331091
 40
0.9874903644
 40
0.9909087753
 40
0.9937594191
 40
0.9960532474
 40
0.9978140183
 40
1.0
 40
1.0
 40
1.0
 40
1.0
 10
5.5822761317
 20
4.2802406058
 30
0.0
 10
5.5822761553
 20
4.2763420806
 30
0.0
 10
5.5822482689
 20
4.2686872693
 30
0.0
 10
5.5821440583
 20
4.2592585275
 30
0.0
 10
5.5820173574
 20
4.2520455569
 30
0.0
 10
5.5819054678
 20
4.2470125504
 30
0.0
 10
5.5817758172
 20
4.2422996536
 30
0.0
 10
5.5816297807
 20
4.2379511729
 30
0.0
 10
5.5814691428
 20
4.234009096
 30
0.0
 10
5.5812955588
 20
4.230512194
 30
0.0
 10
5.5811106558
 20
4.2274943472
 30
0.0
 10
5.5809176935
 20
4.2249839052
 30
0.0
 10
5.5807183551
 20
4.2230052241
 30
0.0
 10
5.5805378596
 20
4.2216982529
 30
0.0
 10
5.5803919308
 20
4.2209909028
 30
0.0
 10
5.580314046
 20
4.220703597
 30
0.0
 10
5.5802607538
 20
4.2205407283
 30
0.0
 10
5.580206067
 20
4.2204117599
 30
0.0
 10
5.5801471418
 20
4.2203056846
 30
0.0
 10
5.5800793103
 20
4.2202406058
 30
0.0
 10
5.5800354678
 20
4.2202406058
 30
0.0
  0
SPLINE
  5
2BB
100
AcDbEntity
  8
0
100
AcDbSpline
 62
7
  6
CONTINUOUS
 70
0
 71
3
 72
52
 73
48
 74
0
 42
0.0000001
 43
0.0000001
 44
0.0000000001
 40
0.0
 40
0.0
 40
0.0
 40
0.0
 40
0.0000258081
 40
0.0000563766
 40
0.0000947198
 40
0.0001423972
 40
0.000268539
 40
0.0004380568
 40
0.0006521119
 40
0.0009112536
 40
0.0012157758
 40
0.0015658481
 40
0.0024029928
 40
0.003423137
 40
0.00462641
 40
0.0060128084
 40
0.0075821994
 40
0.0093341077
 40
0.0112679351
 40
0.0133830669
 40
0.018154724
 40
0.0236439919
 40
0.02984552
 40
0.0367518651
 40
0.0443542656
 40
0.0526439225
 40
0.0616119912
 40
0.0712482432
 40
0.0815406221
 40
0.0924769415
 40
0.1162319324
 40
0.1424022663
 40
0.170865699
 40
0.2014902169
 40
0.2341319639
 40
0.268640041
 40
0.3048520426
 40
0.3426006022
 40
0.3817082167
 40
0.4219937766
 40
0.5053401218
 40
0.5910866148
 40
0.677635123
 40
0.7633736193
 40
0.8467022881
 40
0.9260729251
 40
1.0
 40
1.0
 40
1.0
 40
1.0
 10
3.3484855834
 20
3.6384578406
 30
0.0
 10
3.348485622
 20
3.6384869012
 30
0.0
 10
3.3485019554
 20
3.6385507313
 30
0.0
 10
3.3485667591
 20
3.6386374248
 30
0.0
 10
3.348668214
 20
3.6387218432
 30
0.0
 10
3.3488734365
 20
3.638845294
 30
0.0
 10
3.3492331701
 20
3.6389913613
 30
0.0
 10
3.349782945
 20
3.6391566909
 30
0.0
 10
3.3504876859
 20
3.6393231118
 30
0.0
 10
3.351347355
 20
3.6394906121
 30
0.0
 10
3.352362543
 20
3.6396586986
 30
0.0
 10
3.3540252543
 20
3.6398978517
 30
0.0
 10
3.3564939963
 20
3.6401893246
 30
0.0
 10
3.3599240977
 20
3.6405240108
 30
0.0
 10
3.3639750618
 20
3.6408598757
 30
0.0
 10
3.3686462056
 20
3.6411967335
 30
0.0
 10
3.373936494
 20
3.641534159
 30
0.0
 10
3.3798442818
 20
3.6418720383
 30
0.0
 10
3.3863674713
 20
3.6422102719
 30
0.0
 10
3.3962885918
 20
3.6426807128
 30
0.0
 10
3.4102123595
 20
3.6432613306
 30
0.0
 10
3.4287373212
 20
3.6439349699
 30
0.0
 10
3.4496673602
 20
3.6446096662
 30
0.0
 10
3.4729779067
 20
3.6452853011
 30
0.0
 10
3.4986406114
 20
3.6459616313
 30
0.0
 10
3.5266255903
 20
3.6466384943
 30
0.0
 10
3.5569013459
 20
3.6473157109
 30
0.0
 10
3.5894327346
 20
3.6479931874
 30
0.0
 10
3.6241808667
 20
3.6486709582
 30
0.0
 10
3.6748251387
 20
3.6496007845
 30
0.0
 10
3.7433472596
 20
3.6507541319
 30
0.0
 10
3.8316047215
 20
3.6521046248
 30
0.0
 10
3.9275982587
 20
3.6534563654
 30
0.0
 10
4.0308794271
 20
3.6548090502
 30
0.0
 10
4.1409675557
 20
3.6561625538
 30
0.0
 10
4.2573477767
 20
3.6575165455
 30
0.0
 10
4.3794787637
 20
3.6588710848
 30
0.0
 10
4.5067892501
 20
3.6602258873
 30
0.0
 10
4.6386869143
 20
3.6615810661
 30
0.0
 10
4.8219267105
 20
3.6634088769
 30
0.0
 10
5.0576813089
 20
3.6656761382
 30
0.0
 10
5.3455274889
 20
3.6683685204
 30
0.0
 10
5.6360674052
 20
3.6710613117
 30
0.0
 10
5.9238846759
 20
3.6737536579
 30
0.0
 10
6.2036191343
 20
3.6764445061
 30
0.0
 10
6.4700530119
 20
3.6791327543
 30
0.0
 10
6.6426601401
 20
3.6809992018
 30
0.0
 10
6.7258985544
 20
3.6819460335
 30
0.0
  0
SPLINE
  5
2BC
100
AcDbEntity
  8
0
100
AcDbSpline
 62
7
  6
CONTINUOUS
 70
0
 71
3
 72
76
 73
72
 74
0
 42
0.0000001
 43
0.0000001
 44
0.0000000001
 40
0.0
 40
0.0
 40
0.0
 40
0.0
 40
0.0000673768
 40
0.0001213783
 40
0.0001917279
 40
0.0002792348
 40
0.0003843093
 40
0.0005071829
 40
0.0006479967
 40
0.0009837654
 40
0.0013920678
 40
0.0018731118
 40
0.0024270028
 40
0.0037534813
 40
0.0053715753
 40
0.0072805478
 40
0.0094791207
 40
0.0119659472
 40
0.0147396475
 40
0.0177988217
 40
0.0211420267
 40
0.0247672909
 40
0.0286721954
 40
0.037311168
 40
0.0470393861
 40
0.057834769
 40
0.0696706075
 40
0.0825196591
 40
0.0963524451
 40
0.1111351812
 40
0.1268335737
 40
0.1434113905
 40
0.1608285081
 40
0.1790443258
 40
0.2176997955
 40
0.2590133321
 40
0.302596093
 40
0.3480386325
 40
0.394912768
 40
0.4427775191
 40
0.4911826732
 40
0.5396724432
 40
0.5877907999
 40
0.6350846708
 40
0.6811090835
 40
0.7254313068
 40
0.767633563
 40
0.8073191999
 40
0.8441151792
 40
0.8776742248
 40
0.8931406654
 40
0.9076814642
 40
0.9212636058
 40
0.9338549778
 40
0.9454248652
 40
0.9559473708
 40
0.9653976517
 40
0.9737523194
 40
0.980993193
 40
0.984190661
 40
0.9871033346
 40
0.9897293066
 40
0.9920673623
 40
0.9941164631
 40
0.9958756131
 40
0.997343894
 40
0.9985205418
 40
0.998999393
 40
0.9994053801
 40
0.9997387573
 40
1.0
 40
1.0
 40
1.0
 40
1.0
 10
3.3484858179
 20
3.5134578409
 30
0.0
 10
3.3484860169
 20
3.5135540249
 30
0.0
 10
3.3486266407
 20
3.5137033405
 30
0.0
 10
3.3488582468
 20
3.5138335337
 30
0.0
 10
3.3491392924
 20
3.5139540923
 30
0.0
 10
3.3494948868
 20
3.5140718015
 30
0.0
 10
3.3499296
 20
3.5141912661
 30
0.0
 10
3.3504422922
 20
3.5143106616
 30
0.0
 10
3.351281171
 20
3.5144804875
 30
0.0
 10
3.3525276141
 20
3.514687564
 30
0.0
 10
3.3542604223
 20
3.5149254029
 30
0.0
 10
3.3563069695
 20
3.5151640718
 30
0.0
 10
3.3596609375
 20
3.5155039411
 30
0.0
 10
3.3646383517
 20
3.515917963
 30
0.0
 10
3.3715508646
 20
3.516393276
 30
0.0
 10
3.379710732
 20
3.5168702842
 30
0.0
 10
3.3891124718
 20
3.5173487751
 30
0.0
 10
3.39975002
 20
3.5178281429
 30
0.0
 10
3.4116172016
 20
3.5183081733
 30
0.0
 10
3.424707794
 20
3.5187886777
 30
0.0
 10
3.4390147752
 20
3.5192694985
 30
0.0
 10
3.4545297011
 20
3.5197505982
 30
0.0
 10
3.4776025355
 20
3.5204149709
 30
0.0
 10
3.5093866622
 20
3.521237497
 30
0.0
 10
3.5510069219
 20
3.5221960268
 30
0.0
 10
3.5971919538
 20
3.5231556217
 30
0.0
 10
3.6478330013
 20
3.5241163106
 30
0.0
 10
3.7028108185
 20
3.5250776859
 30
0.0
 10
3.7619960877
 20
3.5260395226
 30
0.0
 10
3.8252494474
 20
3.5270018708
 30
0.0
 10
3.892421917
 20
3.527964561
 30
0.0
 10
3.9633554796
 20
3.5289274553
 30
0.0
 10
4.0378831219
 20
3.5298906559
 30
0.0
 10
4.1439260137
 20
3.5312012126
 30
0.0
 10
4.2840810852
 20
3.5328288422
 30
0.0
 10
4.4604479412
 20
3.5347471825
 30
0.0
 10
4.6465042588
 20
3.5366667201
 30
0.0
 10
4.840499045
 20
3.5385871256
 30
0.0
 10
5.0406069017
 20
3.5405081606
 30
0.0
 10
5.2449442476
 20
3.5424295898
 30
0.0
 10
5.4515881035
 20
3.5443512093
 30
0.0
 10
5.6585940111
 20
3.5462728772
 30
0.0
 10
5.8640134308
 20
3.5481943902
 30
0.0
 10
6.065913258
 20
3.5501155913
 30
0.0
 10
6.2623936403
 20
3.5520362788
 30
0.0
 10
6.4516050992
 20
3.5539561538
 30
0.0
 10
6.6317671156
 20
3.5558749736
 30
0.0
 10
6.8011843614
 20
3.5577922297
 30
0.0
 10
6.9582621049
 20
3.5597073962
 30
0.0
 10
7.0807663353
 20
3.5613421758
 30
0.0
 10
7.1715012909
 20
3.5626617585
 30
0.0
 10
7.233720217
 20
3.5636240552
 30
0.0
 10
7.2918343031
 20
3.5645858147
 30
0.0
 10
7.345706631
 20
3.5655469399
 30
0.0
 10
7.3952104149
 20
3.5665074244
 30
0.0
 10
7.4402292121
 20
3.5674668556
 30
0.0
 10
7.4806569933
 20
3.5684247196
 30
0.0
 10
7.5163986211
 20
3.5693809733
 30
0.0
 10
7.5432141664
 20
3.5702057098
 30
0.0
 10
7.5622617968
 20
3.5708746656
 30
0.0
 10
7.5747238825
 20
3.5713549167
 30
0.0
 10
7.5859581286
 20
3.5718346447
 30
0.0
 10
7.5959583705
 20
3.5723136037
 30
0.0
 10
7.6047196244
 20
3.5727915239
 30
0.0
 10
7.612237278
 20
3.5732675756
 30
0.0
 10
7.6185066003
 20
3.5737415081
 30
0.0
 10
7.6229472433
 20
3.5741554066
 30
0.0
 10
7.6258703009
 20
3.5744975598
 30
0.0
 10
7.627593273
 20
3.5747352311
 30
0.0
 10
7.6290021728
 20
3.5749714934
 30
0.0
 10
7.6298331356
 20
3.5751480263
 30
0.0
 10
7.6301942417
 20
3.5752412246
 30
0.0
  0
LINE
  5
2BD
100
AcDbEntity
  8
0
100
AcDbLine
 62
7
  6
CONTINUOUS
 10
7.6301942417
 20
3.5752412246
 11
7.6313057545
 21
3.5756377628
  0
SPLINE
  5
2BE
100
AcDbEntity
  8
0
100
AcDbSpline
 62
7
  6
CONTINUOUS
 70
0
 71
3
 72
75
 73
71
 74
0
 42
0.0000001
 43
0.0000001
 44
0.0000000001
 40
0.0
 40
0.0
 40
0.0
 40
0.0
 40
0.0000672
 40
0.0001210018
 40
0.0001910701
 40
0.0002782139
 40
0.0003828439
 40
0.0005051922
 40
0.000645401
 40
0.0009797231
 40
0.0013862689
 40
0.0018652529
 40
0.002416787
 40
0.003737686
 40
0.0053490153
 40
0.0072498996
 40
0.0094391063
 40
0.0119153457
 40
0.0146772949
 40
0.0177236111
 40
0.0210528459
 40
0.0246629052
 40
0.0285514185
 40
0.0371542963
 40
0.0468423632
 40
0.0575933732
 40
0.0693809241
 40
0.0821782529
 40
0.0959558266
 40
0.1106802001
 40
0.1263175841
 40
0.1428317973
 40
0.1601830814
 40
0.1783313516
 40
0.216847408
 40
0.2580185705
 40
0.3014588808
 40
0.3467620733
 40
0.3935032159
 40
0.4412444344
 40
0.4895387043
 40
0.5379332689
 40
0.5859749879
 40
0.6332135387
 40
0.6792063679
 40
0.7235229858
 40
0.7657475218
 40
0.8054847905
 40
0.8423629784
 40
0.8760355596
 40
0.8915705977
 40
0.9061879241
 40
0.9198544993
 40
0.9325380974
 40
0.9442079624
 40
0.9548380881
 40
0.9644034405
 40
0.9728804896
 40
0.9802508535
 40
0.9864973132
 40
0.9891939321
 40
0.9916042444
 40
0.993727162
 40
0.9955616338
 40
0.9971066733
 40
0.9983614194
 40
0.998879769
 40
0.9993255054
 40
0.9996988086
 40
1.0
 40
1.0
 40
1.0
 40
1.0
 10
3.3484861334
 20
3.3884578411
 30
0.0
 10
3.3484863749
 20
3.3885537594
 30
0.0
 10
3.3486262536
 20
3.3887027069
 30
0.0
 10
3.3488569462
 20
3.3888326989
 30
0.0
 10
3.3491367186
 20
3.3889529864
 30
0.0
 10
3.3494907152
 20
3.3890704448
 30
0.0
 10
3.3499234588
 20
3.3891896462
 30
0.0
 10
3.3504338302
 20
3.3893087802
 30
0.0
 10
3.3512689103
 20
3.3894782317
 30
0.0
 10
3.3525097413
 20
3.3896848538
 30
0.0
 10
3.3542347934
 20
3.3899221695
 30
0.0
 10
3.3562722424
 20
3.3901603131
 30
0.0
 10
3.3596114737
 20
3.3904994401
 30
0.0
 10
3.3645672126
 20
3.3909125444
 30
0.0
 10
3.3714496019
 20
3.3913867868
 30
0.0
 10
3.3795737653
 20
3.3918627564
 30
0.0
 10
3.3889341734
 20
3.3923401964
 30
0.0
 10
3.3995249902
 20
3.3928185119
 30
0.0
 10
3.411340286
 20
3.3932974869
 30
0.0
 10
3.4243739948
 20
3.39377693
 30
0.0
 10
3.4386189941
 20
3.3942566788
 30
0.0
 10
3.4540667269
 20
3.3947367227
 30
0.0
 10
3.4770397393
 20
3.3953996384
 30
0.0
 10
3.5086872277
 20
3.3962203709
 30
0.0
 10
3.5501295453
 20
3.3971767641
 30
0.0
 10
3.5961185978
 20
3.3981342537
 30
0.0
 10
3.646546531
 20
3.3990928373
 30
0.0
 10
3.7012951612
 20
3.4000520789
 30
0.0
 10
3.7602362788
 20
3.4010118013
 30
0.0
 10
3.8232316685
 20
3.4019720379
 30
0.0
 10
3.8901336475
 20
3.4029325968
 30
0.0
 10
3.9607855337
 20
3.4038933725
 30
0.0
 10
4.0350216677
 20
3.4048544576
 30
0.0
 10
4.140660471
 20
3.4061621653
 30
0.0
 10
4.2802974704
 20
3.4077862865
 30
0.0
 10
4.4560343181
 20
3.4097004099
 30
0.0
 10
4.6414593784
 20
3.4116157399
 30
0.0
 10
4.834835198
 20
3.413531937
 30
0.0
 10
5.0343502443
 20
3.4154487615
 30
0.0
 10
5.2381348214
 20
3.4173659869
 30
0.0
 10
5.444279527
 20
3.4192834046
 30
0.0
 10
5.6508531729
 20
3.4212008764
 30
0.0
 10
5.8559198644
 20
3.4231182026
 30
0.0
 10
6.0575582673
 20
3.4250352243
 30
0.0
 10
6.253879371
 20
3.4269517489
 30
0.0
 10
6.4430433295
 20
3.4288674799
 30
0.0
 10
6.6232778877
 20
3.4307821786
 30
0.0
 10
6.792894519
 20
3.4326953571
 30
0.0
 10
6.9503036296
 20
3.4346064956
 30
0.0
 10
7.0731682508
 20
3.4362374001
 30
0.0
 10
7.1642599004
 20
3.4375536589
 30
0.0
 10
7.2267979233
 20
3.4385138919
 30
0.0
 10
7.285265414
 20
3.4394736026
 30
0.0
 10
7.3395252221
 20
3.4404327032
 30
0.0
 10
7.3894502062
 20
3.4413912017
 30
0.0
 10
7.4349234636
 20
3.4423486559
 30
0.0
 10
7.475838345
 20
3.4433047226
 30
0.0
 10
7.5120990198
 20
3.4442589577
 30
0.0
 10
7.5436206407
 20
3.4452106705
 30
0.0
 10
7.5668913882
 20
3.4460349427
 30
0.0
 10
7.5830828749
 20
3.4467068058
 30
0.0
 10
7.5933914371
 20
3.4471849973
 30
0.0
 10
7.6024679675
 20
3.4476621981
 30
0.0
 10
7.610307633
 20
3.4481377866
 30
0.0
 10
7.6169055285
 20
3.4486114807
 30
0.0
 10
7.6216240663
 20
3.4490245302
 30
0.0
 10
7.6247729306
 20
3.449364602
 30
0.0
 10
7.6266671513
 20
3.4496023761
 30
0.0
 10
7.6282486464
 20
3.4498390443
 30
0.0
 10
7.6291958006
 20
3.450013879
 30
0.0
 10
7.6296159429
 20
3.4501049933
 30
0.0
  0
LINE
  5
2BF
100
AcDbEntity
  8
0
100
AcDbLine
 62
7
  6
CONTINUOUS
 10
7.6296159429
 20
3.4501049933
 11
7.6313057411
 21
3.4506377625
  0
SPLINE
  5
2C0
100
AcDbEntity
  8
0
100
AcDbSpline
 62
7
  6
CONTINUOUS
 70
0
 71
3
 72
47
 73
43
 74
0
 42
0.0000001
 43
0.0000001
 44
0.0000000001
 40
0.0
 40
0.0
 40
0.0
 40
0.0
 40
0.0001202216
 40
0.0002829677
 40
0.000489501
 40
0.0007404105
 40
0.0010360084
 40
0.001376474
 40
0.0021923785
 40
0.0031886013
 40
0.0043652857
 40
0.0057224377
 40
0.0072599511
 40
0.0089773953
 40
0.0108741883
 40
0.0152034023
 40
0.0202426852
 40
0.025987016
 40
0.0324305754
 40
0.0395652247
 40
0.0473823658
 40
0.0558733866
 40
0.0650294114
 40
0.0748395174
 40
0.0963743126
 40
0.1203808268
 40
0.1467474413
 40
0.1753538742
 40
0.2060684125
 40
0.2387497277
 40
0.273248278
 40
0.3094045815
 40
0.3470536503
 40
0.3860212178
 40
0.4261294273
 40
0.5090236552
 40
0.5942143675
 40
0.6801370142
 40
0.7652147715
 40
0.8478831181
 40
0.9266292461
 40
1.0
 40
1.0
 40
1.0
 40
1.0
 10
3.3487634215
 20
3.6231779187
 30
0.0
 10
3.3488806826
 20
3.6232455264
 30
0.0
 10
3.3491753829
 20
3.6233709394
 30
0.0
 10
3.3497016943
 20
3.623534719
 30
0.0
 10
3.3503806153
 20
3.6236998653
 30
0.0
 10
3.3512121058
 20
3.6238660376
 30
0.0
 10
3.352196828
 20
3.6240328464
 30
0.0
 10
3.3538143085
 20
3.6242703724
 30
0.0
 10
3.3562208921
 20
3.624559715
 30
0.0
 10
3.3595696219
 20
3.6248918554
 30
0.0
 10
3.3635301594
 20
3.6252251896
 30
0.0
 10
3.3681018601
 20
3.6255595349
 30
0.0
 10
3.3732837753
 20
3.6258944474
 30
0.0
 10
3.3790743517
 20
3.6262298462
 30
0.0
 10
3.3880054689
 20
3.6266983957
 30
0.0
 10
3.4006758325
 20
3.6272753531
 30
0.0
 10
3.4176780061
 20
3.6279431717
 30
0.0
 10
3.4370622296
 20
3.6286123546
 30
0.0
 10
3.458806781
 20
3.6292825669
 30
0.0
 10
3.4828860355
 20
3.629953578
 30
0.0
 10
3.5092712772
 20
3.6306251999
 30
0.0
 10
3.5379330062
 20
3.631297273
 30
0.0
 10
3.5688391343
 20
3.6319696506
 30
0.0
 10
3.614428885
 20
3.6328955555
 30
0.0
 10
3.6767373777
 20
3.6340425236
 30
0.0
 10
3.7576859494
 20
3.6353817459
 30
0.0
 10
3.8465972899
 20
3.6367226132
 30
0.0
 10
3.9430618196
 20
3.6380646686
 30
0.0
 10
4.0466365622
 20
3.6394076351
 30
0.0
 10
4.1568456272
 20
3.6407513246
 30
0.0
 10
4.2731818841
 20
3.6420955068
 30
0.0
 10
4.3951115792
 20
3.6434401801
 30
0.0
 10
4.5220731363
 20
3.6447851152
 30
0.0
 10
4.6534842977
 20
3.6461304004
 30
0.0
 10
4.8358338953
 20
3.6479442248
 30
0.0
 10
5.0702233812
 20
3.6501944736
 30
0.0
 10
5.356192681
 20
3.6528674452
 30
0.0
 10
5.6446204731
 20
3.655540782
 30
0.0
 10
5.9302082688
 20
3.6582136594
 30
0.0
 10
6.2077158291
 20
3.6608850583
 30
0.0
 10
6.4720421102
 20
3.6635539134
 30
0.0
 10
6.6432973119
 20
3.6654064496
 30
0.0
 10
6.7258985544
 20
3.6663460335
 30
0.0
  0
LINE
  5
2C1
100
AcDbEntity
  8
0
100
AcDbLine
 62
7
  6
CONTINUOUS
 10
3.3487626732
 20
2.62317792
 11
3.3492634631
 21
2.6233941179
  0
SPLINE
  5
2C2
100
AcDbEntity
  8
0
100
AcDbSpline
 62
7
  6
CONTINUOUS
 70
0
 71
3
 72
11
 73
7
 74
0
 42
0.0000001
 43
0.0000001
 44
0.0000000001
 40
0.0
 40
0.0
 40
0.0
 40
0.0
 40
0.1643208483
 40
0.3853792859
 40
0.6638335379
 40
1.0
 40
1.0
 40
1.0
 40
1.0
 10
3.3492634631
 20
2.6233941179
 30
0.0
 10
3.3495460359
 20
2.6234915253
 30
0.0
 10
3.3502251122
 20
2.6236709279
 30
0.0
 10
3.351409413
 20
2.6239067885
 30
0.0
 10
3.352911159
 20
2.6241445164
 30
0.0
 10
3.3540196314
 20
2.6242903353
 30
0.0
 10
3.3546265463
 20
2.6243648192
 30
0.0
  0
SPLINE
  5
2C3
100
AcDbEntity
  8
0
100
AcDbSpline
 62
7
  6
CONTINUOUS
 70
0
 71
3
 72
70
 73
66
 74
0
 42
0.0000001
 43
0.0000001
 44
0.0000000001
 40
0.0
 40
0.0
 40
0.0
 40
0.0
 40
0.0010566893
 40
0.002397916
 40
0.0040231196
 40
0.0059315415
 40
0.0081223275
 40
0.0105945722
 40
0.0163785381
 40
0.0232693078
 40
0.0312510065
 40
0.0403068126
 40
0.0504149773
 40
0.0615520264
 40
0.0736937912
 40
0.1008748871
 40
0.1317098919
 40
0.1659148599
 40
0.2031769109
 40
0.2431545932
 40
0.2854804684
 40
0.3297670615
 40
0.3756080883
 40
0.4225828243
 40
0.4702608578
 40
0.5182046407
 40
0.565974622
 40
0.6131326418
 40
0.6592460378
 40
0.7038923663
 40
0.7466616009
 40
0.7871616973
 40
0.8250218142
 40
0.8428516584
 40
0.8598937252
 40
0.87610863
 40
0.8914583569
 40
0.9059088487
 40
0.9194267637
 40
0.9319800785
 40
0.9435412568
 40
0.9540837263
 40
0.9635821389
 40
0.9720160454
 40
0.975827813
 40
0.9793662633
 40
0.9826291181
 40
0.9856147378
 40
0.9883217144
 40
0.9907486537
 40
0.9928941817
 40
0.9947569576
 40
0.9963357738
 40
0.9976301474
 40
0.9981706784
 40
0.9986401518
 40
0.9990386691
 40
0.9993664342
 40
0.999503913
 40
0.9996238952
 40
0.9997265216
 40
0.9998120227
 40
0.999880807
 40
0.9999336791
 40
1.0
 40
1.0
 40
1.0
 40
1.0
 10
3.3546265463
 20
2.6243648192
 30
0.0
 10
3.3561221138
 20
2.6245483634
 30
0.0
 10
3.359524286
 20
2.6248960798
 30
0.0
 10
3.3652421917
 20
2.6253626968
 30
0.0
 10
3.3721778312
 20
2.6258319878
 30
0.0
 10
3.3803270257
 20
2.6263033415
 30
0.0
 10
3.3896857453
 20
2.6267759348
 30
0.0
 10
3.4045677979
 20
2.6274425361
 30
0.0
 10
3.4261514771
 20
2.6282585234
 30
0.0
 10
3.4555916327
 20
2.6291990816
 30
0.0
 10
3.4896992441
 20
2.6301424483
 30
0.0
 10
3.5283961649
 20
2.6310878916
 30
0.0
 10
3.5715936224
 20
2.6320348155
 30
0.0
 10
3.6191924332
 20
2.6329829495
 30
0.0
 10
3.6911338479
 20
2.6342979735
 30
0.0
 10
3.7911625525
 20
2.6359194081
 30
0.0
 10
3.9226518954
 20
2.6378048833
 30
0.0
 10
4.0685174718
 20
2.6396939303
 30
0.0
 10
4.2274210226
 20
2.6415856582
 30
0.0
 10
4.3979053347
 20
2.6434791779
 30
0.0
 10
4.5784068696
 20
2.6453740814
 30
0.0
 10
4.7672696798
 20
2.6472699055
 30
0.0
 10
4.9627618559
 20
2.6491664004
 30
0.0
 10
5.1630902795
 20
2.6510633637
 30
0.0
 10
5.3664172614
 20
2.652960569
 30
0.0
 10
5.5708782729
 20
2.6548578846
 30
0.0
 10
5.7745977383
 20
2.6567551314
 30
0.0
 10
5.9757070483
 20
2.6586521468
 30
0.0
 10
6.1723619819
 20
2.6605487735
 30
0.0
 10
6.3627584266
 20
2.6624447545
 30
0.0
 10
6.5451501742
 20
2.664339846
 30
0.0
 10
6.7178645746
 20
2.6662337904
 30
0.0
 10
6.855017579
 20
2.6678409652
 30
0.0
 10
6.9587218869
 20
2.6691350776
 30
0.0
 10
7.0315630304
 20
2.6700859435
 30
0.0
 10
7.100867334
 20
2.6710365399
 30
0.0
 10
7.1664758134
 20
2.6719869469
 30
0.0
 10
7.2282380944
 20
2.6729369668
 30
0.0
 10
7.2860123325
 20
2.6738865151
 30
0.0
 10
7.3396659611
 20
2.6748356313
 30
0.0
 10
7.3890760459
 20
2.6757840079
 30
0.0
 10
7.4341291395
 20
2.6767313375
 30
0.0
 10
7.47472183
 20
2.6776776552
 30
0.0
 10
7.5057172852
 20
2.6784896635
 30
0.0
 10
7.5282151446
 20
2.6791455594
 30
0.0
 10
7.5433414368
 20
2.6796205041
 30
0.0
 10
7.5572890647
 20
2.6800951969
 30
0.0
 10
7.5700503197
 20
2.6805695521
 30
0.0
 10
7.5816187182
 20
2.6810434389
 30
0.0
 10
7.5919881111
 20
2.6815166694
 30
0.0
 10
7.6011523545
 20
2.681989034
 30
0.0
 10
7.6091055084
 20
2.6824599327
 30
0.0
 10
7.6158425636
 20
2.6829292066
 30
0.0
 10
7.6206935219
 20
2.6833379309
 30
0.0
 10
7.6239623709
 20
2.6836734437
 30
0.0
 10
7.6259571002
 20
2.683909062
 30
0.0
 10
7.627646079
 20
2.6841438619
 30
0.0
 10
7.6288609858
 20
2.6843482908
 30
0.0
 10
7.6296786151
 20
2.6845159373
 30
0.0
 10
7.6301783577
 20
2.6846338119
 30
0.0
 10
7.6306020795
 20
2.6847517497
 30
0.0
 10
7.6309487306
 20
2.6848679867
 30
0.0
 10
7.6312226102
 20
2.6849869909
 30
0.0
 10
7.6314489271
 20
2.6851158912
 30
0.0
 10
7.6315852301
 20
2.6852632694
 30
0.0
 10
7.6315853547
 20
2.6853578398
 30
0.0
  0
LINE
  5
2C4
100
AcDbEntity
  8
0
100
AcDbLine
 62
7
  6
CONTINUOUS
 10
3.3487652017
 20
2.7481779176
 11
3.3504559169
 21
2.748710932
  0
SPLINE
  5
2C5
100
AcDbEntity
  8
0
100
AcDbSpline
 62
7
  6
CONTINUOUS
 70
0
 71
3
 72
75
 73
71
 74
0
 42
0.0000001
 43
0.0000001
 44
0.0000000001
 40
0.0
 40
0.0
 40
0.0
 40
0.0
 40
0.0003012531
 40
0.0006746311
 40
0.0011204596
 40
0.0016389217
 40
0.0028938584
 40
0.004439022
 40
0.0062735837
 40
0.0083965897
 40
0.0108070216
 40
0.0135038236
 40
0.0197505692
 40
0.0271210807
 40
0.0355983861
 40
0.0451639893
 40
0.0557942297
 40
0.0674643013
 40
0.0801481104
 40
0.0938147667
 40
0.1084322487
 40
0.1239674547
 40
0.1576401889
 40
0.1945185152
 40
0.2342559173
 40
0.2764804518
 40
0.3207970613
 40
0.3667898508
 40
0.4140282773
 40
0.462069865
 40
0.5104642534
 40
0.5587583199
 40
0.6064993218
 40
0.6532402017
 40
0.6985431618
 40
0.741983216
 40
0.7831540856
 40
0.8216699294
 40
0.8398180324
 40
0.8571692357
 40
0.8736833434
 40
0.8893205649
 40
0.9040448737
 40
0.9178223612
 40
0.9306195388
 40
0.9424070443
 40
0.9531579917
 40
0.9628459244
 40
0.9714487786
 40
0.975337285
 40
0.9789473152
 40
0.9822764829
 40
0.9853227539
 40
0.9880846945
 40
0.9905609425
 40
0.9927501559
 40
0.9946510259
 40
0.9962623028
 40
0.9975831679
 40
0.9981346999
 40
0.9986136888
 40
0.999020244
 40
0.9993545776
 40
0.9994947921
 40
0.9996171459
 40
0.9997217807
 40
0.9998089283
 40
0.9998789991
 40
0.9999328019
 40
1.0
 40
1.0
 40
1.0
 40
1.0
 10
3.3504559169
 20
2.748710932
 30
0.0
 10
3.3508761494
 20
2.7488020453
 30
0.0
 10
3.3518235015
 20
2.7489768797
 30
0.0
 10
3.3534053262
 20
2.7492135479
 30
0.0
 10
3.3552999485
 20
2.7494513222
 30
0.0
 10
3.3584493817
 20
2.7497913752
 30
0.0
 10
3.3631685302
 20
2.7502044232
 30
0.0
 10
3.3697670029
 20
2.7506781242
 30
0.0
 10
3.377607099
 20
2.7511537162
 30
0.0
 10
3.3866840533
 20
2.7516309184
 30
0.0
 10
3.3969931723
 20
2.7521091113
 30
0.0
 10
3.4131854977
 20
2.7527809549
 30
0.0
 10
3.4364571214
 20
2.7536052232
 30
0.0
 10
3.4679797207
 20
2.7545569522
 30
0.0
 10
3.5042413237
 20
2.7555111728
 30
0.0
 10
3.5451570852
 20
2.75646723
 30
0.0
 10
3.5906311504
 20
2.7574246943
 30
0.0
 10
3.640556885
 20
2.7583831828
 30
0.0
 10
3.6948173947
 20
2.7593422743
 30
0.0
 10
3.7532855132
 20
2.760301991
 30
0.0
 10
3.8158241016
 20
2.7612622163
 30
0.0
 10
3.9069164138
 20
2.7625784648
 30
0.0
 10
4.0297816671
 20
2.7642093687
 30
0.0
 10
4.1871913538
 20
2.7661204989
 30
0.0
 10
4.3568083386
 20
2.7680336662
 30
0.0
 10
4.5370430383
 20
2.7699483615
 30
0.0
 10
4.7262068895
 20
2.7718640839
 30
0.0
 10
4.9225277093
 20
2.7737805995
 30
0.0
 10
5.1241656518
 20
2.7756976158
 30
0.0
 10
5.3292316873
 20
2.7776149332
 30
0.0
 10
5.5358045641
 20
2.7795323979
 30
0.0
 10
5.741948379
 20
2.7814498083
 30
0.0
 10
5.9457319425
 20
2.7833670249
 30
0.0
 10
6.1452459343
 20
2.7852838439
 30
0.0
 10
6.3386206442
 20
2.787200032
 30
0.0
 10
6.5240445535
 20
2.789115353
 30
0.0
 10
6.6997802801
 20
2.791029474
 30
0.0
 10
6.8394162926
 20
2.7926535813
 30
0.0
 10
6.9450544181
 20
2.7939612909
 30
0.0
 10
7.0192900332
 20
2.7949223684
 30
0.0
 10
7.089941408
 20
2.7958831385
 30
0.0
 10
7.1568428991
 20
2.7968437
 30
0.0
 10
7.2198378295
 20
2.7978039282
 30
0.0
 10
7.2787785045
 20
2.7987636438
 30
0.0
 10
7.3335267203
 20
2.7997228904
 30
0.0
 10
7.3839542739
 20
2.8006814646
 30
0.0
 10
7.4299429719
 20
2.8016389454
 30
0.0
 10
7.4713849667
 20
2.8025953473
 30
0.0
 10
7.5030322142
 20
2.80341607
 30
0.0
 10
7.5260051371
 20
2.8040789815
 30
0.0
 10
7.5414527198
 20
2.8045590212
 30
0.0
 10
7.5556975143
 20
2.8050387731
 30
0.0
 10
7.5687310478
 20
2.8055182157
 30
0.0
 10
7.5805462769
 20
2.8059971876
 30
0.0
 10
7.5911371013
 20
2.8064754993
 30
0.0
 10
7.6004975091
 20
2.8069529358
 30
0.0
 10
7.6086215857
 20
2.8074288982
 30
0.0
 10
7.6155038293
 20
2.8079031469
 30
0.0
 10
7.6204594405
 20
2.8083162531
 30
0.0
 10
7.623798627
 20
2.8086553758
 30
0.0
 10
7.6258360934
 20
2.8088935183
 30
0.0
 10
7.6275611824
 20
2.8091308329
 30
0.0
 10
7.6288020519
 20
2.8093374535
 30
0.0
 10
7.629637165
 20
2.8095069039
 30
0.0
 10
7.6301475599
 20
2.8096260371
 30
0.0
 10
7.6305803243
 20
2.8097452381
 30
0.0
 10
7.6309343374
 20
2.8098626953
 30
0.0
 10
7.6312141221
 20
2.809982983
 30
0.0
 10
7.6314448177
 20
2.8101129687
 30
0.0
 10
7.6315847001
 20
2.8102619237
 30
0.0
 10
7.6315849286
 20
2.8103578393
 30
0.0
  0
SPLINE
  5
2C6
100
AcDbEntity
  8
0
100
AcDbSpline
 62
7
  6
CONTINUOUS
 70
0
 71
3
 72
80
 73
76
 74
0
 42
0.0000001
 43
0.0000001
 44
0.0000000001
 40
0.0
 40
0.0
 40
0.0
 40
0.0
 40
0.0000630082
 40
0.0001432243
 40
0.0003570655
 40
0.0006435479
 40
0.0010033549
 40
0.001436785
 40
0.0019439745
 40
0.0025249794
 40
0.003179812
 40
0.004710878
 40
0.006536889
 40
0.0086569554
 40
0.0110696143
 40
0.0137733399
 40
0.0167665835
 40
0.0200477824
 40
0.0236153221
 40
0.0316003234
 40
0.0407013644
 40
0.0508976656
 40
0.0621653048
 40
0.0744762962
 40
0.0878022408
 40
0.1021114702
 40
0.1173689119
 40
0.13353914
 40
0.1505834791
 40
0.1871285883
 40
0.22665647
 40
0.2687904406
 40
0.3131281547
 40
0.3592472347
 40
0.4067081167
 40
0.4550579013
 40
0.5038358147
 40
0.55257672
 40
0.6008157814
 40
0.6480933172
 40
0.6939582223
 40
0.7379732155
 40
0.7797190994
 40
0.8187973367
 40
0.8372186065
 40
0.854835272
 40
0.8716060821
 40
0.8874901084
 40
0.9024497326
 40
0.916450031
 40
0.9294565021
 40
0.9414386488
 40
0.9523685861
 40
0.9622190119
 40
0.9709672553
 40
0.9749217301
 40
0.9785930728
 40
0.9819788122
 40
0.9850770523
 40
0.9878862765
 40
0.990404987
 40
0.9926317049
 40
0.9945649822
 40
0.9962035224
 40
0.9975467845
 40
0.9985947066
 40
0.9990080516
 40
0.9993478475
 40
0.9994902805
 40
0.9996145005
 40
0.999720638
 40
0.9998089082
 40
0.9998796966
 40
0.9999337717
 40
1.0
 40
1.0
 40
1.0
 40
1.0
 10
3.2720530416
 20
2.7038840872
 30
0.0
 10
3.2721337536
 20
2.7039306781
 30
0.0
 10
3.2723267032
 20
2.7040198771
 30
0.0
 10
3.2728249668
 20
2.7041958205
 30
0.0
 10
3.2736596957
 20
2.7044035229
 30
0.0
 10
3.2749097835
 20
2.7046399692
 30
0.0
 10
3.2764893241
 20
2.704877949
 30
0.0
 10
3.2783978511
 20
2.7051176054
 30
0.0
 10
3.280635684
 20
2.7053580131
 30
0.0
 10
3.2832025188
 20
2.7055990578
 30
0.0
 10
3.287280912
 20
2.7059389201
 30
0.0
 10
3.2932004319
 20
2.7063553495
 30
0.0
 10
3.3012874347
 20
2.7068351319
 30
0.0
 10
3.3106802793
 20
2.7073162335
 30
0.0
 10
3.3213727423
 20
2.7077984793
 30
0.0
 10
3.3333578348
 20
2.708281445
 30
0.0
 10
3.3466284777
 20
2.7087649499
 30
0.0
 10
3.3611775233
 20
2.7092488814
 30
0.0
 10
3.383107555
 20
2.7099199518
 30
0.0
 10
3.4136446744
 20
2.7107489944
 30
0.0
 10
3.4539859591
 20
2.7117127325
 30
0.0
 10
3.4991837234
 20
2.7126778956
 30
0.0
 10
3.5491302021
 20
2.7136442005
 30
0.0
 10
3.6037064408
 20
2.7146114726
 30
0.0
 10
3.6627820699
 20
2.7155793451
 30
0.0
 10
3.7262162665
 20
2.7165476865
 30
0.0
 10
3.7938578337
 20
2.7175165083
 30
0.0
 10
3.8655452308
 20
2.7184856197
 30
0.0
 10
3.9687168367
 20
2.7198090486
 30
0.0
 10
4.1064349855
 20
2.7214508615
 30
0.0
 10
4.2812618122
 20
2.7233803908
 30
0.0
 10
4.4676151572
 20
2.7253114619
 30
0.0
 10
4.6637178867
 20
2.7272437705
 30
0.0
 10
4.8676998974
 20
2.7291768982
 30
0.0
 10
5.0776163301
 20
2.7311105838
 30
0.0
 10
5.2914655474
 20
2.7330446378
 30
0.0
 10
5.5072080954
 20
2.7349788459
 30
0.0
 10
5.7227868686
 20
2.7369130385
 30
0.0
 10
5.9361463765
 20
2.7388470509
 30
0.0
 10
6.1452518789
 20
2.7407806616
 30
0.0
 10
6.348109382
 20
2.7427136774
 30
0.0
 10
6.5427847591
 20
2.7446458072
 30
0.0
 10
6.7274216115
 20
2.7465767206
 30
0.0
 10
6.8742042833
 20
2.7482149134
 30
0.0
 10
6.9852992267
 20
2.7495339296
 30
0.0
 10
7.0634015307
 20
2.7505034899
 30
0.0
 10
7.1377507518
 20
2.7514727385
 30
0.0
 10
7.2081696508
 20
2.752441756
 30
0.0
 10
7.2744903382
 20
2.7534104586
 30
0.0
 10
7.3365544194
 20
2.7543786411
 30
0.0
 10
7.3942140111
 20
2.7553463356
 30
0.0
 10
7.4473316184
 20
2.7563133545
 30
0.0
 10
7.4957803686
 20
2.7572792794
 30
0.0
 10
7.5394448951
 20
2.7582441495
 30
0.0
 10
7.5727925693
 20
2.7590720958
 30
0.0
 10
7.5970018826
 20
2.7597408335
 30
0.0
 10
7.613281661
 20
2.7602250901
 30
0.0
 10
7.6282944062
 20
2.7607090608
 30
0.0
 10
7.6420313034
 20
2.761192692
 30
0.0
 10
7.6544849478
 20
2.7616758417
 30
0.0
 10
7.665648497
 20
2.7621583662
 30
0.0
 10
7.6755151569
 20
2.7626399602
 30
0.0
 10
7.6840782653
 20
2.7631203442
 30
0.0
 10
7.6913325318
 20
2.7635984283
 30
0.0
 10
7.6972739395
 20
2.764074079
 30
0.0
 10
7.7014018752
 20
2.7644903109
 30
0.0
 10
7.7040432557
 20
2.7648375534
 30
0.0
 10
7.7053516609
 20
2.7650460471
 30
0.0
 10
7.7062323533
 20
2.7652169929
 30
0.0
 10
7.7067704508
 20
2.7653371311
 30
0.0
 10
7.7072267091
 20
2.7654573501
 30
0.0
 10
7.7075996847
 20
2.7655756656
 30
0.0
 10
7.7078947497
 20
2.7656970323
 30
0.0
 10
7.7081354767
 20
2.7658266447
 30
0.0
 10
7.7082854678
 20
2.7659771176
 30
0.0
 10
7.7082854678
 20
2.7660750745
 30
0.0
  0
SPLINE
  5
2C7
100
AcDbEntity
  8
0
100
AcDbSpline
 62
7
  6
CONTINUOUS
 70
0
 71
3
 72
13
 73
9
 74
0
 42
0.0000001
 43
0.0000001
 44
0.0000000001
 40
0.0
 40
0.0
 40
0.0
 40
0.0
 40
0.05540905
 40
0.130049497
 40
0.2244954362
 40
0.3390181479
 40
0.6287964479
 40
1.0
 40
1.0
 40
1.0
 40
1.0
 10
3.3487637863
 20
3.4981779188
 30
0.0
 10
3.3488781365
 20
3.4982438442
 30
0.0
 10
3.3491643533
 20
3.4983664942
 30
0.0
 10
3.3496746207
 20
3.498526907
 30
0.0
 10
3.3503310223
 20
3.4986886646
 30
0.0
 10
3.3514956456
 20
3.4989244376
 30
0.0
 10
3.3533220333
 20
3.4992073779
 30
0.0
 10
3.3548849562
 20
3.4993991291
 30
0.0
 10
3.3557636465
 20
3.4994982595
 30
0.0
  0
SPLINE
  5
2C8
100
AcDbEntity
  8
0
100
AcDbSpline
 62
7
  6
CONTINUOUS
 70
0
 71
3
 72
70
 73
66
 74
0
 42
0.0000001
 43
0.0000001
 44
0.0000000001
 40
0.0
 40
0.0
 40
0.0
 40
0.0
 40
0.0011332966
 40
0.0025499761
 40
0.004249863
 40
0.0062319652
 40
0.0084950255
 40
0.0110377425
 40
0.0169568098
 40
0.0239773926
 40
0.0320824895
 40
0.0412534169
 40
0.051470681
 40
0.062710039
 40
0.0749454421
 40
0.10229359
 40
0.1332642226
 40
0.1675754034
 40
0.2049142419
 40
0.2449388805
 40
0.2872846352
 40
0.3315647715
 40
0.3773745284
 40
0.4242961339
 40
0.471900851
 40
0.5197540369
 40
0.5674188191
 40
0.614459752
 40
0.6604476821
 40
0.7049622445
 40
0.7475971106
 40
0.7879634889
 40
0.8256918791
 40
0.8434587207
 40
0.860438459
 40
0.8765933523
 40
0.8918863826
 40
0.9062816278
 40
0.9197473475
 40
0.9322528053
 40
0.9437682756
 40
0.954268646
 40
0.9637301361
 40
0.9721298729
 40
0.9759258668
 40
0.9794498993
 40
0.9826999434
 40
0.9856739785
 40
0.9883700413
 40
0.9907867412
 40
0.9929230672
 40
0.9947780468
 40
0.9963507641
 40
0.9976404099
 40
0.9981788961
 40
0.9986464608
 40
0.9990432363
 40
0.9993694733
 40
0.9995062828
 40
0.9996256669
 40
0.9997277723
 40
0.9998128356
 40
0.9998812717
 40
0.9999338913
 40
1.0
 40
1.0
 40
1.0
 40
1.0
 10
3.3557636465
 20
3.4994982595
 30
0.0
 10
3.3573690557
 20
3.4996793756
 30
0.0
 10
3.3609882024
 20
3.500025145
 30
0.0
 10
3.367028816
 20
3.5004917738
 30
0.0
 10
3.3742823467
 20
3.5009606471
 30
0.0
 10
3.3827444227
 20
3.5014313082
 30
0.0
 10
3.3924095707
 20
3.5019030963
 30
0.0
 10
3.407684204
 20
3.5025672857
 30
0.0
 10
3.4297405856
 20
3.5033815106
 30
0.0
 10
3.4597267338
 20
3.504320393
 30
0.0
 10
3.4943505188
 20
3.5052619799
 30
0.0
 10
3.5335327984
 20
3.5062057671
 30
0.0
 10
3.5771843122
 20
3.5071507312
 30
0.0
 10
3.6252053475
 20
3.508096833
 30
0.0
 10
3.6976450958
 20
3.5094085247
 30
0.0
 10
3.7982120922
 20
3.5110259335
 30
0.0
 10
3.9302491938
 20
3.5129077441
 30
0.0
 10
4.0765299745
 20
3.5147928574
 30
0.0
 10
4.2357188098
 20
3.5166805875
 30
0.0
 10
4.4063622145
 20
3.5185701457
 30
0.0
 10
4.5869014776
 20
3.5204609753
 30
0.0
 10
4.7756882499
 20
3.522352726
 30
0.0
 10
4.9709985241
 20
3.5242451596
 30
0.0
 10
5.1710484318
 20
3.5261380049
 30
0.0
 10
5.3740115153
 20
3.5280311156
 30
0.0
 10
5.5780340936
 20
3.5299243164
 30
0.0
 10
5.7812529244
 20
3.5318174396
 30
0.0
 10
5.9818125889
 20
3.5337103516
 30
0.0
 10
6.1778811966
 20
3.5356028284
 30
0.0
 10
6.3676683547
 20
3.537494701
 30
0.0
 10
6.5494411961
 20
3.539385688
 30
0.0
 10
6.72153934
 20
3.5412754385
 30
0.0
 10
6.8581873542
 20
3.5428792667
 30
0.0
 10
6.9614974106
 20
3.5441705025
 30
0.0
 10
7.0340548089
 20
3.5451193337
 30
0.0
 10
7.1030853051
 20
3.5460678868
 30
0.0
 10
7.1684310648
 20
3.5470161276
 30
0.0
 10
7.2299427976
 20
3.5479641195
 30
0.0
 10
7.2874801572
 20
3.5489116519
 30
0.0
 10
7.3409116129
 20
3.5498585728
 30
0.0
 10
7.3901150518
 20
3.5508049248
 30
0.0
 10
7.4349782536
 20
3.5517502865
 30
0.0
 10
7.4753987026
 20
3.5526943654
 30
0.0
 10
7.5062620123
 20
3.5535046517
 30
0.0
 10
7.5286620853
 20
3.5541591646
 30
0.0
 10
7.5437230175
 20
3.5546330946
 30
0.0
 10
7.5576115753
 20
3.555106725
 30
0.0
 10
7.5703190745
 20
3.5555799903
 30
0.0
 10
7.5818377004
 20
3.5560528304
 30
0.0
 10
7.5921610352
 20
3.5565250552
 30
0.0
 10
7.601283986
 20
3.556996423
 30
0.0
 10
7.6092020732
 20
3.5574663517
 30
0.0
 10
7.6159107726
 20
3.5579345808
 30
0.0
 10
7.6207420892
 20
3.5583423291
 30
0.0
 10
7.6239976886
 20
3.5586770945
 30
0.0
 10
7.6259837618
 20
3.5589121956
 30
0.0
 10
7.6276648971
 20
3.5591464835
 30
0.0
 10
7.6288738492
 20
3.5593504787
 30
0.0
 10
7.6296872539
 20
3.5595177719
 30
0.0
 10
7.6301842978
 20
3.5596353907
 30
0.0
 10
7.6306056597
 20
3.5597530714
 30
0.0
 10
7.6309503404
 20
3.5598690644
 30
0.0
 10
7.6312225889
 20
3.5599878064
 30
0.0
 10
7.6314477178
 20
3.5601165402
 30
0.0
 10
7.6315829259
 20
3.5602635971
 30
0.0
 10
7.6315830292
 20
3.5603578397
 30
0.0
  0
SPLINE
  5
2C9
100
AcDbEntity
  8
0
100
AcDbSpline
 62
7
  6
CONTINUOUS
 70
0
 71
3
 72
25
 73
21
 74
0
 42
0.0000001
 43
0.0000001
 44
0.0000000001
 40
0.0
 40
0.0
 40
0.0
 40
0.0
 40
0.192469947
 40
0.37796524
 40
0.4656279106
 40
0.5488281489
 40
0.6267900259
 40
0.6988014046
 40
0.7642007854
 40
0.8223366288
 40
0.8726718223
 40
0.9148224437
 40
0.9327231659
 40
0.9484585193
 40
0.9620164844
 40
0.9734175655
 40
0.9827121197
 40
0.9900118249
 40
0.9955736113
 40
1.0
 40
1.0
 40
1.0
 40
1.0
 10
5.2853295854
 20
4.2802406058
 30
0.0
 10
5.2853295854
 20
4.2763419443
 30
0.0
 10
5.2853954823
 20
4.2686857584
 30
0.0
 10
5.2856416916
 20
4.2592566385
 30
0.0
 10
5.2859410466
 20
4.2520443521
 30
0.0
 10
5.2862054568
 20
4.2470109941
 30
0.0
 10
5.2865118454
 20
4.2422976541
 30
0.0
 10
5.2868569756
 20
4.2379485743
 30
0.0
 10
5.2872366566
 20
4.2340056174
 30
0.0
 10
5.2876470493
 20
4.23050734
 30
0.0
 10
5.2880843732
 20
4.2274874781
 30
0.0
 10
5.2884843924
 20
4.22528665
 30
0.0
 10
5.288823652
 20
4.2237892229
 30
0.0
 10
5.2890680738
 20
4.2228647782
 30
0.0
 10
5.2893157701
 20
4.2220781364
 30
0.0
 10
5.2895658184
 20
4.221430316
 30
0.0
 10
5.2898171963
 20
4.220920602
 30
0.0
 10
5.2900710899
 20
4.2205482861
 30
0.0
 10
5.2903314647
 20
4.2203061669
 30
0.0
 10
5.2905340424
 20
4.2202406058
 30
0.0
 10
5.2906237031
 20
4.2202406058
 30
0.0
  0
SPLINE
  5
2CA
100
AcDbEntity
  8
0
100
AcDbSpline
 62
7
  6
CONTINUOUS
 70
0
 71
3
 72
71
 73
67
 74
0
 42
0.0000001
 43
0.0000001
 44
0.0000000001
 40
0.0
 40
0.0
 40
0.0
 40
0.0
 40
0.0000292448
 40
0.0000679628
 40
0.0001207782
 40
0.0001895257
 40
0.0002750122
 40
0.0003776454
 40
0.0004976539
 40
0.0006351763
 40
0.0009630712
 40
0.0013617588
 40
0.0018314231
 40
0.0023721457
 40
0.0036668249
 40
0.0052457117
 40
0.007108461
 40
0.0092542903
 40
0.0116817711
 40
0.0143893808
 40
0.0173755765
 40
0.0206388019
 40
0.0241774902
 40
0.0279897875
 40
0.0364253148
 40
0.0459251949
 40
0.0564688944
 40
0.0680320784
 40
0.080587307
 40
0.0941068616
 40
0.1085596659
 40
0.123911659
 40
0.1401285398
 40
0.1571731333
 40
0.1750054859
 40
0.2128704593
 40
0.2533755406
 40
0.2961500258
 40
0.3408012361
 40
0.3869193642
 40
0.434081847
 40
0.4818557452
 40
0.5298029519
 40
0.5774836805
 40
0.6244603969
 40
0.6703025704
 40
0.7145892572
 40
0.7569143601
 40
0.7968901688
 40
0.8341491371
 40
0.8683500452
 40
0.8991797556
 40
0.9263543606
 40
0.9384925297
 40
0.9496256814
 40
0.9597296015
 40
0.9687809503
 40
0.9767579114
 40
0.9836436563
 40
0.9894224502
 40
0.9918920637
 40
0.9940801536
 40
0.995985801
 40
0.9976081386
 40
0.9989463952
 40
1.0
 40
1.0
 40
1.0
 40
1.0
 10
3.3484858396
 20
2.6384578395
 30
0.0
 10
3.3484857523
 20
2.6384995415
 30
0.0
 10
3.3485225226
 20
2.6385959867
 30
0.0
 10
3.3486514609
 20
2.6387139534
 30
0.0
 10
3.3488487888
 20
2.6388306631
 30
0.0
 10
3.3491207675
 20
2.6389470356
 30
0.0
 10
3.349467999
 20
2.6390642489
 30
0.0
 10
3.3498915263
 20
2.6391818498
 30
0.0
 10
3.3503914619
 20
2.6392998463
 30
0.0
 10
3.3512093565
 20
2.6394674598
 30
0.0
 10
3.3524247924
 20
2.6396719308
 30
0.0
 10
3.3541144879
 20
2.6399067328
 30
0.0
 10
3.356110035
 20
2.6401423713
 30
0.0
 10
3.3593799061
 20
2.6404778928
 30
0.0
 10
3.3642317326
 20
2.6408866292
 30
0.0
 10
3.37096936
 20
2.6413559768
 30
0.0
 10
3.3789230941
 20
2.6418269717
 30
0.0
 10
3.3880886088
 20
2.6422993474
 30
0.0
 10
3.3984602272
 20
2.642772604
 30
0.0
 10
3.410031257
 20
2.6432465178
 30
0.0
 10
3.4227949127
 20
2.6437209033
 30
0.0
 10
3.4367443906
 20
2.6441956431
 30
0.0
 10
3.4518724796
 20
2.6446706611
 30
0.0
 10
3.4743740052
 20
2.6453266086
 30
0.0
 10
3.5053749791
 20
2.6461386438
 30
0.0
 10
3.5459742966
 20
2.6470850432
 30
0.0
 10
3.5910346166
 20
2.6480325095
 30
0.0
 10
3.6404526166
 20
2.6489809131
 30
0.0
 10
3.6941147927
 20
2.6499301075
 30
0.0
 10
3.7518980626
 20
2.6508797774
 30
0.0
 10
3.8136699252
 20
2.6518298429
 30
0.0
 10
3.8792885099
 20
2.6527803238
 30
0.0
 10
3.9486032664
 20
2.6537310322
 30
0.0
 10
4.0214552498
 20
2.6546819536
 30
0.0
 10
4.1251748615
 20
2.6559761729
 30
0.0
 10
4.2623470618
 20
2.6575834855
 30
0.0
 10
4.4350849791
 20
2.6594775948
 30
0.0
 10
4.617500392
 20
2.6613728283
 30
0.0
 10
4.8079202334
 20
2.6632689783
 30
0.0
 10
5.0045975132
 20
2.6651657613
 30
0.0
 10
5.2057278449
 20
2.6670629303
 30
0.0
 10
5.4094664967
 20
2.6689603396
 30
0.0
 10
5.6139441818
 20
2.6708578085
 30
0.0
 10
5.817285063
 20
2.6727551742
 30
0.0
 10
6.0176241037
 20
2.6746522939
 30
0.0
 10
6.2131231314
 20
2.6765489406
 30
0.0
 10
6.401988791
 20
2.6784449282
 30
0.0
 10
6.5824887717
 20
2.6803399816
 30
0.0
 10
6.7529668839
 20
2.6822336517
 30
0.0
 10
6.9118594122
 20
2.6841255413
 30
0.0
 10
7.057708937
 20
2.6860147284
 30
0.0
 10
7.1891772012
 20
2.6879003482
 30
0.0
 10
7.2891851244
 20
2.6895219395
 30
0.0
 10
7.3611074248
 20
2.6908370911
 30
0.0
 10
7.4086900437
 20
2.6917852937
 30
0.0
 10
7.4518700286
 20
2.6927322972
 30
0.0
 10
7.4905482254
 20
2.6936778079
 30
0.0
 10
7.524635945
 20
2.6946212432
 30
0.0
 10
7.5540551323
 20
2.6955618742
 30
0.0
 10
7.575620754
 20
2.696377933
 30
0.0
 10
7.5904879896
 20
2.6970446015
 30
0.0
 10
7.5998352497
 20
2.6975172103
 30
0.0
 10
7.6079726306
 20
2.6979885762
 30
0.0
 10
7.6148960453
 20
2.6984578717
 30
0.0
 10
7.6206012546
 20
2.6989244877
 30
0.0
 10
7.6239947843
 20
2.6992723014
 30
0.0
 10
7.6254859228
 20
2.6994559683
 30
0.0
  0
SPLINE
  5
2CB
100
AcDbEntity
  8
0
100
AcDbSpline
 62
7
  6
CONTINUOUS
 70
0
 71
3
 72
13
 73
9
 74
0
 42
0.0000001
 43
0.0000001
 44
0.0000000001
 40
0.0
 40
0.0
 40
0.0
 40
0.0
 40
0.3663213852
 40
0.6543910223
 40
0.7692892149
 40
0.8649528833
 40
0.9416679349
 40
1.0
 40
1.0
 40
1.0
 40
1.0
 10
7.6254859228
 20
2.6994559683
 30
0.0
 10
7.6262080811
 20
2.6995449182
 30
0.0
 10
7.6274964972
 20
2.6997172601
 30
0.0
 10
7.6290040727
 20
2.6999706883
 30
0.0
 10
7.6299720097
 20
2.7001812717
 30
0.0
 10
7.6305242113
 20
2.7003263997
 30
0.0
 10
7.6309593918
 20
2.7004705125
 30
0.0
 10
7.6312056495
 20
2.7005797952
 30
0.0
 10
7.6313059695
 20
2.7006377632
 30
0.0
  0
SPLINE
  5
2CC
100
AcDbEntity
  8
0
100
AcDbSpline
 62
7
  6
CONTINUOUS
 70
0
 71
3
 72
13
 73
9
 74
0
 42
0.0000001
 43
0.0000001
 44
0.0000000001
 40
0.0
 40
0.0
 40
0.0
 40
0.0
 40
0.0583417344
 40
0.1350800593
 40
0.2307718403
 40
0.3456948559
 40
0.6337735599
 40
1.0
 40
1.0
 40
1.0
 40
1.0
 10
3.3487641512
 20
3.3731779188
 30
0.0
 10
3.3488649056
 20
3.3732360095
 30
0.0
 10
3.3491122036
 20
3.3733455011
 30
0.0
 10
3.349549164
 20
3.3734898859
 30
0.0
 10
3.3501035802
 20
3.3736352908
 30
0.0
 10
3.3510752177
 20
3.3738462654
 30
0.0
 10
3.3525881834
 20
3.3741001675
 30
0.0
 10
3.3538811126
 20
3.3742728728
 30
0.0
 10
3.3546057043
 20
3.3743620089
 30
0.0
  0
SPLINE
  5
2CD
100
AcDbEntity
  8
0
100
AcDbSpline
 62
7
  6
CONTINUOUS
 70
0
 71
3
 72
70
 73
66
 74
0
 42
0.0000001
 43
0.0000001
 44
0.0000000001
 40
0.0
 40
0.0
 40
0.0
 40
0.0
 40
0.0010544848
 40
0.0023935896
 40
0.0040172559
 40
0.0059245629
 40
0.008114309
 40
0.0105852404
 40
0.016365494
 40
0.0232538393
 40
0.0312334953
 40
0.0402860189
 40
0.0503921028
 40
0.0615276154
 40
0.0736666726
 40
0.1008449617
 40
0.1316765096
 40
0.1658793326
 40
0.2031402159
 40
0.2431164563
 40
0.2854421333
 40
0.3297290495
 40
0.3755705155
 40
0.4225465899
 40
0.4702261612
 40
0.5181719051
 40
0.5659441841
 40
0.613104584
 40
0.6592209309
 40
0.7038698717
 40
0.7466418989
 40
0.7871453056
 40
0.8250077404
 40
0.8428394949
 40
0.8598824092
 40
0.8760984447
 40
0.8914500698
 40
0.9059012428
 40
0.9194200155
 40
0.931975142
 40
0.9435368111
 40
0.9540798147
 40
0.9635798794
 40
0.9720140714
 40
0.9758257895
 40
0.979364467
 40
0.9826280186
 40
0.9856143655
 40
0.9883215701
 40
0.9907483555
 40
0.9928936629
 40
0.9947564665
 40
0.9963357968
 40
0.9976307914
 40
0.998171467
 40
0.99864094
 40
0.9990393513
 40
0.9993669452
 40
0.9995043267
 40
0.9996242108
 40
0.9997267434
 40
0.9998121602
 40
0.9998808754
 40
0.999933699
 40
1.0
 40
1.0
 40
1.0
 40
1.0
 10
3.3546057043
 20
3.3743620089
 30
0.0
 10
3.3560981059
 20
3.3745455977
 30
0.0
 10
3.3594940814
 20
3.3748934467
 30
0.0
 10
3.3652036208
 20
3.3753601194
 30
0.0
 10
3.3721324735
 20
3.3758293529
 30
0.0
 10
3.3802764335
 20
3.3763006652
 30
0.0
 10
3.3896302449
 20
3.3767732299
 30
0.0
 10
3.4045037069
 20
3.3774398126
 30
0.0
 10
3.4260768421
 20
3.3782560626
 30
0.0
 10
3.4555054643
 20
3.3791965148
 30
0.0
 10
3.4896021742
 20
3.3801398364
 30
0.0
 10
3.5282886991
 20
3.3810854917
 30
0.0
 10
3.5714765094
 20
3.3820323883
 30
0.0
 10
3.619066513
 20
3.3829804813
 30
0.0
 10
3.6909981889
 20
3.3842957501
 30
0.0
 10
3.7910145484
 20
3.3859170771
 30
0.0
 10
3.9224924843
 20
3.387802761
 30
0.0
 10
4.0683490583
 20
3.3896918512
 30
0.0
 10
4.2272465383
 20
3.3915836308
 30
0.0
 10
4.3977276069
 20
3.3934772852
 30
0.0
 10
4.57822807
 20
3.395372248
 30
0.0
 10
4.767092528
 20
3.3972681505
 30
0.0
 10
4.9625885726
 20
3.3991647547
 30
0.0
 10
5.1629226187
 20
3.4010617842
 30
0.0
 10
5.3662574065
 20
3.4029590856
 30
0.0
 10
5.5707275968
 20
3.4048564868
 30
0.0
 10
5.7744574392
 20
3.4067538133
 30
0.0
 10
5.9755785259
 20
3.408650933
 30
0.0
 10
6.1722456653
 20
3.4105476223
 30
0.0
 10
6.3626548756
 20
3.4124437029
 30
0.0
 10
6.5450598655
 20
3.4143389036
 30
0.0
 10
6.7177870461
 20
3.4162328685
 30
0.0
 10
6.8549514118
 20
3.4178402115
 30
0.0
 10
6.958663422
 20
3.4191342944
 30
0.0
 10
7.0315104353
 20
3.4200852494
 30
0.0
 10
7.1008205759
 20
3.4210359157
 30
0.0
 10
7.1664346401
 20
3.4219862838
 30
0.0
 10
7.2282020975
 20
3.4229363999
 30
0.0
 10
7.2859813707
 20
3.4238860401
 30
0.0
 10
7.3396397475
 20
3.4248350855
 30
0.0
 10
7.3890540969
 20
3.425783563
 30
0.0
 10
7.4341112072
 20
3.4267310226
 30
0.0
 10
7.4747076076
 20
3.4276772182
 30
0.0
 10
7.5057058923
 20
3.4284893256
 30
0.0
 10
7.5282045112
 20
3.42914529
 30
0.0
 10
7.5433321174
 20
3.4296202784
 30
0.0
 10
7.5572821638
 20
3.4300949647
 30
0.0
 10
7.5700458343
 20
3.4305692903
 30
0.0
 10
7.5816154272
 20
3.4310432031
 30
0.0
 10
7.5919846553
 20
3.4315164815
 30
0.0
 10
7.6011484417
 20
3.4319889011
 30
0.0
 10
7.6091020855
 20
3.4324598752
 30
0.0
 10
7.6158408322
 20
3.432929145
 30
0.0
 10
7.6206936499
 20
3.4333377973
 30
0.0
 10
7.6239636084
 20
3.4336733334
 30
0.0
 10
7.6259584006
 20
3.4339089638
 30
0.0
 10
7.6276469862
 20
3.4341437757
 30
0.0
 10
7.6288613548
 20
3.4343482254
 30
0.0
 10
7.6296784504
 20
3.4345158915
 30
0.0
 10
7.6301777708
 20
3.4346337727
 30
0.0
 10
7.6306010826
 20
3.4347517164
 30
0.0
 10
7.6309473661
 20
3.4348679642
 30
0.0
 10
7.631220917
 20
3.4349869719
 30
0.0
 10
7.6314470235
 20
3.4351159319
 30
0.0
 10
7.6315830605
 20
3.4352632972
 30
0.0
 10
7.6315832185
 20
3.4353578394
 30
0.0
  0
SPLINE
  5
2CE
100
AcDbEntity
  8
0
100
AcDbSpline
 62
7
  6
CONTINUOUS
 70
0
 71
3
 72
72
 73
68
 74
0
 42
0.0000001
 43
0.0000001
 44
0.0000000001
 40
0.0
 40
0.0
 40
0.0
 40
0.0
 40
0.000066951
 40
0.0001204847
 40
0.0001901809
 40
0.0002768475
 40
0.0003808948
 40
0.0005025552
 40
0.0006419704
 40
0.0009743893
 40
0.0013786107
 40
0.0018548494
 40
0.0024032176
 40
0.0037165252
 40
0.0053185857
 40
0.0072085367
 40
0.0093851644
 40
0.0118471981
 40
0.0145933343
 40
0.0176222488
 40
0.0209325044
 40
0.0245220192
 40
0.0283884568
 40
0.0369427267
 40
0.0465764579
 40
0.0572675808
 40
0.0689900393
 40
0.0817174369
 40
0.0954204696
 40
0.1100661187
 40
0.1256210541
 40
0.1420493746
 40
0.1593118116
 40
0.1773688142
 40
0.2156965955
 40
0.2566753898
 40
0.2999232411
 40
0.3450381029
 40
0.3915994497
 40
0.4391736124
 40
0.4873178485
 40
0.5355835235
 40
0.5835213744
 40
0.6306848444
 40
0.676634608
 40
0.7209432182
 40
0.7631975059
 40
0.8030040975
 40
0.8399929623
 40
0.8738187569
 40
0.9041668962
 40
0.9179476008
 40
0.9307556351
 40
0.9425606105
 40
0.953336336
 40
0.9630570969
 40
0.9716996558
 40
0.9792453514
 40
0.9856760913
 40
0.9909764206
 40
0.993199384
 40
0.9951359336
 40
0.9967849222
 40
0.9981453195
 40
0.999216779
 40
0.9996443412
 40
1.0
 40
1.0
 40
1.0
 40
1.0
 10
3.3484860959
 20
2.7634578411
 30
0.0
 10
3.3484863296
 20
2.7635533823
 30
0.0
 10
3.3486251914
 20
2.7637018696
 30
0.0
 10
3.3488546401
 20
2.763831562
 30
0.0
 10
3.3491327199
 20
2.7639514841
 30
0.0
 10
3.3494846029
 20
2.7640685976
 30
0.0
 10
3.3499147477
 20
2.7641874407
 30
0.0
 10
3.3504220575
 20
2.7643062178
 30
0.0
 10
3.3512521155
 20
2.7644751581
 30
0.0
 10
3.3524854981
 20
2.7646811592
 30
0.0
 10
3.3542002067
 20
2.7649177619
 30
0.0
 10
3.3562254406
 20
2.7651551895
 30
0.0
 10
3.3595446458
 20
2.7654932957
 30
0.0
 10
3.3644706843
 20
2.7659051574
 30
0.0
 10
3.3713118536
 20
2.7663779741
 30
0.0
 10
3.3793873999
 20
2.7668525128
 30
0.0
 10
3.3886918668
 20
2.7673285171
 30
0.0
 10
3.3992195015
 20
2.7678053938
 30
0.0
 10
3.410964457
 20
2.7682829281
 30
0.0
 10
3.4239207383
 20
2.7687609282
 30
0.0
 10
3.4380812851
 20
2.769239233
 30
0.0
 10
3.4534376238
 20
2.7697178336
 30
0.0
 10
3.4762752613
 20
2.7703787619
 30
0.0
 10
3.5077371949
 20
2.7711970349
 30
0.0
 10
3.5489377881
 20
2.7721505473
 30
0.0
 10
3.5946605657
 20
2.7731051619
 30
0.0
 10
3.6447989668
 20
2.7740608661
 30
0.0
 10
3.6992361781
 20
2.7750172185
 30
0.0
 10
3.7578454769
 20
2.7759740587
 30
0.0
 10
3.8204902699
 20
2.7769314115
 30
0.0
 10
3.8870245711
 20
2.7778890775
 30
0.0
 10
3.9572934877
 20
2.7788469676
 30
0.0
 10
4.0311332579
 20
2.7798051667
 30
0.0
 10
4.136222504
 20
2.7811090022
 30
0.0
 10
4.2751545421
 20
2.7827283384
 30
0.0
 10
4.4500338759
 20
2.7846367253
 30
0.0
 10
4.6345991571
 20
2.7865463229
 30
0.0
 10
4.8271313453
 20
2.7884567905
 30
0.0
 10
5.0258376278
 20
2.790367882
 30
0.0
 10
5.2288671309
 20
2.7922793822
 30
0.0
 10
5.4343288779
 20
2.794191079
 30
0.0
 10
5.6403096432
 20
2.7961028358
 30
0.0
 10
5.8448907596
 20
2.7980144616
 30
0.0
 10
6.046166841
 20
2.7999257904
 30
0.0
 10
6.2422636275
 20
2.8018366437
 30
0.0
 10
6.4313544929
 20
2.8037467371
 30
0.0
 10
6.6116783689
 20
2.8056558037
 30
0.0
 10
6.781556095
 20
2.807563468
 30
0.0
 10
6.9394052681
 20
2.8094689865
 30
0.0
 10
7.0837558443
 20
2.8113718822
 30
0.0
 10
7.1949881407
 20
2.8130020432
 30
0.0
 10
7.2762285022
 20
2.8143207592
 30
0.0
 10
7.3310094321
 20
2.8152771529
 30
0.0
 10
7.3815014531
 20
2.8162329187
 30
0.0
 10
7.4275869833
 20
2.8171876922
 30
0.0
 10
7.4691585982
 20
2.8181411663
 30
0.0
 10
7.5061195294
 20
2.8190931113
 30
0.0
 10
7.538383831
 20
2.8200421243
 30
0.0
 10
7.5658763527
 20
2.8209876946
 30
0.0
 10
7.5857725763
 20
2.8218107382
 30
0.0
 10
7.5992553283
 20
2.8224858411
 30
0.0
 10
7.6075307324
 20
2.8229608766
 30
0.0
 10
7.6145731127
 20
2.8234336164
 30
0.0
 10
7.620377738
 20
2.8239040412
 30
0.0
 10
7.6244381071
 20
2.824315636
 30
0.0
 10
7.6270627611
 20
2.8246577114
 30
0.0
 10
7.6281672494
 20
2.8248305085
 30
0.0
 10
7.6286669244
 20
2.8249195036
 30
0.0
  0
LINE
  5
2CF
100
AcDbEntity
  8
0
100
AcDbLine
 62
7
  6
CONTINUOUS
 10
7.6286669244
 20
2.8249195036
 11
7.6313063139
 21
2.8256377618
  0
SPLINE
  5
2D0
100
AcDbEntity
  8
0
100
AcDbSpline
 62
7
  6
CONTINUOUS
 70
0
 71
3
 72
72
 73
68
 74
0
 42
0.0000001
 43
0.0000001
 44
0.0000000001
 40
0.0
 40
0.0
 40
0.0
 40
0.0
 40
0.0000667024
 40
0.0001200368
 40
0.0001894997
 40
0.0002758988
 40
0.0003796421
 40
0.0005009585
 40
0.0006399866
 40
0.0009714871
 40
0.0013745733
 40
0.0018494304
 40
0.0023961411
 40
0.0037051871
 40
0.0053016362
 40
0.0071851442
 40
0.0093548291
 40
0.0118092196
 40
0.0145467787
 40
0.0175659485
 40
0.020865158
 40
0.0244428204
 40
0.0282969707
 40
0.0368245949
 40
0.046427505
 40
0.0570847717
 40
0.06877132
 40
0.0814591953
 40
0.0951201278
 40
0.1097221813
 40
0.1252306225
 40
0.1416104598
 40
0.1588235632
 40
0.1768291742
 40
0.2150514609
 40
0.2559218989
 40
0.2990620104
 40
0.3440711595
 40
0.3905313375
 40
0.4380118307
 40
0.4860716603
 40
0.5342648911
 40
0.5821442756
 40
0.6292652625
 40
0.6751909299
 40
0.7194945926
 40
0.7617651837
 40
0.8016109721
 40
0.8386612654
 40
0.8725727439
 40
0.903031316
 40
0.9168752978
 40
0.9297531488
 40
0.9416346845
 40
0.9524913493
 40
0.9622993234
 40
0.9710356627
 40
0.9786790265
 40
0.9852132144
 40
0.9906231488
 40
0.9929020735
 40
0.9948954597
 40
0.9966025297
 40
0.9980225877
 40
0.9991551045
 40
0.9996134846
 40
1.0
 40
1.0
 40
1.0
 40
1.0
 10
3.3484857101
 20
4.0134578396
 30
0.0
 10
3.3484855384
 20
4.0135530124
 30
0.0
 10
3.3486234
 20
4.0137015226
 30
0.0
 10
3.3488518989
 20
4.0138309258
 30
0.0
 10
3.3491289078
 20
4.0139506629
 30
0.0
 10
3.3494796021
 20
4.0140675612
 30
0.0
 10
3.3499083782
 20
4.0141862015
 30
0.0
 10
3.3504141424
 20
4.0143047723
 30
0.0
 10
3.3512417312
 20
4.0144734232
 30
0.0
 10
3.3524714583
 20
4.0146790655
 30
0.0
 10
3.3541810204
 20
4.0149152598
 30
0.0
 10
3.3562000061
 20
4.0151522791
 30
0.0
 10
3.3595083136
 20
4.0154897781
 30
0.0
 10
3.3644171791
 20
4.0159009186
 30
0.0
 10
3.37123406
 20
4.0163730267
 30
0.0
 10
3.3792813196
 20
4.0168467777
 30
0.0
 10
3.3885544268
 20
4.0173219324
 30
0.0
 10
3.3990474784
 20
4.0177979738
 30
0.0
 10
3.4107536753
 20
4.0182746759
 30
0.0
 10
3.4236661649
 20
4.0187518521
 30
0.0
 10
3.4377780691
 20
4.0192293849
 30
0.0
 10
3.4530819643
 20
4.0197071902
 30
0.0
 10
3.4758438119
 20
4.0203669808
 30
0.0
 10
3.5072016355
 20
4.0211837815
 30
0.0
 10
3.5482659207
 20
4.0221357462
 30
0.0
 10
3.5938385139
 20
4.0230887686
 30
0.0
 10
3.6438136748
 20
4.0240427514
 30
0.0
 10
3.6980752541
 20
4.0249975262
 30
0.0
 10
3.7564973481
 20
4.0259527686
 30
0.0
 10
3.8189444023
 20
4.0269084202
 30
0.0
 10
3.8852712892
 20
4.0278644883
 30
0.0
 10
3.9553240603
 20
4.028820777
 30
0.0
 10
4.0289401785
 20
4.0297772878
 30
0.0
 10
4.1337198729
 20
4.0310789867
 30
0.0
 10
4.2722532149
 20
4.0326955699
 30
0.0
 10
4.4466482162
 20
4.0346007656
 30
0.0
 10
4.6307274444
 20
4.0365070892
 30
0.0
 10
4.8227826749
 20
4.0384143251
 30
0.0
 10
5.0210311771
 20
4.0403221926
 30
0.0
 10
5.2236326721
 20
4.0422304391
 30
0.0
 10
5.4287070432
 20
4.0441389155
 30
0.0
 10
5.6343505882
 20
4.0460474382
 30
0.0
 10
5.8386545082
 20
4.0479558379
 30
0.0
 10
6.0397228624
 20
4.049863968
 30
0.0
 10
6.2356890425
 20
4.0517715895
 30
0.0
 10
6.4247342052
 20
4.0536785078
 30
0.0
 10
6.6051039702
 20
4.055584422
 30
0.0
 10
6.7751238233
 20
4.0574888893
 30
0.0
 10
6.9332158798
 20
4.0593913451
 30
0.0
 10
7.0779129625
 20
4.0612912268
 30
0.0
 10
7.1894992417
 20
4.0629182799
 30
0.0
 10
7.27107532
 20
4.0642344326
 30
0.0
 10
7.3261474773
 20
4.0651892951
 30
0.0
 10
7.3769565684
 20
4.0661433896
 30
0.0
 10
7.4233846465
 20
4.0670967514
 30
0.0
 10
7.4653240616
 20
4.0680488204
 30
0.0
 10
7.5026773753
 20
4.0689991735
 30
0.0
 10
7.535357946
 20
4.069947055
 30
0.0
 10
7.5632900881
 20
4.0708916532
 30
0.0
 10
7.5835676168
 20
4.0717129432
 30
0.0
 10
7.5973662036
 20
4.0723861348
 30
0.0
 10
7.6058846255
 20
4.0728607024
 30
0.0
 10
7.6131755958
 20
4.0733332542
 30
0.0
 10
7.6192352871
 20
4.0738036467
 30
0.0
 10
7.6235122622
 20
4.0742146582
 30
0.0
 10
7.6263132312
 20
4.0745549022
 30
0.0
 10
7.6275066421
 20
4.074726636
 30
0.0
 10
7.628051057
 20
4.0748147005
 30
0.0
  0
SPLINE
  5
2D1
100
AcDbEntity
  8
0
100
AcDbSpline
 62
7
  6
CONTINUOUS
 70
0
 71
3
 72
11
 73
7
 74
0
 42
0.0000001
 43
0.0000001
 44
0.0000000001
 40
0.0
 40
0.0
 40
0.0
 40
0.0
 40
0.3489628961
 40
0.6312269634
 40
0.8476138763
 40
1.0
 40
1.0
 40
1.0
 40
1.0
 10
7.628051057
 20
4.0748147005
 30
0.0
 10
7.6284379071
 20
4.0748772774
 30
0.0
 10
7.6291362205
 20
4.0749992047
 30
0.0
 10
7.6300674936
 20
4.0751997397
 30
0.0
 10
7.6307708711
 20
4.0753982079
 30
0.0
 10
7.6311584981
 20
4.0755521009
 30
0.0
 10
7.6313066408
 20
4.0756377636
 30
0.0
  0
SPLINE
  5
2D2
100
AcDbEntity
  8
0
100
AcDbSpline
 62
7
  6
CONTINUOUS
 70
0
 71
3
 72
72
 73
68
 74
0
 42
0.0000001
 43
0.0000001
 44
0.0000000001
 40
0.0
 40
0.0
 40
0.0
 40
0.0
 40
0.000066879
 40
0.0001203917
 40
0.000190088
 40
0.0002767753
 40
0.0003808622
 40
0.0005025779
 40
0.0006420617
 40
0.0009746454
 40
0.0013790483
 40
0.0018554613
 40
0.0024039726
 40
0.0037173763
 40
0.0053192293
 40
0.0072091828
 40
0.0093861759
 40
0.0118487468
 40
0.0145953969
 40
0.017624607
 40
0.0209348447
 40
0.0245245228
 40
0.028391489
 40
0.0369471571
 40
0.0465815369
 40
0.0572736445
 40
0.0689977954
 40
0.0817261773
 40
0.0954304439
 40
0.1100780126
 40
0.125634217
 40
0.1420639667
 40
0.1593284709
 40
0.1773869628
 40
0.2157184311
 40
0.2567004817
 40
0.299952113
 40
0.3450705361
 40
0.3916350611
 40
0.4392124672
 40
0.4873594361
 40
0.5356275272
 40
0.5835673226
 40
0.6307320424
 40
0.6766828188
 40
0.7209914166
 40
0.7632449544
 40
0.8030506471
 40
0.840037086
 40
0.8738598284
 40
0.9042048583
 40
0.9179828054
 40
0.930788581
 40
0.9425915704
 40
0.9533638932
 40
0.9630817806
 40
0.9717218618
 40
0.9792635579
 40
0.9856908428
 40
0.9909882374
 40
0.9932090332
 40
0.9951432265
 40
0.9967900013
 40
0.9981486374
 40
0.999218614
 40
0.9996453358
 40
1.0
 40
1.0
 40
1.0
 40
1.0
 10
3.3484855201
 20
3.8884578399
 30
0.0
 10
3.3484854312
 20
3.8885532792
 30
0.0
 10
3.348624075
 20
3.8887019906
 30
0.0
 10
3.3488533964
 20
3.888831584
 30
0.0
 10
3.3491314783
 20
3.888951532
 30
0.0
 10
3.3494834543
 20
3.8890686362
 30
0.0
 10
3.3499137721
 20
3.8891874864
 30
0.0
 10
3.3504213233
 20
3.8893062667
 30
0.0
 10
3.3512518049
 20
3.8894752152
 30
0.0
 10
3.3524857934
 20
3.8896812216
 30
0.0
 10
3.3542012597
 20
3.8899178339
 30
0.0
 10
3.3562272199
 20
3.8901552725
 30
0.0
 10
3.3595470366
 20
3.8904933724
 30
0.0
 10
3.3644731451
 20
3.8909052447
 30
0.0
 10
3.3713141872
 20
3.8913781826
 30
0.0
 10
3.3793900051
 20
3.8918527437
 30
0.0
 10
3.3886958154
 20
3.8923287465
 30
0.0
 10
3.3992255294
 20
3.8928056323
 30
0.0
 10
3.4109724704
 20
3.8932831802
 30
0.0
 10
3.4239299507
 20
3.8937612014
 30
0.0
 10
3.4380912004
 20
3.8942395778
 30
0.0
 10
3.4534485826
 20
3.894718212
 30
0.0
 10
3.4762893254
 20
3.8953791637
 30
0.0
 10
3.5077551043
 20
3.8961974157
 30
0.0
 10
3.5489602418
 20
3.8971510626
 30
0.0
 10
3.5946880096
 20
3.8981057405
 30
0.0
 10
3.6448319048
 20
3.8990614261
 30
0.0
 10
3.6992749866
 20
3.9000178877
 30
0.0
 10
3.7578905031
 20
3.9009747954
 30
0.0
 10
3.8205419428
 20
3.9019321466
 30
0.0
 10
3.8870831886
 20
3.9028899046
 30
0.0
 10
3.9573592808
 20
3.903847864
 30
0.0
 10
4.0312065609
 20
3.9048060725
 30
0.0
 10
4.1363067045
 20
3.9061100291
 30
0.0
 10
4.2752515191
 20
3.9077294083
 30
0.0
 10
4.4501470891
 20
3.9096379465
 30
0.0
 10
4.6347284798
 20
3.9115476267
 30
0.0
 10
4.8272767082
 20
3.9134582036
 30
0.0
 10
5.0259982979
 20
3.9153694174
 30
0.0
 10
5.2290419492
 20
3.917281011
 30
0.0
 10
5.4345167694
 20
3.9191928246
 30
0.0
 10
5.6405087572
 20
3.9211046871
 30
0.0
 10
5.8450989724
 20
3.9230164149
 30
0.0
 10
6.0463821323
 20
3.9249278673
 30
0.0
 10
6.2424831769
 20
3.9268388072
 30
0.0
 10
6.4315754091
 20
3.928749014
 30
0.0
 10
6.6118978764
 20
3.9306582098
 30
0.0
 10
6.7817706943
 20
3.9325659364
 30
0.0
 10
6.9396116084
 20
3.9344715787
 30
0.0
 10
7.0839506981
 20
3.9363746248
 30
0.0
 10
7.1951708597
 20
3.9380047743
 30
0.0
 10
7.2764000554
 20
3.9393236708
 30
0.0
 10
7.3311712829
 20
3.9402801221
 30
0.0
 10
7.3816526598
 20
3.9412358388
 30
0.0
 10
7.4277266402
 20
3.9421907666
 30
0.0
 10
7.4692859802
 20
3.943144308
 30
0.0
 10
7.5062337637
 20
3.944096143
 30
0.0
 10
7.5384840532
 20
3.9450453401
 30
0.0
 10
7.5659618827
 20
3.9459910157
 30
0.0
 10
7.5858459993
 20
3.946813884
 30
0.0
 10
7.5993181591
 20
3.9474891469
 30
0.0
 10
7.607583974
 20
3.9479642341
 30
0.0
 10
7.6146173329
 20
3.9484370446
 30
0.0
 10
7.6204141718
 20
3.948907491
 30
0.0
 10
7.6244687167
 20
3.9493189978
 30
0.0
 10
7.6270886072
 20
3.9496611034
 30
0.0
 10
7.6281904452
 20
3.9498339584
 30
0.0
 10
7.6286886716
 20
3.9499230065
 30
0.0
  0
LINE
  5
2D3
100
AcDbEntity
  8
0
100
AcDbLine
 62
7
  6
CONTINUOUS
 10
7.6286886716
 20
3.9499230065
 11
7.6313062982
 21
3.9506377636
  0
SPLINE
  5
2D4
100
AcDbEntity
  8
0
100
AcDbSpline
 62
7
  6
CONTINUOUS
 70
0
 71
3
 72
70
 73
66
 74
0
 42
0.0000001
 43
0.0000001
 44
0.0000000001
 40
0.0
 40
0.0
 40
0.0
 40
0.0
 40
0.0000664153
 40
0.000119406
 40
0.0001883639
 40
0.0002740943
 40
0.0003770053
 40
0.0004973269
 40
0.000635199
 40
0.0009639099
 40
0.0013635804
 40
0.0018344083
 40
0.0023764889
 40
0.0036745237
 40
0.0052577118
 40
0.0071256762
 40
0.0092772689
 40
0.0117110986
 40
0.0144257408
 40
0.0174197507
 40
0.02069167
 40
0.024239928
 40
0.0280623192
 40
0.0365197127
 40
0.0460442504
 40
0.0566154552
 40
0.0682080428
 40
0.0807950201
 40
0.0943487315
 40
0.1088371894
 40
0.1242266377
 40
0.1404828264
 40
0.1575677366
 40
0.1754415842
 40
0.2133923979
 40
0.2539852324
 40
0.2968473792
 40
0.341584606
 40
0.3877848999
 40
0.4350237598
 40
0.4828664217
 40
0.5308727905
 40
0.5786013793
 40
0.6256128854
 40
0.6714752671
 40
0.7157662875
 40
0.7580784754
 40
0.7980232748
 40
0.8352324127
 40
0.8693639809
 40
0.900104768
 40
0.9271708413
 40
0.9392474188
 40
0.9503142144
 40
0.9603471375
 40
0.9693228452
 40
0.9772196832
 40
0.9840210081
 40
0.9897111788
 40
0.9921349586
 40
0.9942762505
 40
0.9961341655
 40
0.9977078716
 40
0.9989966461
 40
1.0
 40
1.0
 40
1.0
 40
1.0
 10
3.3484854716
 20
3.7634578403
 30
0.0
 10
3.3484854967
 20
3.7635525614
 30
0.0
 10
3.3486222205
 20
3.7637002335
 30
0.0
 10
3.3488490917
 20
3.7638292519
 30
0.0
 10
3.349123779
 20
3.7639484425
 30
0.0
 10
3.3494714671
 20
3.7640648456
 30
0.0
 10
3.3498964833
 20
3.7641829607
 30
0.0
 10
3.3503977643
 20
3.7643010108
 30
0.0
 10
3.3512179315
 20
3.7644689101
 30
0.0
 10
3.3524366045
 20
3.7646736446
 30
0.0
 10
3.3541308012
 20
3.764908796
 30
0.0
 10
3.3561316608
 20
3.7651447675
 30
0.0
 10
3.3594104349
 20
3.7654807795
 30
0.0
 10
3.3642758914
 20
3.7658901109
 30
0.0
 10
3.371032954
 20
3.7663601125
 30
0.0
 10
3.3790097522
 20
3.7668317231
 30
0.0
 10
3.3882014392
 20
3.7673047902
 30
0.0
 10
3.3986020139
 20
3.7677787284
 30
0.0
 10
3.4102051153
 20
3.7682533247
 30
0.0
 10
3.4230043772
 20
3.7687283902
 30
0.0
 10
3.436993269
 20
3.7692038042
 30
0.0
 10
3.4521642119
 20
3.7696794687
 30
0.0
 10
3.4747285505
 20
3.770336345
 30
0.0
 10
3.505815208
 20
3.771149558
 30
0.0
 10
3.5465265698
 20
3.7720973059
 30
0.0
 10
3.5917103949
 20
3.7730460696
 30
0.0
 10
3.6412627051
 20
3.7739958562
 30
0.0
 10
3.6950693537
 20
3.7749464026
 30
0.0
 10
3.7530066664
 20
3.7758973867
 30
0.0
 10
3.8149413443
 20
3.7768488239
 30
0.0
 10
3.8807307033
 20
3.7778006602
 30
0.0
 10
3.9502234732
 20
3.7787526926
 30
0.0
 10
4.0232597941
 20
3.7797049797
 30
0.0
 10
4.1272350215
 20
3.7810010071
 30
0.0
 10
4.264735816
 20
3.7826105527
 30
0.0
 10
4.4378738311
 20
3.7845073358
 30
0.0
 10
4.6206911326
 20
3.7864052582
 30
0.0
 10
4.8115061676
 20
3.7883040776
 30
0.0
 10
5.0085635419
 20
3.7902035389
 30
0.0
 10
5.2100500699
 20
3.7921033858
 30
0.0
 10
5.4141125239
 20
3.7940034647
 30
0.0
 10
5.6188734565
 20
3.7959036062
 30
0.0
 10
5.8224489487
 20
3.7978036345
 30
0.0
 10
6.0229665642
 20
3.7997034141
 30
0.0
 10
6.2185813157
 20
3.8016027148
 30
0.0
 10
6.407493603
 20
3.8035013371
 30
0.0
 10
6.5879658284
 20
3.8053990197
 30
0.0
 10
6.7583373352
 20
3.8072952952
 30
0.0
 10
6.9170409324
 20
3.8091897517
 30
0.0
 10
7.0626168418
 20
3.8110814686
 30
0.0
 10
7.1937254652
 20
3.8129695463
 30
0.0
 10
7.2933797764
 20
3.8145936249
 30
0.0
 10
7.3649761672
 20
3.8159110608
 30
0.0
 10
7.4122825493
 20
3.8168605286
 30
0.0
 10
7.4551655412
 20
3.8178087523
 30
0.0
 10
7.4935263687
 20
3.8187554447
 30
0.0
 10
7.5272768106
 20
3.8196999732
 30
0.0
 10
7.5563394065
 20
3.8206415833
 30
0.0
 10
7.5775960439
 20
3.8214589151
 30
0.0
 10
7.5922068144
 20
3.8221271356
 30
0.0
 10
7.6013551
 20
3.8226002205
 30
0.0
 10
7.6092892334
 20
3.8230719761
 30
0.0
 10
7.6160052738
 20
3.8235414405
 30
0.0
 10
7.6214990709
 20
3.8240080033
 30
0.0
 10
7.6247500947
 20
3.8243571501
 30
0.0
 10
7.6261690059
 20
3.824542599
 30
0.0
  0
SPLINE
  5
2D5
100
AcDbEntity
  8
0
100
AcDbSpline
 62
7
  6
CONTINUOUS
 70
0
 71
3
 72
12
 73
8
 74
0
 42
0.0000001
 43
0.0000001
 44
0.0000000001
 40
0.0
 40
0.0
 40
0.0
 40
0.0
 40
0.3627759587
 40
0.6496528679
 40
0.8613587566
 40
0.9395769773
 40
1.0
 40
1.0
 40
1.0
 40
1.0
 10
7.6261690059
 20
3.824542599
 30
0.0
 10
7.626800929
 20
3.8246251901
 30
0.0
 10
7.6279312878
 20
3.8247849473
 30
0.0
 10
7.6294208393
 20
3.8250510983
 30
0.0
 10
7.6304087071
 20
3.8252847305
 30
0.0
 10
7.630991447
 20
3.8254836872
 30
0.0
 10
7.6312141394
 20
3.8255846472
 30
0.0
 10
7.6313060403
 20
3.8256377634
 30
0.0
  0
SPLINE
  5
2D6
100
AcDbEntity
  8
0
100
AcDbSpline
 62
7
  6
CONTINUOUS
 70
0
 71
3
 72
37
 73
33
 74
0
 42
0.0000001
 43
0.0000001
 44
0.0000000001
 40
0.0
 40
0.0
 40
0.0
 40
0.0
 40
0.1205669026
 40
0.2340427494
 40
0.3402170952
 40
0.4388818833
 40
0.5298709031
 40
0.6130560069
 40
0.6883110703
 40
0.7555172982
 40
0.7860714118
 40
0.814577432
 40
0.8410240694
 40
0.8654003114
 40
0.8876955491
 40
0.9079016556
 40
0.9260148361
 40
0.9420328728
 40
0.9559554757
 40
0.9677856594
 40
0.9775325908
 40
0.981631555
 40
0.9852200451
 40
0.9883064264
 40
0.9909042946
 40
0.9930366902
 40
0.9947456838
 40
0.9961131265
 40
0.9967172438
 40
0.9973017365
 40
0.9985251718
 40
1.0
 40
1.0
 40
1.0
 40
1.0
 10
3.69543352
 20
2.6952406058
 30
0.0
 10
3.6794482916
 20
2.69464616
 30
0.0
 10
3.6484191634
 20
2.693460406
 30
0.0
 10
3.6033178712
 20
2.6916272256
 30
0.0
 10
3.5611250463
 20
2.6897930315
 30
0.0
 10
3.5219187158
 20
2.6879581859
 30
0.0
 10
3.4857661057
 20
2.6861230467
 30
0.0
 10
3.4527237019
 20
2.6842882542
 30
0.0
 10
3.4228420028
 20
2.6824539892
 30
0.0
 10
3.3999407722
 20
2.6808805648
 30
0.0
 10
3.3832364787
 20
2.6796102645
 30
0.0
 10
3.371929305
 20
2.678688017
 30
0.0
 10
3.361444697
 20
2.6777658322
 30
0.0
 10
3.3517875239
 20
2.6768437881
 30
0.0
 10
3.3429623726
 20
2.6759220175
 30
0.0
 10
3.3349730764
 20
2.6750006554
 30
0.0
 10
3.3278225876
 20
2.6740801024
 30
0.0
 10
3.3215133076
 20
2.6731607375
 30
0.0
 10
3.316047126
 20
2.672243505
 30
0.0
 10
3.3114261565
 20
2.6713288552
 30
0.0
 10
3.3081121934
 20
2.6705320163
 30
0.0
 10
3.3058926214
 20
2.6698790724
 30
0.0
 10
3.3045388221
 20
2.6694186566
 30
0.0
 10
3.3033967538
 20
2.6689590074
 30
0.0
 10
3.3024652235
 20
2.668500295
 30
0.0
 10
3.3017418575
 20
2.6680409323
 30
0.0
 10
3.3012225998
 20
2.6675791631
 30
0.0
 10
3.3009489342
 20
2.6671619998
 30
0.0
 10
3.3008596063
 20
2.666832057
 30
0.0
 10
3.300847786
 20
2.6665092988
 30
0.0
 10
3.3009922589
 20
2.6660833937
 30
0.0
 10
3.3012241916
 20
2.6658037005
 30
0.0
 10
3.3013625079
 20
2.6656652925
 30
0.0
  0
LINE
  5
2D7
100
AcDbEntity
  8
0
100
AcDbLine
 62
7
  6
CONTINUOUS
 10
3.3487651413
 20
2.8731779181
 11
3.3509833957
 21
2.873818427
  0
SPLINE
  5
2D8
100
AcDbEntity
  8
0
100
AcDbSpline
 62
7
  6
CONTINUOUS
 70
0
 71
3
 72
73
 73
69
 74
0
 42
0.0000001
 43
0.0000001
 44
0.0000000001
 40
0.0
 40
0.0
 40
0.0
 40
0.0
 40
0.0003328083
 40
0.0007376379
 40
0.0017641852
 40
0.0030804715
 40
0.0046859755
 40
0.0065797676
 40
0.0087608113
 40
0.0112280136
 40
0.0139802486
 40
0.0203340125
 40
0.0278062781
 40
0.0363796152
 40
0.0460354847
 40
0.0567502488
 40
0.0684987258
 40
0.0812548229
 40
0.0949877562
 40
0.1252541296
 40
0.1590158472
 40
0.1959585108
 40
0.2357362006
 40
0.2779780741
 40
0.3222901037
 40
0.3682579312
 40
0.4154528312
 40
0.4634341563
 40
0.5117537516
 40
0.5599607453
 40
0.60760477
 40
0.654241303
 40
0.6994349071
 40
0.7427632181
 40
0.7838224515
 40
0.8222289153
 40
0.8403241006
 40
0.8576236469
 40
0.874087862
 40
0.8896773078
 40
0.9043558232
 40
0.918089996
 40
0.9308466889
 40
0.9425963048
 40
0.9533124323
 40
0.9629689587
 40
0.9715434866
 40
0.9754191156
 40
0.9790172154
 40
0.9823354627
 40
0.985371695
 40
0.9881244223
 40
0.990592346
 40
0.9927741881
 40
0.9946687032
 40
0.9962747028
 40
0.9975912395
 40
0.998140929
 40
0.9986182997
 40
0.9990234683
 40
0.9993566544
 40
0.9994963872
 40
0.9996183218
 40
0.9997226009
 40
0.9998094572
 40
0.9998793017
 40
0.9999329436
 40
1.0
 40
1.0
 40
1.0
 40
1.0
 10
3.3509833957
 20
2.873818427
 30
0.0
 10
3.3514498057
 20
2.8739082332
 30
0.0
 10
3.3524884273
 20
2.8740818805
 30
0.0
 10
3.3549828695
 20
2.8744253933
 30
0.0
 10
3.3588833874
 20
2.8748372451
 30
0.0
 10
3.3644988428
 20
2.875307621
 30
0.0
 10
3.3713554741
 20
2.8757805452
 30
0.0
 10
3.3794484735
 20
2.8762558855
 30
0.0
 10
3.3887730418
 20
2.8767324424
 30
0.0
 10
3.3993241014
 20
2.8772099928
 30
0.0
 10
3.4158275904
 20
2.8778800372
 30
0.0
 10
3.4394736264
 20
2.8787026988
 30
0.0
 10
3.4714274982
 20
2.8796531073
 30
0.0
 10
3.508095811
 20
2.880605936
 30
0.0
 10
3.5493930706
 20
2.8815605074
 30
0.0
 10
3.595222878
 20
2.8825164154
 30
0.0
 10
3.6454781167
 20
2.8834733255
 30
0.0
 10
3.7000415283
 20
2.8844308565
 30
0.0
 10
3.7810309395
 20
2.8857515696
 30
0.0
 10
3.8919979601
 20
2.8873839268
 30
0.0
 10
4.0360888151
 20
2.8892891031
 30
0.0
 10
4.1937550727
 20
2.8911969123
 30
0.0
 10
4.3635248239
 20
2.8931069059
 30
0.0
 10
4.5438125913
 20
2.8950183314
 30
0.0
 10
4.7329352565
 20
2.8969307878
 30
0.0
 10
4.9291271192
 20
2.8988440182
 30
0.0
 10
5.1305559623
 20
2.9007577342
 30
0.0
 10
5.3353413462
 20
2.9026717488
 30
0.0
 10
5.5415712306
 20
2.9045859017
 30
0.0
 10
5.7473197066
 20
2.9064999962
 30
0.0
 10
5.9506660474
 20
2.9084138966
 30
0.0
 10
6.1497115503
 20
2.9103273909
 30
0.0
 10
6.3425974684
 20
2.91224026
 30
0.0
 10
6.5275231819
 20
2.9141522617
 30
0.0
 10
6.7027618965
 20
2.9160630501
 30
0.0
 10
6.841989391
 20
2.9176843969
 30
0.0
 10
6.9473088763
 20
2.9189898507
 30
0.0
 10
7.0213147003
 20
2.9199492621
 30
0.0
 10
7.0917440735
 20
2.9209083637
 30
0.0
 10
7.158432403
 20
2.9218672362
 30
0.0
 10
7.2212240506
 20
2.9228258018
 30
0.0
 10
7.2799723583
 20
2.923783854
 30
0.0
 10
7.3345400148
 20
2.9247414075
 30
0.0
 10
7.3847996755
 20
2.9256983244
 30
0.0
 10
7.4306339952
 20
2.9266541518
 30
0.0
 10
7.4719358331
 20
2.9276088543
 30
0.0
 10
7.5034754705
 20
2.9284281668
 30
0.0
 10
7.5263696704
 20
2.9290899309
 30
0.0
 10
7.5417643183
 20
2.9295691398
 30
0.0
 10
7.5559603812
 20
2.9300480441
 30
0.0
 10
7.568949213
 20
2.9305266441
 30
0.0
 10
7.5807235982
 20
2.9310047847
 30
0.0
 10
7.591277539
 20
2.9314822675
 30
0.0
 10
7.6006052974
 20
2.9319588768
 30
0.0
 10
7.6087012281
 20
2.9324340237
 30
0.0
 10
7.6155598269
 20
2.9329074293
 30
0.0
 10
7.6204984765
 20
2.9333197993
 30
0.0
 10
7.6238261241
 20
2.9336583397
 30
0.0
 10
7.625856414
 20
2.9338960676
 30
0.0
 10
7.6275753566
 20
2.9341329694
 30
0.0
 10
7.6288117623
 20
2.9343392322
 30
0.0
 10
7.6296438424
 20
2.9345083879
 30
0.0
 10
7.6301523771
 20
2.9346273148
 30
0.0
 10
7.6305835586
 20
2.9347463082
 30
0.0
 10
7.6309362841
 20
2.9348635676
 30
0.0
 10
7.6312150387
 20
2.9349836416
 30
0.0
 10
7.6314449937
 20
2.9351134702
 30
0.0
 10
7.6315842642
 20
2.9352621379
 30
0.0
 10
7.6315845212
 20
2.9353578392
 30
0.0
  0
SPLINE
  5
2D9
100
AcDbEntity
  8
0
100
AcDbSpline
 62
7
  6
CONTINUOUS
 70
0
 71
3
 72
11
 73
7
 74
0
 42
0.0000001
 43
0.0000001
 44
0.0000000001
 40
0.0
 40
0.0
 40
0.0
 40
0.0
 40
0.1554176371
 40
0.3728520836
 40
0.654113478
 40
1.0
 40
1.0
 40
1.0
 40
1.0
 10
3.3487649981
 20
2.9981779184
 30
0.0
 10
3.3489033845
 20
2.9982577635
 30
0.0
 10
3.3492608794
 20
2.9984027476
 30
0.0
 10
3.3499064833
 20
2.9985903553
 30
0.0
 10
3.350754454
 20
2.9987798186
 30
0.0
 10
3.3513887955
 20
2.9988951855
 30
0.0
 10
3.3517394116
 20
2.9989543323
 30
0.0
  0
SPLINE
  5
2DA
100
AcDbEntity
  8
0
100
AcDbSpline
 62
7
  6
CONTINUOUS
 70
0
 71
3
 72
72
 73
68
 74
0
 42
0.0000001
 43
0.0000001
 44
0.0000000001
 40
0.0
 40
0.0
 40
0.0
 40
0.0
 40
0.0003726632
 40
0.0008171746
 40
0.0019223115
 40
0.003315938
 40
0.0049974086
 40
0.0069657156
 40
0.0092197635
 40
0.0145804651
 40
0.0210689441
 40
0.0286691158
 40
0.0373632887
 40
0.0471327277
 40
0.0579536641
 40
0.0698007334
 40
0.0826477341
 40
0.0964638521
 40
0.1268730917
 40
0.1607464321
 40
0.1977697551
 40
0.2375979203
 40
0.2798613131
 40
0.3241673645
 40
0.3701036282
 40
0.417243594
 40
0.4651490097
 40
0.5133744464
 40
0.5614718732
 40
0.6089939271
 40
0.6554992163
 40
0.7005553555
 40
0.7437432133
 40
0.7846620936
 40
0.822931148
 40
0.8409597879
 40
0.8581944825
 40
0.8745960098
 40
0.8901253708
 40
0.9047464151
 40
0.9184261739
 40
0.9311319397
 40
0.9428340237
 40
0.9535064157
 40
0.9631234164
 40
0.971662432
 40
0.975521909
 40
0.9791050066
 40
0.9824094622
 40
0.9854330802
 40
0.9881742663
 40
0.9906317743
 40
0.992804382
 40
0.9946908997
 40
0.9962901948
 40
0.997601288
 40
0.9981486768
 40
0.9986240335
 40
0.9990274812
 40
0.9993592457
 40
0.9994983819
 40
0.9996197973
 40
0.999723635
 40
0.9998101288
 40
0.9998796903
 40
0.9999331286
 40
1.0
 40
1.0
 40
1.0
 40
1.0
 10
3.3517394116
 20
2.9989543323
 30
0.0
 10
3.352263765
 20
2.9990427874
 30
0.0
 10
3.3534172322
 20
2.9992149887
 30
0.0
 10
3.3561390761
 20
2.999556068
 30
0.0
 10
3.3603193278
 20
2.9999673874
 30
0.0
 10
3.3662657663
 20
3.0004377429
 30
0.0
 10
3.3734469617
 20
3.000910372
 30
0.0
 10
3.381857958
 20
3.001385135
 30
0.0
 10
3.3955157162
 20
3.0020591586
 30
0.0
 10
3.4156234459
 20
3.0028813615
 30
0.0
 10
3.4433602081
 20
3.0038262816
 30
0.0
 10
3.4758558255
 20
3.0047746452
 30
0.0
 10
3.5130347451
 20
3.0057258063
 30
0.0
 10
3.5548107412
 20
3.0066784433
 30
0.0
 10
3.6010866941
 20
3.0076324047
 30
0.0
 10
3.6517549196
 20
3.0085873131
 30
0.0
 10
3.7066977244
 20
3.009542821
 30
0.0
 10
3.7881249819
 20
3.0108600935
 30
0.0
 10
3.8995540247
 20
3.0124885639
 30
0.0
 10
4.0440973401
 20
3.0143897872
 30
0.0
 10
4.2020817678
 20
3.0162935768
 30
0.0
 10
4.3720389326
 20
3.0181994951
 30
0.0
 10
4.5523885905
 20
3.020106806
 30
0.0
 10
4.7414544891
 20
3.022015126
 30
0.0
 10
4.9374792169
 20
3.0239242013
 30
0.0
 10
5.138640194
 20
3.0258337465
 30
0.0
 10
5.3430677874
 20
3.0277435833
 30
0.0
 10
5.5488616621
 20
3.0296535489
 30
0.0
 10
5.7541084858
 20
3.0315634514
 30
0.0
 10
5.9569006854
 20
3.0334731571
 30
0.0
 10
6.1553530084
 20
3.0353824503
 30
0.0
 10
6.3476204776
 20
3.0372911217
 30
0.0
 10
6.5319161707
 20
3.0391989242
 30
0.0
 10
6.7065266813
 20
3.0411055056
 30
0.0
 10
6.8452378927
 20
3.0427233528
 30
0.0
 10
6.9501549134
 20
3.044025963
 30
0.0
 10
7.0238705138
 20
3.0449832622
 30
0.0
 10
7.0940195234
 20
3.0459402534
 30
0.0
 10
7.1604386924
 20
3.0468969985
 30
0.0
 10
7.2229736843
 20
3.0478534548
 30
0.0
 10
7.2814791289
 20
3.0488094021
 30
0.0
 10
7.3358188553
 20
3.0497648259
 30
0.0
 10
7.3858665955
 20
3.0507196379
 30
0.0
 10
7.4315060573
 20
3.0516733714
 30
0.0
 10
7.4726310023
 20
3.0526259415
 30
0.0
 10
7.5040348572
 20
3.0534434599
 30
0.0
 10
7.5268298192
 20
3.0541037723
 30
0.0
 10
7.542157569
 20
3.0545819271
 30
0.0
 10
7.5562919971
 20
3.055059772
 30
0.0
 10
7.5692243496
 20
3.0555373032
 30
0.0
 10
7.58094729
 20
3.0560143914
 30
0.0
 10
7.5914548274
 20
3.0564908231
 30
0.0
 10
7.6007414585
 20
3.0569663852
 30
0.0
 10
7.6088017782
 20
3.0574404908
 30
0.0
 10
7.6156303975
 20
3.0579128551
 30
0.0
 10
7.6205475439
 20
3.058324289
 30
0.0
 10
7.6238606674
 20
3.058662089
 30
0.0
 10
7.6258819783
 20
3.0588992923
 30
0.0
 10
7.6275932508
 20
3.0591356719
 30
0.0
 10
7.6288240953
 20
3.0593414813
 30
0.0
 10
7.6296524003
 20
3.0595102642
 30
0.0
 10
7.6301586192
 20
3.0596289299
 30
0.0
 10
7.6305878275
 20
3.0597476608
 30
0.0
 10
7.630938943
 20
3.0598646683
 30
0.0
 10
7.6312164036
 20
3.0599844743
 30
0.0
 10
7.6314454124
 20
3.0601140921
 30
0.0
 10
7.6315838955
 20
3.0602624191
 30
0.0
 10
7.6315841525
 20
3.0603578391
 30
0.0
  0
SPLINE
  5
2DB
100
AcDbEntity
  8
0
100
AcDbSpline
 62
7
  6
CONTINUOUS
 70
0
 71
3
 72
12
 73
8
 74
0
 42
0.0000001
 43
0.0000001
 44
0.0000000001
 40
0.0
 40
0.0
 40
0.0
 40
0.0
 40
0.0656157208
 40
0.1475881187
 40
0.362311395
 40
0.6461977118
 40
1.0
 40
1.0
 40
1.0
 40
1.0
 10
3.3487647754
 20
3.1231779186
 30
0.0
 10
3.3488396777
 20
3.1232211217
 30
0.0
 10
3.3490160453
 20
3.1233044576
 30
0.0
 10
3.3494645233
 20
3.1234690634
 30
0.0
 10
3.3502055834
 20
3.1236645427
 30
0.0
 10
3.3513067367
 20
3.1238870309
 30
0.0
 10
3.3521365236
 20
3.1240214056
 30
0.0
 10
3.3525976041
 20
3.1240905959
 30
0.0
  0
SPLINE
  5
2DC
100
AcDbEntity
  8
0
100
AcDbSpline
 62
7
  6
CONTINUOUS
 70
0
 71
3
 72
70
 73
66
 74
0
 42
0.0000001
 43
0.0000001
 44
0.0000000001
 40
0.0
 40
0.0
 40
0.0
 40
0.0
 40
0.0008966916
 40
0.0020803341
 40
0.0035511788
 40
0.0053084748
 40
0.0073511439
 40
0.0096780347
 40
0.015179675
 40
0.021802512
 40
0.0295302217
 40
0.0383448561
 40
0.0482274864
 40
0.0591542174
 40
0.0710995065
 40
0.0979359834
 40
0.1284874144
 40
0.1624717708
 40
0.1995752256
 40
0.2394534371
 40
0.2817380238
 40
0.3260378778
 40
0.3719424741
 40
0.4190275107
 40
0.4668571292
 40
0.5149886221
 40
0.5629767849
 40
0.6103772564
 40
0.6567517554
 40
0.7016709338
 40
0.7447188919
 40
0.7854979832
 40
0.8236302009
 40
0.8415925823
 40
0.8587627164
 40
0.875101819
 40
0.8905713614
 40
0.905135206
 40
0.9187607823
 40
0.9314158497
 40
0.9430706386
 40
0.953699481
 40
0.9632771323
 40
0.9717808253
 40
0.9756242226
 40
0.9791923749
 40
0.9824830792
 40
0.9854941547
 40
0.9882238747
 40
0.9906710254
 40
0.9928344396
 40
0.9947129833
 40
0.9963055786
 40
0.997611264
 40
0.9981563767
 40
0.9986297394
 40
0.9990314816
 40
0.9993618355
 40
0.9995003789
 40
0.9996212774
 40
0.9997246753
 40
0.9998108068
 40
0.9998800844
 40
0.9999333174
 40
1.0
 40
1.0
 40
1.0
 40
1.0
 10
3.3525976041
 20
3.1240905959
 30
0.0
 10
3.3538626901
 20
3.1242804363
 30
0.0
 10
3.3568106419
 20
3.1246324539
 30
0.0
 10
3.3618554857
 20
3.1250987332
 30
0.0
 10
3.3681322483
 20
3.1255682903
 30
0.0
 10
3.3756369937
 20
3.1260407507
 30
0.0
 10
3.3843650042
 20
3.1265147529
 30
0.0
 10
3.3984316439
 20
3.1271862609
 30
0.0
 10
3.4190324138
 20
3.1280064833
 30
0.0
 10
3.4473386007
 20
3.1289499564
 30
0.0
 10
3.4803733672
 20
3.1298966594
 30
0.0
 10
3.518060228
 20
3.1308459971
 30
0.0
 10
3.5603121686
 20
3.1317967163
 30
0.0
 10
3.6070313898
 20
3.1327487595
 30
0.0
 10
3.6779349102
 20
3.1340711957
 30
0.0
 10
3.7768346865
 20
3.1357003282
 30
0.0
 10
3.9071757497
 20
3.1375936991
 30
0.0
 10
4.0521653627
 20
3.1394906919
 30
0.0
 10
4.2104618677
 20
3.1413905267
 30
0.0
 10
4.3806005259
 20
3.1432923322
 30
0.0
 10
4.5610063951
 20
3.1451955227
 30
0.0
 10
4.750010152
 20
3.147099692
 30
0.0
 10
4.945862719
 20
3.1490046005
 30
0.0
 10
5.1467511939
 20
3.150909963
 30
0.0
 10
5.350816772
 20
3.1528156106
 30
0.0
 10
5.5561708348
 20
3.1547213772
 30
0.0
 10
5.7609126362
 20
3.1566270764
 30
0.0
 10
5.9631477434
 20
3.1585325758
 30
0.0
 10
6.1610043402
 20
3.1604376565
 30
0.0
 10
6.3526512051
 20
3.1623421193
 30
0.0
 10
6.5363150735
 20
3.1642457108
 30
0.0
 10
6.7102959017
 20
3.1661480744
 30
0.0
 10
6.8484897777
 20
3.167762412
 30
0.0
 10
6.9530036481
 20
3.1690621712
 30
0.0
 10
7.0264285923
 20
3.1700173514
 30
0.0
 10
7.0962968569
 20
3.1709722278
 30
0.0
 10
7.1624465396
 20
3.1719268403
 30
0.0
 10
7.2247245921
 20
3.1728811797
 30
0.0
 10
7.2829869264
 20
3.1738350181
 30
0.0
 10
7.3370985188
 20
3.1747883076
 30
0.0
 10
7.3869341651
 20
3.175741006
 30
0.0
 10
7.4323786184
 20
3.176692642
 30
0.0
 10
7.4733265527
 20
3.1776430765
 30
0.0
 10
7.5045945595
 20
3.1784587918
 30
0.0
 10
7.5272902369
 20
3.1791176499
 30
0.0
 10
7.5425509934
 20
3.1795947467
 30
0.0
 10
7.5566237169
 20
3.1800715342
 30
0.0
 10
7.5694995731
 20
3.1805479913
 30
0.0
 10
7.5811711036
 20
3.1810240227
 30
0.0
 10
7.5916322554
 20
3.1814994002
 30
0.0
 10
7.6008777299
 20
3.1819739125
 30
0.0
 10
7.60890236
 20
3.1824469715
 30
0.0
 10
7.6157009396
 20
3.1829183014
 30
0.0
 10
7.6205965672
 20
3.1833287947
 30
0.0
 10
7.6238952087
 20
3.1836658477
 30
0.0
 10
7.6259075817
 20
3.1839025252
 30
0.0
 10
7.6276112128
 20
3.184138381
 30
0.0
 10
7.6288365119
 20
3.1843437359
 30
0.0
 10
7.6296610478
 20
3.1845121453
 30
0.0
 10
7.6301649504
 20
3.1846305489
 30
0.0
 10
7.6305921815
 20
3.1847490166
 30
0.0
 10
7.6309416799
 20
3.1848657708
 30
0.0
 10
7.6312178357
 20
3.1849853092
 30
0.0
 10
7.6314458824
 20
3.1851147109
 30
0.0
 10
7.6315835586
 20
3.1852627078
 30
0.0
 10
7.6315837968
 20
3.1853578391
 30
0.0
  0
SPLINE
  5
2DD
100
AcDbEntity
  8
0
100
AcDbSpline
 62
7
  6
CONTINUOUS
 70
0
 71
3
 72
70
 73
66
 74
0
 42
0.0000001
 43
0.0000001
 44
0.0000000001
 40
0.0
 40
0.0
 40
0.0
 40
0.0
 40
0.0000311836
 40
0.0000780695
 40
0.0001416555
 40
0.0002223172
 40
0.0003202298
 40
0.0004354864
 40
0.0007182169
 40
0.0010707432
 40
0.001493144
 40
0.0019854391
 40
0.0025476183
 40
0.0031796547
 40
0.0038815118
 40
0.0054945085
 40
0.0073860865
 40
0.0095550654
 40
0.0120000719
 40
0.0147197215
 40
0.0177126222
 40
0.0209773777
 40
0.024512466
 40
0.0283157573
 40
0.0367176664
 40
0.0461645339
 40
0.0566367856
 40
0.0681102229
 40
0.0805592958
 40
0.0939575695
 40
0.1082743246
 40
0.1234775396
 40
0.1395344258
 40
0.1564083373
 40
0.1740614161
 40
0.2115476997
 40
0.2516568964
 40
0.294029732
 40
0.3382859959
 40
0.3840268427
 40
0.4308402767
 40
0.4783036816
 40
0.5259875516
 40
0.5734601438
 40
0.620290421
 40
0.6660528735
 40
0.7103309913
 40
0.7527203699
 40
0.7928342289
 40
0.8303054522
 40
0.8647895458
 40
0.8959704353
 40
0.9235609413
 40
0.935928204
 40
0.947305257
 40
0.9576658066
 40
0.9669846052
 40
0.9752411308
 40
0.9824162118
 40
0.9884918568
 40
0.9934551077
 40
0.9955159868
 40
0.9972944684
 40
0.9987893165
 40
1.0
 40
1.0
 40
1.0
 40
1.0
 10
7.673945897
 20
2.660901035
 30
0.0
 10
7.673914145
 20
2.6608692831
 30
0.0
 10
7.6738143015
 20
2.6608124434
 30
0.0
 10
7.6736235684
 20
2.6607415847
 30
0.0
 10
7.6733573293
 20
2.6606694405
 30
0.0
 10
7.6730163571
 20
2.660596633
 30
0.0
 10
7.6725995206
 20
2.6605233356
 30
0.0
 10
7.6718932203
 20
2.6604179386
 30
0.0
 10
7.6708198436
 20
2.6602902987
 30
0.0
 10
7.6693038099
 20
2.6601441437
 30
0.0
 10
7.6674848788
 20
2.6599973228
 30
0.0
 10
7.665363284
 20
2.6598499193
 30
0.0
 10
7.6629392044
 20
2.6597021851
 30
0.0
 10
7.6602128832
 20
2.6595541837
 30
0.0
 10
7.6559744503
 20
2.6593468752
 30
0.0
 10
7.6499225488
 20
2.6590918915
 30
0.0
 10
7.6417579904
 20
2.6587972272
 30
0.0
 10
7.6323946944
 20
2.6585018773
 30
0.0
 10
7.6218384861
 20
2.6582059558
 30
0.0
 10
7.6100954355
 20
2.6579096425
 30
0.0
 10
7.5971716263
 20
2.6576130154
 30
0.0
 10
7.5830733195
 20
2.6573161439
 30
0.0
 10
7.5678078275
 20
2.6570190737
 30
0.0
 10
7.5451457203
 20
2.6566089963
 30
0.0
 10
7.5139711368
 20
2.6561010475
 30
0.0
 10
7.4731935111
 20
2.6555086924
 30
0.0
 10
7.4279925163
 20
2.6549155753
 30
0.0
 10
7.3784680584
 20
2.6543216763
 30
0.0
 10
7.3247298963
 20
2.6537271652
 30
0.0
 10
7.2668971668
 20
2.6531322253
 30
0.0
 10
7.2050983174
 20
2.6525368337
 30
0.0
 10
7.1394709377
 20
2.6519410432
 30
0.0
 10
7.0701611453
 20
2.6513449746
 30
0.0
 10
6.9973234599
 20
2.6507485743
 30
0.0
 10
6.8936284575
 20
2.6499366585
 30
0.0
 10
6.7564754718
 20
2.6489278211
 30
0.0
 10
6.5837267456
 20
2.6477383722
 30
0.0
 10
6.401229127
 20
2.6465475532
 30
0.0
 10
6.2106218492
 20
2.645355536
 30
0.0
 10
6.0136200535
 20
2.644162464
 30
0.0
 10
5.8119999396
 20
2.6429684859
 30
0.0
 10
5.607581854
 20
2.6417737122
 30
0.0
 10
5.4022145771
 20
2.6405782285
 30
0.0
 10
5.1977590149
 20
2.6393821501
 30
0.0
 10
4.9960703196
 20
2.6381855616
 30
0.0
 10
4.7989817107
 20
2.6369885814
 30
0.0
 10
4.6082880605
 20
2.635791361
 30
0.0
 10
4.4257284785
 20
2.6345940342
 30
0.0
 10
4.2529709559
 20
2.633396859
 30
0.0
 10
4.0915972274
 20
2.6322001424
 30
0.0
 10
3.9430872297
 20
2.6310043687
 30
0.0
 10
3.8088058303
 20
2.6298100153
 30
0.0
 10
3.7063721945
 20
2.6287833106
 30
0.0
 10
3.6324553992
 20
2.6279505861
 30
0.0
 10
3.5833485072
 20
2.6273493403
 30
0.0
 10
3.5386317149
 20
2.6267486269
 30
0.0
 10
3.4984088768
 20
2.6261484946
 30
0.0
 10
3.4627736265
 20
2.6255493687
 30
0.0
 10
3.4318091728
 20
2.6249521579
 30
0.0
 10
3.4055879883
 20
2.6243569877
 30
0.0
 10
3.3867314613
 20
2.623838348
 30
0.0
 10
3.3740629612
 20
2.6234116282
 30
0.0
 10
3.366387534
 20
2.6231126732
 30
0.0
 10
3.3599374296
 20
2.622814974
 30
0.0
 10
3.3560475412
 20
2.622595413
 30
0.0
 10
3.3543079309
 20
2.6224810014
 30
0.0
  0
SPLINE
  5
2DE
100
AcDbEntity
  8
0
100
AcDbSpline
 62
7
  6
CONTINUOUS
 70
0
 71
3
 72
16
 73
12
 74
0
 42
0.0000001
 43
0.0000001
 44
0.0000000001
 40
0.0
 40
0.0
 40
0.0
 40
0.0
 40
0.2103768394
 40
0.3962792322
 40
0.5577103593
 40
0.6946843741
 40
0.8072359458
 40
0.8954429629
 40
0.9594920826
 40
0.982615441
 40
1.0
 40
1.0
 40
1.0
 40
1.0
 10
3.3543079309
 20
2.6224810014
 30
0.0
 10
3.3537087291
 20
2.6224415928
 30
0.0
 10
3.352580275
 20
2.6223635691
 30
0.0
 10
3.3509931751
 20
2.6222395152
 30
0.0
 10
3.3496162646
 20
2.6221158259
 30
0.0
 10
3.3484497081
 20
2.6219925593
 30
0.0
 10
3.347493239
 20
2.6218703895
 30
0.0
 10
3.3467472416
 20
2.6217490424
 30
0.0
 10
3.3462571166
 20
2.6216427104
 30
0.0
 10
3.3459728716
 20
2.6215513957
 30
0.0
 10
3.3458663655
 20
2.6215050084
 30
0.0
 10
3.3458233519
 20
2.6214802657
 30
0.0
  0
SPLINE
  5
2DF
100
AcDbEntity
  8
0
100
AcDbSpline
 62
7
  6
CONTINUOUS
 70
0
 71
3
 72
26
 73
22
 74
0
 42
0.0000001
 43
0.0000001
 44
0.0000000001
 40
0.0
 40
0.0
 40
0.0
 40
0.0
 40
0.0015830284
 40
0.0035869402
 40
0.0089012803
 40
0.0159936234
 40
0.0248818138
 40
0.0355741368
 40
0.0480748021
 40
0.0623859971
 40
0.0785087938
 40
0.1161877055
 40
0.1610942577
 40
0.2132023771
 40
0.2724842994
 40
0.3389113119
 40
0.4124541276
 40
0.4930772739
 40
0.5807171565
 40
0.7767584721
 40
1.0
 40
1.0
 40
1.0
 40
1.0
 10
3.34876529
 20
3.2481779203
 30
0.0
 10
3.3488464822
 20
3.2482247179
 30
0.0
 10
3.3490396679
 20
3.2483145235
 30
0.0
 10
3.349536231
 20
3.2484917361
 30
0.0
 10
3.3503647152
 20
3.2487013146
 30
0.0
 10
3.3516026422
 20
3.24893986
 30
0.0
 10
3.3531636635
 20
3.2491799291
 30
0.0
 10
3.3550474736
 20
3.249421629
 30
0.0
 10
3.357254505
 20
3.2496640727
 30
0.0
 10
3.3597845886
 20
3.249907142
 30
0.0
 10
3.3638022646
 20
3.2502497829
 30
0.0
 10
3.3696307958
 20
3.2506695774
 30
0.0
 10
3.3775898947
 20
3.2511533527
 30
0.0
 10
3.3868298154
 20
3.251638507
 30
0.0
 10
3.3973451743
 20
3.2521248107
 30
0.0
 10
3.409130608
 20
3.2526118679
 30
0.0
 10
3.4221803569
 20
3.2530994993
 30
0.0
 10
3.4364866608
 20
3.2535875356
 30
0.0
 10
3.4580424258
 20
3.2542642466
 30
0.0
 10
3.4880400625
 20
3.2551001874
 30
0.0
 10
3.5128536572
 20
3.2557088004
 30
0.0
 10
3.5260656917
 20
3.2560166357
 30
0.0
  0
SPLINE
  5
2E0
100
AcDbEntity
  8
0
100
AcDbSpline
 62
7
  6
CONTINUOUS
 70
0
 71
3
 72
12
 73
8
 74
0
 42
0.0000001
 43
0.0000001
 44
0.0000000001
 40
0.0
 40
0.0
 40
0.0
 40
0.0
 40
0.0661512286
 40
0.1485186325
 40
0.3635778459
 40
0.6471644075
 40
1.0
 40
1.0
 40
1.0
 40
1.0
 10
3.3487626597
 20
3.9981779179
 30
0.0
 10
3.3488358243
 20
3.9982201486
 30
0.0
 10
3.3490076595
 20
3.9983017061
 30
0.0
 10
3.349443395
 20
3.9984628342
 30
0.0
 10
3.3501615323
 20
3.9986543833
 30
0.0
 10
3.3512269267
 20
3.9988724064
 30
0.0
 10
3.3520291513
 20
3.9990041813
 30
0.0
 10
3.3524746025
 20
3.9990720057
 30
0.0
  0
SPLINE
  5
2E1
100
AcDbEntity
  8
0
100
AcDbSpline
 62
7
  6
CONTINUOUS
 70
0
 71
3
 72
72
 73
68
 74
0
 42
0.0000001
 43
0.0000001
 44
0.0000000001
 40
0.0
 40
0.0
 40
0.0
 40
0.0
 40
0.0008862532
 40
0.0020592725
 40
0.0035191506
 40
0.0052656399
 40
0.0072982022
 40
0.0096155565
 40
0.0150985295
 40
0.0217021749
 40
0.0294128388
 40
0.0382116202
 40
0.0480780031
 40
0.0589905612
 40
0.070923029
 40
0.083847487
 40
0.0977352978
 40
0.1282672498
 40
0.1622370395
 40
0.1993290331
 40
0.2392004377
 40
0.281482407
 40
0.3257826967
 40
0.3716916644
 40
0.4187841777
 40
0.4666239172
 40
0.5147682244
 40
0.5627710507
 40
0.6101881227
 40
0.6565803302
 40
0.7015178274
 40
0.7445851263
 40
0.7853829638
 40
0.823533478
 40
0.8415050464
 40
0.8586843086
 40
0.8750312756
 40
0.8905090946
 40
0.9050811807
 40
0.9187134443
 40
0.9313754966
 40
0.9430372907
 40
0.9536713395
 40
0.9632543682
 40
0.97176354
 40
0.975608835
 40
0.9791785817
 40
0.9824708936
 40
0.9854838911
 40
0.9882157032
 40
0.9906644894
 40
0.9928288866
 40
0.994708064
 40
0.9963012725
 40
0.9976078693
 40
0.998153555
 40
0.9986274688
 40
0.999029655
 40
0.999360271
 40
0.9994988766
 40
0.9996197985
 40
0.9997231865
 40
0.9998092811
 40
0.9998785016
 40
0.9999316665
 40
0.9999706175
 40
1.0
 40
1.0
 40
1.0
 40
1.0
 10
3.3524746025
 20
3.9990720057
 30
0.0
 10
3.3537245939
 20
3.9992623294
 30
0.0
 10
3.3566423895
 20
3.9996145595
 30
0.0
 10
3.3616414973
 20
4.0000807922
 30
0.0
 10
3.367872107
 20
4.0005504543
 30
0.0
 10
3.375331504
 20
4.0010230403
 30
0.0
 10
3.3840162771
 20
4.001497094
 30
0.0
 10
3.3980286192
 20
4.0021688783
 30
0.0
 10
3.4185623492
 20
4.0029892722
 30
0.0
 10
3.4467910193
 20
4.0039332043
 30
0.0
 10
3.479752456
 20
4.004880006
 30
0.0
 10
3.5173703359
 20
4.0058295094
 30
0.0
 10
3.5595575352
 20
4.0067806606
 30
0.0
 10
3.6062164881
 20
4.007732855
 30
0.0
 10
3.6572391352
 20
4.0086859574
 30
0.0
 10
3.7125071746
 20
4.0096398243
 30
0.0
 10
3.7943083591
 20
4.0109540431
 30
0.0
 10
3.9061332457
 20
4.0125792217
 30
0.0
 10
4.0510623788
 20
4.0144769326
 30
0.0
 10
4.2093169075
 20
4.0163773085
 30
0.0
 10
4.3794310008
 20
4.0182796762
 30
0.0
 10
4.5598295968
 20
4.0201833988
 30
0.0
 10
4.7488422933
 20
4.0220881707
 30
0.0
 10
4.9447184131
 20
4.0239936292
 30
0.0
 10
5.1456444142
 20
4.0258995608
 30
0.0
 10
5.3497596621
 20
4.0278057918
 30
0.0
 10
5.5551736884
 20
4.029712117
 30
0.0
 10
5.7599846789
 20
4.0316184046
 30
0.0
 10
5.9622958808
 20
4.0335244675
 30
0.0
 10
6.1602336527
 20
4.0354301176
 30
0.0
 10
6.3519654109
 20
4.0373351825
 30
0.0
 10
6.5357154079
 20
4.0392393116
 30
0.0
 10
6.7097820345
 20
4.0411422663
 30
0.0
 10
6.8480461207
 20
4.0427570957
 30
0.0
 10
6.9526154426
 20
4.0440572439
 30
0.0
 10
7.0260799982
 20
4.0450126641
 30
0.0
 10
7.0959864645
 20
4.045967895
 30
0.0
 10
7.1621729704
 20
4.0469227881
 30
0.0
 10
7.2244860484
 20
4.0478773469
 30
0.0
 10
7.2827814393
 20
4.0488315569
 30
0.0
 10
7.336924198
 20
4.0497851377
 30
0.0
 10
7.3867887685
 20
4.0507380192
 30
0.0
 10
7.4322597133
 20
4.0516900501
 30
0.0
 10
7.4732318241
 20
4.052640799
 30
0.0
 10
7.5045189934
 20
4.0534566333
 30
0.0
 10
7.5272281671
 20
4.0541157471
 30
0.0
 10
7.5424966683
 20
4.054593008
 30
0.0
 10
7.5565771342
 20
4.0550699685
 30
0.0
 10
7.5694614077
 20
4.0555465698
 30
0.0
 10
7.5811413616
 20
4.0560226865
 30
0.0
 10
7.5916095588
 20
4.0564981767
 30
0.0
 10
7.6008599565
 20
4.0569728584
 30
0.0
 10
7.608888011
 20
4.0574460964
 30
0.0
 10
7.6156898731
 20
4.0579176311
 30
0.0
 10
7.6205886436
 20
4.0583282574
 30
0.0
 10
7.623890301
 20
4.0586653497
 30
0.0
 10
7.6259049859
 20
4.0589020846
 30
0.0
 10
7.6276104674
 20
4.0591379689
 30
0.0
 10
7.6288369275
 20
4.0593434164
 30
0.0
 10
7.6296619493
 20
4.0595118472
 30
0.0
 10
7.6301660492
 20
4.059630401
 30
0.0
 10
7.6305930202
 20
4.0597485568
 30
0.0
 10
7.6309430214
 20
4.0598663249
 30
0.0
 10
7.6312171489
 20
4.0599832424
 30
0.0
 10
7.6314160372
 20
4.0601004976
 30
0.0
 10
7.6315460385
 20
4.0602189528
 30
0.0
 10
7.6315832281
 20
4.0603159214
 30
0.0
 10
7.6315831687
 20
4.0603578407
 30
0.0
  0
SPLINE
  5
2E2
100
AcDbEntity
  8
0
100
AcDbSpline
 62
7
  6
CONTINUOUS
 70
0
 71
3
 72
80
 73
76
 74
0
 42
0.0000001
 43
0.0000001
 44
0.0000000001
 40
0.0
 40
0.0
 40
0.0
 40
0.0
 40
0.000066228
 40
0.000120303
 40
0.0001910913
 40
0.0002793615
 40
0.0003854988
 40
0.0005097187
 40
0.0006521513
 40
0.0009919462
 40
0.0014052894
 40
0.0024532054
 40
0.0037964565
 40
0.0054349798
 40
0.0073682424
 40
0.0095949494
 40
0.012113649
 40
0.0149228581
 40
0.0180210749
 40
0.0214067803
 40
0.0250780958
 40
0.0290325509
 40
0.0377807514
 40
0.0476310914
 40
0.058560964
 40
0.070543051
 40
0.083549411
 40
0.0975496308
 40
0.1125091804
 40
0.1283930761
 40
0.1451637985
 40
0.1627803768
 40
0.1812015037
 40
0.2202795498
 40
0.2620251905
 40
0.3060399394
 40
0.3519046457
 40
0.3991819596
 40
0.4474208173
 40
0.4961615568
 40
0.5449393091
 40
0.593288985
 40
0.6407497857
 40
0.6868687888
 40
0.7312065323
 40
0.77334056
 40
0.8128684607
 40
0.8494137607
 40
0.8664581257
 40
0.8826285612
 40
0.8978860669
 40
0.9121953565
 40
0.9255215697
 40
0.9378326431
 40
0.949100382
 40
0.9592970029
 40
0.9683981367
 40
0.9763832853
 40
0.9799510382
 40
0.983232405
 40
0.9862257268
 40
0.9889294933
 40
0.9913422083
 40
0.9934623986
 40
0.9952886295
 40
0.99681983
 40
0.9974746943
 40
0.9980557185
 40
0.9985629235
 40
0.9989963736
 40
0.9993562134
 40
0.9996427489
 40
0.9998566698
 40
0.9999369361
 40
1.0
 40
1.0
 40
1.0
 40
1.0
 10
3.2717854678
 20
4.0577406058
 30
0.0
 10
3.2717854678
 20
4.0578385623
 30
0.0
 10
3.2719354596
 20
4.057989034
 30
0.0
 10
3.2721761862
 20
4.0581186452
 30
0.0
 10
3.2724712512
 20
4.0582400111
 30
0.0
 10
3.2728442265
 20
4.0583583258
 30
0.0
 10
3.2733004843
 20
4.058478544
 30
0.0
 10
3.2738385807
 20
4.0585986816
 30
0.0
 10
3.2747192707
 20
4.0587696264
 30
0.0
 10
3.2760276713
 20
4.0589781191
 30
0.0
 10
3.2786690382
 20
4.0593253598
 30
0.0
 10
3.2827969453
 20
4.0597415903
 30
0.0
 10
3.2887383015
 20
4.06021724
 30
0.0
 10
3.2959925033
 20
4.0606953254
 30
0.0
 10
3.3045555471
 20
4.0611757089
 30
0.0
 10
3.3144221509
 20
4.0616573016
 30
0.0
 10
3.3255856433
 20
4.0621398246
 30
0.0
 10
3.3380392124
 20
4.0626229726
 30
0.0
 10
3.3517759999
 20
4.0631066016
 30
0.0
 10
3.3667886173
 20
4.0635905715
 30
0.0
 10
3.3830682729
 20
4.0640748256
 30
0.0
 10
3.4072774488
 20
4.0647435599
 30
0.0
 10
3.4406248972
 20
4.0655715007
 30
0.0
 10
3.484289129
 20
4.0665363723
 30
0.0
 10
3.5327375592
 20
4.0675022926
 30
0.0
 10
3.585854808
 20
4.0684693055
 30
0.0
 10
3.6435140198
 20
4.0694370007
 30
0.0
 10
3.7055776981
 20
4.0704051779
 30
0.0
 10
3.7718979532
 20
4.0713738748
 30
0.0
 10
3.8423164052
 20
4.0723428931
 30
0.0
 10
3.9166651603
 20
4.0733121363
 30
0.0
 10
3.9947669791
 20
4.0742816914
 30
0.0
 10
4.1058612782
 20
4.0756007079
 30
0.0
 10
4.2526430681
 20
4.0772388898
 30
0.0
 10
4.4372788812
 20
4.079169799
 30
0.0
 10
4.6319532056
 20
4.0811019229
 30
0.0
 10
4.8348096861
 20
4.0830349299
 30
0.0
 10
5.0439142249
 20
4.084968535
 30
0.0
 10
5.2572728172
 20
4.086902541
 30
0.0
 10
5.4728507643
 20
4.0888367258
 30
0.0
 10
5.6885926266
 20
4.0907709284
 30
0.0
 10
5.9024412836
 20
4.092704975
 30
0.0
 10
6.1123572813
 20
4.094638653
 30
0.0
 10
6.3163390625
 20
4.0965717768
 30
0.0
 10
6.5124417687
 20
4.0985040771
 30
0.0
 10
6.698795234
 20
4.1004351378
 30
0.0
 10
6.8736224219
 20
4.1023646711
 30
0.0
 10
7.011340893
 20
4.1040064635
 30
0.0
 10
7.1145131064
 20
4.1053299012
 30
0.0
 10
7.1862009297
 20
4.1062989971
 30
0.0
 10
7.2538429746
 20
4.1072678219
 30
0.0
 10
7.3172777398
 20
4.1082361719
 30
0.0
 10
7.3763539657
 20
4.1092040181
 30
0.0
 10
7.43093086
 20
4.1101712883
 30
0.0
 10
7.4808780706
 20
4.1111376038
 30
0.0
 10
7.5260765844
 20
4.112102751
 30
0.0
 10
7.5664186886
 20
4.1130665246
 30
0.0
 10
7.5969564722
 20
4.113895584
 30
0.0
 10
7.6188872833
 20
4.1145666005
 30
0.0
 10
7.6334370074
 20
4.1150504868
 30
0.0
 10
7.6467080741
 20
4.1155339515
 30
0.0
 10
7.6586934247
 20
4.1160168893
 30
0.0
 10
7.6693862128
 20
4.1164991326
 30
0.0
 10
7.6787796456
 20
4.1169802779
 30
0.0
 10
7.6868673523
 20
4.1174601188
 30
0.0
 10
7.692787435
 20
4.1178766768
 30
0.0
 10
7.6968660934
 20
4.1182166525
 30
0.0
 10
7.6994330197
 20
4.1184577684
 30
0.0
 10
7.7016709271
 20
4.1186982353
 30
0.0
 10
7.7035795507
 20
4.1189379325
 30
0.0
 10
7.7051592455
 20
4.1191759309
 30
0.0
 10
7.7064095856
 20
4.1194123654
 30
0.0
 10
7.7072445972
 20
4.1196200265
 30
0.0
 10
7.7077431793
 20
4.1197958896
 30
0.0
 10
7.7079363208
 20
4.1198850364
 30
0.0
 10
7.7080171472
 20
4.1199315937
 30
0.0
  0
LINE
  5
2E3
100
AcDbEntity
  8
0
100
AcDbLine
 62
7
  6
CONTINUOUS
 10
3.3487628205
 20
3.8731779183
 11
3.3516307562
 21
3.8739358555
  0
SPLINE
  5
2E4
100
AcDbEntity
  8
0
100
AcDbSpline
 62
7
  6
CONTINUOUS
 70
0
 71
3
 72
72
 73
68
 74
0
 42
0.0000001
 43
0.0000001
 44
0.0000000001
 40
0.0
 40
0.0
 40
0.0
 40
0.0
 40
0.0003674722
 40
0.0008067778
 40
0.0019013168
 40
0.003283996
 40
0.0049546811
 40
0.0069129051
 40
0.009157437
 40
0.0144994936
 40
0.0209688029
 40
0.028551973
 40
0.0372303019
 40
0.046983503
 40
0.0577903147
 40
0.0696245644
 40
0.0824584856
 40
0.0962635231
 40
0.1266532751
 40
0.1605121096
 40
0.1975240215
 40
0.2373453745
 40
0.2796062306
 40
0.3239127698
 40
0.3698534307
 40
0.4170009656
 40
0.4649165588
 40
0.5131548861
 40
0.5612670601
 40
0.6088057758
 40
0.6553289082
 40
0.7004034132
 40
0.7436106789
 40
0.7845484921
 40
0.8228358271
 40
0.8408738145
 40
0.8581175509
 40
0.8745269741
 40
0.8900647994
 40
0.9046939763
 40
0.9183804345
 40
0.9310933971
 40
0.9428023585
 40
0.9534799461
 40
0.9631025559
 40
0.9716469076
 40
0.9755082229
 40
0.9790929363
 40
0.9823991033
 40
0.9854247855
 40
0.9881680537
 40
0.9906270575
 40
0.9928005721
 40
0.9946877353
 40
0.996287744
 40
0.9975999017
 40
0.9981478865
 40
0.9986237695
 40
0.9990275892
 40
0.9993595345
 40
0.9994987005
 40
0.9996201124
 40
0.9997239194
 40
0.9998103611
 40
0.9998798562
 40
0.9999332227
 40
1.0
 40
1.0
 40
1.0
 40
1.0
 10
3.3516307562
 20
3.8739358555
 30
0.0
 10
3.3521475824
 20
3.8740244708
 30
0.0
 10
3.3532860609
 20
3.8741968446
 30
0.0
 10
3.35597775
 20
3.8745381911
 30
0.0
 10
3.360119763
 20
3.8749495786
 30
0.0
 10
3.3660200652
 20
3.8754200588
 30
0.0
 10
3.3731559452
 20
3.8758927893
 30
0.0
 10
3.3815237291
 20
3.8763675983
 30
0.0
 10
3.3951271863
 20
3.8770418987
 30
0.0
 10
3.4151678322
 20
3.8778642693
 30
0.0
 10
3.4428270241
 20
3.8788096484
 30
0.0
 10
3.4752492178
 20
3.8797580963
 30
0.0
 10
3.5123590222
 20
3.880709425
 30
0.0
 10
3.5540701269
 20
3.8816624826
 30
0.0
 10
3.6002856288
 20
3.8826166405
 30
0.0
 10
3.6508980254
 20
3.8835717505
 30
0.0
 10
3.705789454
 20
3.8845276513
 30
0.0
 10
3.787156499
 20
3.8858452999
 30
0.0
 10
3.8985240603
 20
3.8874743804
 30
0.0
 10
4.0430062744
 20
3.8893760514
 30
0.0
 10
4.2009480327
 20
3.8912804575
 30
0.0
 10
4.370879917
 20
3.8931869146
 30
0.0
 10
4.5512215412
 20
3.8950947571
 30
0.0
 10
4.740295625
 20
3.8970036744
 30
0.0
 10
4.9363431382
 20
3.8989132991
 30
0.0
 10
5.1375408593
 20
3.9008234066
 30
0.0
 10
5.3420174004
 20
3.9027338251
 30
0.0
 10
5.5478705014
 20
3.9046443454
 30
0.0
 10
5.7531857904
 20
3.9065548316
 30
0.0
 10
5.9560534602
 20
3.9084651002
 30
0.0
 10
6.1545863062
 20
3.910374955
 30
0.0
 10
6.3469380584
 20
3.9122842269
 30
0.0
 10
6.5313193864
 20
3.914192569
 30
0.0
 10
6.7060151622
 20
3.9160997232
 30
0.0
 10
6.844796364
 20
3.9177180801
 30
0.0
 10
6.9497683968
 20
3.9190210565
 30
0.0
 10
7.0235233923
 20
3.9199786067
 30
0.0
 10
7.093710444
 20
3.9209359538
 30
0.0
 10
7.1601662635
 20
3.9218929585
 30
0.0
 10
7.2227360998
 20
3.9228496489
 30
0.0
 10
7.2812744749
 20
3.9238059727
 30
0.0
 10
7.3356452356
 20
3.924761658
 30
0.0
 10
7.3857217559
 20
3.9257166726
 30
0.0
 10
7.4313876151
 20
3.926670813
 30
0.0
 10
7.4725366455
 20
3.9276236523
 30
0.0
 10
7.5039595488
 20
3.928441314
 30
0.0
 10
7.5267676359
 20
3.929101886
 30
0.0
 10
7.5421031478
 20
3.9295802044
 30
0.0
 10
7.55624563
 20
3.9300582212
 30
0.0
 10
7.5691866736
 20
3.9305358774
 30
0.0
 10
7.5809179689
 20
3.9310130479
 30
0.0
 10
7.5914321763
 20
3.9314896124
 30
0.0
 10
7.6007233923
 20
3.9319653468
 30
0.0
 10
7.6087871477
 20
3.9324396317
 30
0.0
 10
7.6156193943
 20
3.9329122082
 30
0.0
 10
7.6205400575
 20
3.9333237388
 30
0.0
 10
7.6238563985
 20
3.9336615838
 30
0.0
 10
7.6258799032
 20
3.9338988349
 30
0.0
 10
7.6275927687
 20
3.9341352615
 30
0.0
 10
7.6288244776
 20
3.9343411437
 30
0.0
 10
7.6296530923
 20
3.9345099966
 30
0.0
 10
7.6301593113
 20
3.9346286955
 30
0.0
 10
7.6305883934
 20
3.9347474632
 30
0.0
 10
7.6309392896
 20
3.9348644947
 30
0.0
 10
7.6312164368
 20
3.9349843567
 30
0.0
 10
7.6314450954
 20
3.9351139581
 30
0.0
 10
7.6315830556
 20
3.935262552
 30
0.0
 10
7.6315829753
 20
3.9353578406
 30
0.0
  0
SPLINE
  5
2E5
100
AcDbEntity
  8
0
100
AcDbSpline
 62
7
  6
CONTINUOUS
 70
0
 71
3
 72
79
 73
75
 74
0
 42
0.0000001
 43
0.0000001
 44
0.0000000001
 40
0.0
 40
0.0
 40
0.0
 40
0.0
 40
0.0000677474
 40
0.0001221302
 40
0.0001930106
 40
0.0002812043
 40
0.0003871262
 40
0.0005110119
 40
0.0006530069
 40
0.0009916603
 40
0.0014035697
 40
0.0018889736
 40
0.002448008
 40
0.0037870591
 40
0.0054201867
 40
0.0073464298
 40
0.0095647209
 40
0.012073936
 40
0.0148729183
 40
0.0179603104
 40
0.0213340565
 40
0.02499193
 40
0.0289316975
 40
0.0376479562
 40
0.0474635563
 40
0.0583539598
 40
0.0702933344
 40
0.0832545904
 40
0.0972057727
 40
0.1121137345
 40
0.1279442026
 40
0.1446585162
 40
0.1622169403
 40
0.1805787626
 40
0.2195335347
 40
0.2611536112
 40
0.3050428254
 40
0.3507845418
 40
0.3979446472
 40
0.4460746901
 40
0.4947177648
 40
0.5434117707
 40
0.5916940873
 40
0.6391063668
 40
0.6851977916
 40
0.7295308863
 40
0.7716848118
 40
0.8112583487
 40
0.8478763545
 40
0.8649671446
 40
0.8811912813
 40
0.8965091989
 40
0.9108856403
 40
0.924286422
 40
0.9366785704
 40
0.9480339124
 40
0.9583254783
 40
0.9675276146
 40
0.9756198711
 40
0.9792438208
 40
0.982583138
 40
0.9856356175
 40
0.9883997446
 40
0.9908741883
 40
0.9930576386
 40
0.9949488207
 40
0.9965465206
 40
0.9978498161
 40
0.9983910564
 40
0.9988587696
 40
0.9992530904
 40
0.9995742746
 40
0.999822841
 40
1.0
 40
1.0
 40
1.0
 40
1.0
 10
3.348487515
 20
2.8884578411
 30
0.0
 10
3.3484877144
 20
2.8885545754
 30
0.0
 10
3.3486296794
 20
2.8887046186
 30
0.0
 10
3.3488630296
 20
2.8888353125
 30
0.0
 10
3.3491464378
 20
2.8889564429
 30
0.0
 10
3.3495050279
 20
2.8890746942
 30
0.0
 10
3.3499434667
 20
2.8891947195
 30
0.0
 10
3.3504606036
 20
2.8893146732
 30
0.0
 10
3.3513069092
 20
2.8894853081
 30
0.0
 10
3.3525645772
 20
2.889693364
 30
0.0
 10
3.3543132605
 20
2.8899323183
 30
0.0
 10
3.3563789796
 20
2.890172107
 30
0.0
 10
3.3597652124
 20
2.8905135833
 30
0.0
 10
3.364790498
 20
2.8909294482
 30
0.0
 10
3.3717686116
 20
2.8914069978
 30
0.0
 10
3.3800045529
 20
2.8918862857
 30
0.0
 10
3.3894931415
 20
2.8923670471
 30
0.0
 10
3.40022925
 20
2.8928486834
 30
0.0
 10
3.4122074002
 20
2.8933309686
 30
0.0
 10
3.4254208731
 20
2.8938136722
 30
0.0
 10
3.4398614621
 20
2.8942967416
 30
0.0
 10
3.4555197481
 20
2.894780119
 30
0.0
 10
3.4788043486
 20
2.8954476351
 30
0.0
 10
3.5108803649
 20
2.8962740393
 30
0.0
 10
3.5528805759
 20
2.8972369336
 30
0.0
 10
3.5994840382
 20
2.8982011238
 30
0.0
 10
3.6505799399
 20
2.8991663372
 30
0.0
 10
3.7060469432
 20
2.900132128
 30
0.0
 10
3.7657532899
 20
2.9010985399
 30
0.0
 10
3.8295569949
 20
2.9020654199
 30
0.0
 10
3.8973065169
 20
2.9030325534
 30
0.0
 10
3.9688409177
 20
2.9040000098
 30
0.0
 10
4.0439900768
 20
2.9049677423
 30
0.0
 10
4.1508938758
 20
2.9062842699
 30
0.0
 10
4.2921532781
 20
2.9079194687
 30
0.0
 10
4.4698615195
 20
2.9098467286
 30
0.0
 10
4.6572611692
 20
2.9117752219
 30
0.0
 10
4.8525716573
 20
2.9137046129
 30
0.0
 10
5.0539377828
 20
2.9156345858
 30
0.0
 10
5.2594468563
 20
2.9175649691
 30
0.0
 10
5.4671462358
 20
2.9194955366
 30
0.0
 10
5.6750630517
 20
2.9214261224
 30
0.0
 10
5.8812223758
 20
2.923356564
 30
0.0
 10
6.0836653871
 20
2.9252866419
 30
0.0
 10
6.2804691609
 20
2.9272161821
 30
0.0
 10
6.4697643167
 20
2.9291449152
 30
0.0
 10
6.6497522769
 20
2.9310724256
 30
0.0
 10
6.8187234301
 20
2.932998466
 30
0.0
 10
6.9519085598
 20
2.9346369208
 30
0.0
 10
7.0517550699
 20
2.9359575906
 30
0.0
 10
7.1211897892
 20
2.9369248706
 30
0.0
 10
7.1867483746
 20
2.9378919064
 30
0.0
 10
7.2482751139
 20
2.9388585183
 30
0.0
 10
7.3056236907
 20
2.9398245737
 30
0.0
 10
7.3586578789
 20
2.9407901113
 30
0.0
 10
7.407251727
 20
2.9417547838
 30
0.0
 10
7.4512896987
 20
2.9427181931
 30
0.0
 10
7.4906671957
 20
2.9436803496
 30
0.0
 10
7.5205245246
 20
2.9445076827
 30
0.0
 10
7.5420114741
 20
2.945177015
 30
0.0
 10
7.5563045319
 20
2.9456600609
 30
0.0
 10
7.569369126
 20
2.9461427581
 30
0.0
 10
7.5811978887
 20
2.9466249813
 30
0.0
 10
7.5917846862
 20
2.9471065116
 30
0.0
 10
7.6011236298
 20
2.947587124
 30
0.0
 10
7.6092089377
 20
2.9480661774
 30
0.0
 10
7.6160350111
 20
2.9485433905
 30
0.0
 10
7.6209328318
 20
2.9489593718
 30
0.0
 10
7.624216756
 20
2.9493013304
 30
0.0
 10
7.6262062296
 20
2.9495409382
 30
0.0
 10
7.6278788398
 20
2.9497795521
 30
0.0
 10
7.6292355894
 20
2.9500160647
 30
0.0
 10
7.630275861
 20
2.9502503871
 30
0.0
 10
7.630858892
 20
2.9504307302
 30
0.0
 10
7.6310910392
 20
2.9505312118
 30
0.0
  0
LINE
  5
2E6
100
AcDbEntity
  8
0
100
AcDbLine
 62
7
  6
CONTINUOUS
 10
3.3487630886
 20
3.7481779185
 11
3.3508869776
 21
3.7487996885
  0
SPLINE
  5
2E7
100
AcDbEntity
  8
0
100
AcDbSpline
 62
7
  6
CONTINUOUS
 70
0
 71
3
 72
74
 73
70
 74
0
 42
0.0000001
 43
0.0000001
 44
0.0000000001
 40
0.0
 40
0.0
 40
0.0
 40
0.0
 40
0.0003275337
 40
0.0007270666
 40
0.0017428241
 40
0.0030479669
 40
0.004642494
 40
0.0065260174
 40
0.00869736
 40
0.0111550981
 40
0.0138977743
 40
0.0202320067
 40
0.0276869477
 40
0.0362440993
 40
0.04588341
 40
0.0565837846
 40
0.0683191483
 40
0.0810618928
 40
0.0947835442
 40
0.1094510808
 40
0.1250299752
 40
0.1587768752
 40
0.1957078916
 40
0.235478553
 40
0.2777178321
 40
0.3220303428
 40
0.3680025968
 40
0.4152052256
 40
0.4631969113
 40
0.511529645
 40
0.5597516905
 40
0.6074126891
 40
0.6540674774
 40
0.6992798034
 40
0.7426278911
 40
0.7837065612
 40
0.8221316148
 40
0.8402364483
 40
0.8575450899
 40
0.8740173995
 40
0.889615624
 40
0.9043022806
 40
0.9180433207
 40
0.9308075296
 40
0.9425639821
 40
0.953285432
 40
0.9629478831
 40
0.971527655
 40
0.9754051216
 40
0.9790049151
 40
0.9823250316
 40
0.9853634737
 40
0.9881182531
 40
0.9905875599
 40
0.992770277
 40
0.9946654911
 40
0.996272345
 40
0.9975900881
 40
0.9981403763
 40
0.9986182275
 40
0.9990236879
 40
0.9993569901
 40
0.9994967287
 40
0.9996186416
 40
0.9997228772
 40
0.9998096742
 40
0.9998794506
 40
0.999933024
 40
1.0
 40
1.0
 40
1.0
 40
1.0
 10
3.3508869776
 20
3.7487996885
 30
0.0
 10
3.3513456906
 20
3.7488896955
 30
0.0
 10
3.3523690197
 20
3.7490635361
 30
0.0
 10
3.3548327041
 20
3.7494073501
 30
0.0
 10
3.3586942538
 20
3.7498192378
 30
0.0
 10
3.3642626907
 20
3.7502897279
 30
0.0
 10
3.3710731431
 20
3.7507627371
 30
0.0
 10
3.3791220815
 20
3.751238114
 30
0.0
 10
3.3884047965
 20
3.7517147328
 30
0.0
 10
3.3989150548
 20
3.7521923707
 30
0.0
 10
3.4153638373
 20
3.7528626859
 30
0.0
 10
3.438944111
 20
3.7536858378
 30
0.0
 10
3.4708229717
 20
3.7546363302
 30
0.0
 10
3.5074206295
 20
3.7555893277
 30
0.0
 10
3.5486515287
 20
3.7565443269
 30
0.0
 10
3.5944194735
 20
3.7575004259
 30
0.0
 10
3.6446175285
 20
3.758457552
 30
0.0
 10
3.6991282893
 20
3.7594154468
 30
0.0
 10
3.7578244715
 20
3.7603737712
 30
0.0
 10
3.8205689353
 20
3.7613326004
 30
0.0
 10
3.9118915464
 20
3.7626468136
 30
0.0
 10
4.0349875843
 20
3.7642750537
 30
0.0
 10
4.1926095995
 20
3.7661836431
 30
0.0
 10
4.362352839
 20
3.76809414
 30
0.0
 10
4.5426316421
 20
3.7700061149
 30
0.0
 10
4.7317618933
 20
3.7719191726
 30
0.0
 10
4.9279762368
 20
3.7738329641
 30
0.0
 10
5.1294417802
 20
3.7757472471
 30
0.0
 10
5.3342763745
 20
3.7776618529
 30
0.0
 10
5.5405659544
 20
3.7795765684
 30
0.0
 10
5.7463835536
 20
3.7814912533
 30
0.0
 10
5.9498062667
 20
3.7834057277
 30
0.0
 10
6.1489332826
 20
3.7853197876
 30
0.0
 10
6.3419045742
 20
3.7872332665
 30
0.0
 10
6.5269171673
 20
3.7891458219
 30
0.0
 10
6.7022423533
 20
3.7910571767
 30
0.0
 10
6.8415410464
 20
3.7926790597
 30
0.0
 10
6.9469162032
 20
3.7939848655
 30
0.0
 10
7.0209620095
 20
3.7949445459
 30
0.0
 10
7.0914300414
 20
3.7959040081
 30
0.0
 10
7.1581555849
 20
3.7968631261
 30
0.0
 10
7.2209826065
 20
3.7978219487
 30
0.0
 10
7.2797643926
 20
3.7987803844
 30
0.0
 10
7.334363573
 20
3.7997381762
 30
0.0
 10
7.3846524552
 20
3.8006953253
 30
0.0
 10
7.430513621
 20
3.8016515718
 30
0.0
 10
7.4718399333
 20
3.8026065039
 30
0.0
 10
7.5033988511
 20
3.8034259959
 30
0.0
 10
7.5263060925
 20
3.8040880226
 30
0.0
 10
7.541708796
 20
3.8045673986
 30
0.0
 10
7.5559134191
 20
3.805046472
 30
0.0
 10
7.568911298
 20
3.805525182
 30
0.0
 10
7.5806940104
 20
3.8060034125
 30
0.0
 10
7.5912543424
 20
3.8064810483
 30
0.0
 10
7.6005865299
 20
3.8069578334
 30
0.0
 10
7.6086861057
 20
3.8074331653
 30
0.0
 10
7.6155487937
 20
3.8079067826
 30
0.0
 10
7.620491358
 20
3.8083192188
 30
0.0
 10
7.6238223549
 20
3.8086578156
 30
0.0
 10
7.6258546565
 20
3.8088955894
 30
0.0
 10
7.6275749105
 20
3.8091325545
 30
0.0
 10
7.6288119324
 20
3.8093388922
 30
0.0
 10
7.6296441642
 20
3.8095081175
 30
0.0
 10
7.6301526167
 20
3.8096270788
 30
0.0
 10
7.6305836138
 20
3.8097461094
 30
0.0
 10
7.6309360858
 20
3.8098633962
 30
0.0
 10
7.6312145162
 20
3.8099835231
 30
0.0
 10
7.6314441413
 20
3.810113356
 30
0.0
 10
7.6315829229
 20
3.8102622512
 30
0.0
 10
7.6315829045
 20
3.8103578403
 30
0.0
  0
SPLINE
  5
2E8
100
AcDbEntity
  8
0
100
AcDbSpline
 62
7
  6
CONTINUOUS
 70
0
 71
3
 72
72
 73
68
 74
0
 42
0.0000001
 43
0.0000001
 44
0.0000000001
 40
0.0
 40
0.0
 40
0.0
 40
0.0
 40
0.0000669181
 40
0.0001204059
 40
0.0001900387
 40
0.000276627
 40
0.0003805837
 40
0.0005021434
 40
0.0006414504
 40
0.0009736394
 40
0.0013776284
 40
0.0018536503
 40
0.0024018357
 40
0.0037148946
 40
0.0053164553
 40
0.0072055507
 40
0.0093811023
 40
0.0118419747
 40
0.014587
 40
0.0176149475
 40
0.0209240194
 40
0.0245120173
 40
0.0283767286
 40
0.0369274149
 40
0.046557693
 40
0.0572443933
 40
0.0689621114
 40
0.081684912
 40
0.0953825275
 40
0.1100224858
 40
0.1255718918
 40
0.1419940321
 40
0.1592500799
 40
0.1773008783
 40
0.2156151894
 40
0.2565805387
 40
0.2998148601
 40
0.3449163485
 40
0.3914650825
 40
0.4390274587
 40
0.4871611015
 40
0.5354176987
 40
0.5833481931
 40
0.6305064045
 40
0.6764531003
 40
0.7207611101
 40
0.7630175493
 40
0.8028289802
 40
0.8398256291
 40
0.8736622738
 40
0.9040241816
 40
0.9178129647
 40
0.9306297517
 40
0.9424442578
 40
0.9532302728
 40
0.9629619962
 40
0.9716162292
 40
0.9791743009
 40
0.9856180685
 40
0.9909320433
 40
0.9931620586
 40
0.9951058116
 40
0.9967621532
 40
0.9981300446
 40
0.9992091016
 40
0.9996404947
 40
1.0
 40
1.0
 40
1.0
 40
1.0
 10
3.3484872078
 20
3.0134578412
 30
0.0
 10
3.3484874411
 20
3.0135533339
 30
0.0
 10
3.3486260823
 20
3.0137017893
 30
0.0
 10
3.3488553228
 20
3.0138314824
 30
0.0
 10
3.3491331066
 20
3.0139513785
 30
0.0
 10
3.3494846445
 20
3.0140684694
 30
0.0
 10
3.3499143879
 20
3.0141872874
 30
0.0
 10
3.3504212555
 20
3.0143060396
 30
0.0
 10
3.3512506654
 20
3.0144749492
 30
0.0
 10
3.352483207
 20
3.0146809114
 30
0.0
 10
3.3541969131
 20
3.014917464
 30
0.0
 10
3.3562212082
 20
3.015154841
 30
0.0
 10
3.3595394296
 20
3.015492891
 30
0.0
 10
3.3644640596
 20
3.0159045913
 30
0.0
 10
3.3713028172
 20
3.0163773191
 30
0.0
 10
3.3793747477
 20
3.0168517784
 30
0.0
 10
3.3886746331
 20
3.0173276957
 30
0.0
 10
3.3991973006
 20
3.0178044803
 30
0.0
 10
3.4109374237
 20
3.0182819196
 30
0.0
 10
3.423888821
 20
3.0187597813
 30
0.0
 10
3.4380438814
 20
3.0192379807
 30
0.0
 10
3.453393628
 20
3.0197164897
 30
0.0
 10
3.4762211151
 20
3.0203772938
 30
0.0
 10
3.5076699815
 20
3.0211954154
 30
0.0
 10
3.5488534883
 20
3.0221486506
 30
0.0
 10
3.594557445
 20
3.0231031081
 30
0.0
 10
3.6446753149
 20
3.0240586234
 30
0.0
 10
3.6990905001
 20
3.025014723
 30
0.0
 10
3.7576763407
 20
3.0259713875
 30
0.0
 10
3.8202962733
 20
3.0269285493
 30
0.0
 10
3.8868045565
 20
3.0278859765
 30
0.0
 10
3.957046391
 20
3.0288436806
 30
0.0
 10
4.0308580527
 20
3.0298016855
 30
0.0
 10
4.1359082299
 20
3.0311052148
 30
0.0
 10
4.2747905255
 20
3.0327242468
 30
0.0
 10
4.449609022
 20
3.0346322075
 30
0.0
 10
4.6341134308
 20
3.0365414006
 30
0.0
 10
4.8265857922
 20
3.0384514697
 30
0.0
 10
5.0252346257
 20
3.0403621479
 30
0.0
 10
5.2282105699
 20
3.0422732449
 30
0.0
 10
5.4336237594
 20
3.0441845369
 30
0.0
 10
5.6395622798
 20
3.0460958865
 30
0.0
 10
5.8441087892
 20
3.0480071117
 30
0.0
 10
6.0453588997
 20
3.0499180331
 30
0.0
 10
6.241439449
 20
3.0518284859
 30
0.0
 10
6.4305247774
 20
3.0537381827
 30
0.0
 10
6.6108545571
 20
3.0556468449
 30
0.0
 10
6.7807503391
 20
3.0575541188
 30
0.0
 10
6.9386301971
 20
3.0594592515
 30
0.0
 10
7.0830244435
 20
3.0613617559
 30
0.0
 10
7.1943014227
 20
3.0629915515
 30
0.0
 10
7.2755840106
 20
3.0643099263
 30
0.0
 10
7.3304015896
 20
3.0652661292
 30
0.0
 10
7.3809334934
 20
3.0662217018
 30
0.0
 10
7.4270621411
 20
3.0671762815
 30
0.0
 10
7.4686800156
 20
3.0681295757
 30
0.0
 10
7.5056902707
 20
3.0690813465
 30
0.0
 10
7.538006933
 20
3.0700302008
 30
0.0
 10
7.5655547239
 20
3.0709756329
 30
0.0
 10
7.5854987636
 20
3.0717984913
 30
0.0
 10
7.5990211499
 20
3.0724733444
 30
0.0
 10
7.6073272948
 20
3.0729483179
 30
0.0
 10
7.6144010837
 20
3.0734210304
 30
0.0
 10
7.6202377385
 20
3.0738914457
 30
0.0
 10
7.6243251634
 20
3.0743029858
 30
0.0
 10
7.6269717765
 20
3.0746448307
 30
0.0
 10
7.6280873454
 20
3.0748174903
 30
0.0
 10
7.6285926079
 20
3.0749063587
 30
0.0
  0
LINE
  5
2E9
100
AcDbEntity
  8
0
100
AcDbLine
 62
7
  6
CONTINUOUS
 10
7.6285926079
 20
3.0749063587
 11
7.6313062141
 21
3.0756377618
  0
SPLINE
  5
2EA
100
AcDbEntity
  8
0
100
AcDbSpline
 62
7
  6
CONTINUOUS
 70
0
 71
3
 72
72
 73
68
 74
0
 42
0.0000001
 43
0.0000001
 44
0.0000000001
 40
0.0
 40
0.0
 40
0.0
 40
0.0
 40
0.000066833
 40
0.0001202294
 40
0.0001897329
 40
0.0002761524
 40
0.0003799
 40
0.0005012093
 40
0.0006402239
 40
0.0009716987
 40
0.001374796
 40
0.0018497427
 40
0.0023966635
 40
0.0037066472
 40
0.0053045701
 40
0.0071894535
 40
0.0093601756
 40
0.0118155585
 40
0.0145543911
 40
0.0175754359
 40
0.0208770729
 40
0.0244571062
 40
0.0283132855
 40
0.0368450543
 40
0.0464539851
 40
0.0571174464
 40
0.0688098288
 40
0.0815051971
 40
0.0951738447
 40
0.1097831568
 40
0.1253002501
 40
0.1416889764
 40
0.1589104303
 40
0.1769254824
 40
0.2151664767
 40
0.2560566932
 40
0.2992158655
 40
0.3442439247
 40
0.3907224013
 40
0.4382195328
 40
0.486294566
 40
0.5345007526
 40
0.5823906415
 40
0.6295193613
 40
0.6754491499
 40
0.7197539499
 40
0.7620217074
 40
0.8018601525
 40
0.8388999224
 40
0.8727960389
 40
0.9032344425
 40
0.9170675456
 40
0.9299331106
 40
0.9418003176
 40
0.9526429428
 40
0.9624355849
 40
0.971154449
 40
0.9787807601
 40
0.9852967738
 40
0.990686356
 40
0.9929553294
 40
0.9949388723
 40
0.9966358773
 40
0.998045322
 40
0.9991665379
 40
0.9996191722
 40
1.0
 40
1.0
 40
1.0
 40
1.0
 10
3.3484868575
 20
3.1384578413
 30
0.0
 10
3.348487112
 20
3.1385532028
 30
0.0
 10
3.3486254314
 20
3.1387014614
 30
0.0
 10
3.3488542444
 20
3.1388310353
 30
0.0
 10
3.3491314387
 20
3.1389507865
 30
0.0
 10
3.3494822238
 20
3.1390677423
 30
0.0
 10
3.3499110275
 20
3.1391864193
 30
0.0
 10
3.3504167722
 20
3.1393050315
 30
0.0
 10
3.3512443051
 20
3.1394737379
 30
0.0
 10
3.3524740129
 20
3.1396794544
 30
0.0
 10
3.3541837186
 20
3.1399157269
 30
0.0
 10
3.3562031962
 20
3.1401528227
 30
0.0
 10
3.3595133519
 20
3.1404904704
 30
0.0
 10
3.3644260947
 20
3.1409017118
 30
0.0
 10
3.3712485695
 20
3.141373864
 30
0.0
 10
3.3793015889
 20
3.1418477557
 30
0.0
 10
3.3885797966
 20
3.1423231031
 30
0.0
 10
3.3990778363
 20
3.1427993192
 30
0.0
 10
3.4107902495
 20
3.1432761915
 30
0.0
 10
3.4237110377
 20
3.1437535032
 30
0.0
 10
3.4378328397
 20
3.1442311315
 30
0.0
 10
3.4531468821
 20
3.14470907
 30
0.0
 10
3.4759215223
 20
3.1453690849
 30
0.0
 10
3.5072975718
 20
3.1461862349
 30
0.0
 10
3.5483862889
 20
3.1471383681
 30
0.0
 10
3.593985841
 20
3.1480916724
 30
0.0
 10
3.6439901757
 20
3.1490460525
 30
0.0
 10
3.6982832152
 20
3.1500010397
 30
0.0
 10
3.7567389107
 20
3.1509565556
 30
0.0
 10
3.8192213252
 20
3.1519125792
 30
0.0
 10
3.8855853517
 20
3.1528688881
 30
0.0
 10
3.9556769185
 20
3.1538254467
 30
0.0
 10
4.0293330511
 20
3.1547823127
 30
0.0
 10
4.134167595
 20
3.1560843398
 30
0.0
 10
4.2727729835
 20
3.1577014694
 30
0.0
 10
4.4472547062
 20
3.1596071881
 30
0.0
 10
4.6314211995
 20
3.1615141296
 30
0.0
 10
4.8235617943
 20
3.1634219403
 30
0.0
 10
5.0218923679
 20
3.165330372
 30
0.0
 10
5.2245707601
 20
3.1672392176
 30
0.0
 10
5.4297144703
 20
3.1691482604
 30
0.0
 10
5.6354186166
 20
3.1710573674
 30
0.0
 10
5.8397724425
 20
3.1729663476
 30
0.0
 10
6.0408780107
 20
3.1748750375
 30
0.0
 10
6.2368679034
 20
3.1767832606
 30
0.0
 10
6.4259215184
 20
3.1786907322
 30
0.0
 10
6.6062831469
 20
3.1805971993
 30
0.0
 10
6.7762779496
 20
3.1825022816
 30
0.0
 10
6.9343267631
 20
3.1844052464
 30
0.0
 10
7.0789619459
 20
3.1863056584
 30
0.0
 10
7.1904849395
 20
3.187933332
 30
0.0
 10
7.2720013292
 20
3.1892499004
 30
0.0
 10
7.3270214328
 20
3.1902049928
 30
0.0
 10
7.3777738415
 20
3.191159491
 30
0.0
 10
7.4241407757
 20
3.1921130495
 30
0.0
 10
7.466014435
 20
3.1930652978
 30
0.0
 10
7.5032975596
 20
3.1940160865
 30
0.0
 10
7.5359037604
 20
3.1949641135
 30
0.0
 10
7.5637572932
 20
3.1959087396
 30
0.0
 10
7.5839661134
 20
3.1967305438
 30
0.0
 10
7.5977076992
 20
3.1974040418
 30
0.0
 10
7.6061836724
 20
3.197878668
 30
0.0
 10
7.613431198
 20
3.1983512245
 30
0.0
 10
7.6194452879
 20
3.1988215593
 30
0.0
 10
7.623682731
 20
3.19923274
 30
0.0
 10
7.6264510546
 20
3.1995733491
 30
0.0
 10
7.6276279945
 20
3.199745271
 30
0.0
 10
7.6281641776
 20
3.1998334815
 30
0.0
  0
SPLINE
  5
2EB
100
AcDbEntity
  8
0
100
AcDbSpline
 62
7
  6
CONTINUOUS
 70
0
 71
3
 72
11
 73
7
 74
0
 42
0.0000001
 43
0.0000001
 44
0.0000000001
 40
0.0
 40
0.0
 40
0.0
 40
0.0
 40
0.3476333074
 40
0.6294782806
 40
0.8463253446
 40
1.0
 40
1.0
 40
1.0
 40
1.0
 10
7.6281641776
 20
3.1998334815
 30
0.0
 10
7.6285361967
 20
3.1998946844
 30
0.0
 10
7.6292084129
 20
3.2000139886
 30
0.0
 10
7.6301058234
 20
3.2002100737
 30
0.0
 10
7.630785987
 20
3.2004041766
 30
0.0
 10
7.6311616145
 20
3.2005544745
 30
0.0
 10
7.631305977
 20
3.200637762
 30
0.0
  0
SPLINE
  5
2EC
100
AcDbEntity
  8
0
100
AcDbSpline
 62
7
  6
CONTINUOUS
 70
0
 71
3
 72
28
 73
24
 74
0
 42
0.0000001
 43
0.0000001
 44
0.0000000001
 40
0.0
 40
0.0
 40
0.0
 40
0.0
 40
0.0017427606
 40
0.0031721655
 40
0.0050450852
 40
0.0073815112
 40
0.0101914769
 40
0.0134806143
 40
0.0172523481
 40
0.0262513582
 40
0.0371994376
 40
0.064959633
 40
0.1005504705
 40
0.1439631261
 40
0.1951703718
 40
0.2541415862
 40
0.320844784
 40
0.395247191
 40
0.477312761
 40
0.566977076
 40
0.6641592544
 40
0.7687780595
 40
1.0
 40
1.0
 40
1.0
 40
1.0
 10
3.3484870081
 20
3.2634578423
 30
0.0
 10
3.3484873852
 20
3.2635612611
 30
0.0
 10
3.3486478934
 20
3.2637190754
 30
0.0
 10
3.3489033797
 20
3.2638549133
 30
0.0
 10
3.3492172328
 20
3.2639823406
 30
0.0
 10
3.3496137255
 20
3.2641065406
 30
0.0
 10
3.3500987581
 20
3.2642327441
 30
0.0
 10
3.3506707302
 20
3.2643588505
 30
0.0
 10
3.3516068724
 20
3.2645382844
 30
0.0
 10
3.3529975919
 20
3.264757099
 30
0.0
 10
3.3558053068
 20
3.265121504
 30
0.0
 10
3.3601934878
 20
3.2655582282
 30
0.0
 10
3.3665095605
 20
3.2660571723
 30
0.0
 10
3.374220499
 20
3.2665586861
 30
0.0
 10
3.3833210879
 20
3.267062801
 30
0.0
 10
3.393805561
 20
3.2675682311
 30
0.0
 10
3.4056678283
 20
3.2680747049
 30
0.0
 10
3.418901651
 20
3.2685818973
 30
0.0
 10
3.4334989208
 20
3.2690895792
 30
0.0
 10
3.4494487257
 20
3.2695976488
 30
0.0
 10
3.4667375064
 20
3.2701060213
 30
0.0
 10
3.4924245399
 20
3.2708076996
 30
0.0
 10
3.5123481592
 20
3.2712970225
 30
0.0
 10
3.5260656917
 20
3.2716166357
 30
0.0
  0
ENDSEC
  0
SECTION
  2
OBJECTS
  0
DICTIONARY
  5
C
100
AcDbDictionary
280
0
281
1
  3
ACAD_GROUP
350
D
  3
ACAD_MLINESTYLE
350
17
  3
ACAD_LAYOUT
350
1A
  3
ACAD_PLOTSETTINGS
350
19
  3
ACAD_PLOTSTYLENAME
350
E
  0
DICTIONARY
  5
D
102
{ACAD_REACTORS
330
C
102
}
100
AcDbDictionary
280
0
281
1
  0
ACDBDICTIONARYWDFLT
  5
E
102
{ACAD_REACTORS
330
C
102
}
100
AcDbDictionary
281
1
  3
Normal
350
F
100
AcDbDictionaryWithDefault
340
F
  0
DICTIONARY
  5
17
102
{ACAD_REACTORS
330
C
102
}
100
AcDbDictionary
280
0
281
1
  3
Standard
350
18
  0
DICTIONARY
  5
19
102
{ACAD_REACTORS
330
C
102
}
100
AcDbDictionary
281
1
  0
DICTIONARY
  5
1A
102
{ACAD_REACTORS
330
C
102
}
100
AcDbDictionary
281
1
  3
Model
350
2ED
  3
Layout1
350
2EE
  0
ACDBPLACEHOLDER
  5
F
102
{ACAD_REACTORS
330
E
102
}
  0
MLINESTYLE
  5
18
102
{ACAD_REACTORS
330
17
102
}
100
AcDbMlineStyle
  2
STANDARD
 70
0
  3

 62
256
 51
90.0
 52
90.0
 71
2
 49
0.5
 62
256
  6
BYLAYER
 49
-0.5
 62
256
  6
BYLAYER
  0
LAYOUT
  5
2ED
102
{ACAD_REACTORS
330
1A
102
}
100
AcDbPlotSettings
  1

  2
none_device
  4
ANSI_A_(11.00_x_8.50_Inches)
  6

 40
0.0
 41
0.0
 42
0.0
 43
0.0
 44
279.4
 45
215.9
 46
0.0
 47
0.0
 48
0.0
 49
0.0
140
0.0
141
0.0
142
1.0
143
1.0
 70
1024
 72
0
 73
0
 74
0
  7

 75
0
147
1.0
148
0.0
149
0.0
100
AcDbLayout
  1
Model
 70
0
 71
0
 10
0.0
 20
0.0
 11
11.0
 21
8.5
 12
0.0
 22
0.0
 32
0.0
 14
0.0
 24
0.0
 34
0.0
 15
0.0
 25
0.0
 35
0.0
146
0.0
 13
0.0
 23
0.0
 33
0.0
 16
1.0
 26
0.0
 36
0.0
 17
0.0
 27
1.0
 37
0.0
 76
0
330
202
345
0
346
0
  0
LAYOUT
  5
2EE
102
{ACAD_REACTORS
330
1A
102
}
100
AcDbPlotSettings
  1

  2
none_device
  4
ANSI_A_(11.00_x_8.50_Inches)
  6

 40
0.0
 41
0.0
 42
0.0
 43
0.0
 44
279.4
 45
215.9
 46
0.0
 47
0.0
 48
0.0
 49
0.0
140
0.0
141
0.0
142
1.0
143
1.0
 70
0
 72
0
 73
0
 74
0
  7

 75
0
147
1.0
148
0.0
149
0.0
100
AcDbLayout
  1
Layout1
 70
0
 71
1
 10
0.0
 20
0.0
 11
11.0
 21
8.5
 12
0.0
 22
0.0
 32
0.0
 14
0.0
 24
0.0
 34
0.0
 15
0.0
 25
0.0
 35
0.0
146
0.0
 13
0.0
 23
0.0
 33
0.0
 16
1.0
 26
0.0
 36
0.0
 17
0.0
 27
1.0
 37
0.0
 76
0
330
203
345
0
346
0
  0
ENDSEC
  0
EOF
