999
DXF file: 277-02-e_TOP.dxf
999
Pro/ENGINEER 2019352 by Parametric Technology Corporation
  0
SECTION
  2
HEADER
  9
$ACADVER
  1
AC1032
  9
$DWGCODEPAGE
  3
ANSI_1252
  9
$EXTMAX
 10
11.0
 20
8.5
 30
0.0
  9
$EXTMIN
 10
0.0
 20
0.0
 30
0.0
  9
$LIMMIN
 10
0.0
 20
0.0
  9
$LIMMAX
 10
11.0
 20
8.5
  9
$VIEWCTR
 10
5.5
 20
4.25
  9
$VIEWSIZE
 40
8.5
  9
$CLAYER
  8
0
  9
$LTSCALE
 40
0.605
  9
$CELTYPE
  6
BYLAYER
  9
$DIMSCALE
 40
1.0
  9
$DIMASZ
 40
0.1
  9
$DIMEXO
 40
0.0625
  9
$DIMDLI
 40
0.418
  9
$DIMEXE
 40
0.125
  9
$DIMCEN
 40
0.099
  9
$DIMLFAC
 40
1.0
  9
$DIMBLK
  1
_FILLED
  9
$DIMALT
 70
1
  9
$DIMALTD
 70
2
  9
$DIMALTTD
 70
2
  9
$DIMALTF
 40
25.4
  9
$DIMTXT
 40
0.08
  9
$DIMTOL
 70
1
  9
$DIMLIM
 70
0
  9
$DIMTFAC
 40
1.0
  9
$DIMTP
 40
0.001
  9
$DIMTM
 40
0.001
  9
$DIMGAP
 40
0.09
  9
$DIMDSEP
 70
46
  9
$AUNITS
 70
0
  9
$PDMODE
 70
3
  9
$PDSIZE
 40
0.3125
  9
$HANDSEED
  5
230
  9
$TILEMODE
 70
1
  9
$MEASUREMENT
 70
0
  9
$INSUNITS
 70
1
  0
ENDSEC
  0
SECTION
  2
CLASSES
  0
CLASS
  1
ACDBDICTIONARYWDFLT
  2
AcDbDictionaryWithDefault
  3
AutoCAD 2000
 90
0
 91
1
280
0
281
0
  0
CLASS
  1
ACDBPLACEHOLDER
  2
AcDbPlaceHolder
  3
AutoCAD 2000
 90
0
 91
1
280
0
281
0
  0
CLASS
  1
LAYOUT
  2
AcDbLayout
  3
AutoCAD 2000
 90
0
 91
0
280
0
281
0
  0
ENDSEC
  0
SECTION
  2
TABLES
  0
TABLE
  2
VPORT
  5
8
100
AcDbSymbolTable
 70
2
  0
VPORT
  5
1F4
100
AcDbSymbolTableRecord
100
AcDbViewportTableRecord
  2
*ACTIVE
 70
0
 10
0.0
 20
0.0
 11
1.0
 21
1.0
 12
5.5
 22
4.25
 13
0.0
 23
0.0
 14
1.0
 24
1.0
 15
0.0
 25
0.0
 16
0.0
 26
0.0
 36
1.0
 17
0.0
 27
0.0
 37
0.0
 40
8.5
 41
1.2941176471
 42
50.0
 43
0.0
 44
0.0
 50
0.0
 51
0.0
 71
0
 72
100
 73
1
 74
1
 75
0
 76
0
 77
0
 78
0
  0
ENDTAB
  0
TABLE
  2
LTYPE
  5
5
100
AcDbSymbolTable
 70
6
  0
LTYPE
  5
14
100
AcDbSymbolTableRecord
100
AcDbLinetypeTableRecord
  2
BYBLOCK
 70
0
  3

 72
65
 73
0
 40
0.0
  0
LTYPE
  5
15
100
AcDbSymbolTableRecord
100
AcDbLinetypeTableRecord
  2
BYLAYER
 70
0
  3

 72
65
 73
0
 40
0.0
  0
LTYPE
  5
16
100
AcDbSymbolTableRecord
100
AcDbLinetypeTableRecord
  2
CONTINUOUS
 70
64
  3
Solid line
 72
65
 73
0
 40
0.0
  0
LTYPE
  5
1F5
100
AcDbSymbolTableRecord
100
AcDbLinetypeTableRecord
  2
CENTER
 70
64
  3
____ _ ____ _ ____ _ ____ _ ____ _ ____ _ ____
 72
65
 73
4
 40
0.6
 49
0.375
 74
0
 49
-0.075
 74
0
 49
0.075
 74
0
 49
-0.075
 74
0
  0
LTYPE
  5
1F6
100
AcDbSymbolTableRecord
100
AcDbLinetypeTableRecord
  2
HIDDEN
 70
64
  3
- - - - - - - - - - - - - - - - - - - -
 72
65
 73
2
 40
0.2
 49
0.1
 74
0
 49
-0.1
 74
0
  0
LTYPE
  5
1F7
100
AcDbSymbolTableRecord
100
AcDbLinetypeTableRecord
  2
PHANTOM
 70
64
  3
_____ _ _ _____ _ _ _____ _ _ _____
 72
65
 73
6
 40
0.8
 49
0.45
 74
0
 49
-0.05
 74
0
 49
0.1
 74
0
 49
-0.05
 74
0
 49
0.1
 74
0
 49
-0.05
 74
0
  0
LTYPE
  5
1F8
100
AcDbSymbolTableRecord
100
AcDbLinetypeTableRecord
  2
DOT
 70
64
  3
. . . . . . . . . . . . . . . . . . . .
 72
65
 73
2
 40
0.2
 49
0.1
 74
0
 49
-0.1
 74
0
  0
LTYPE
  5
1F9
100
AcDbSymbolTableRecord
100
AcDbLinetypeTableRecord
  2
DASHED
 70
64
  3
- - - - - - - - - - - - - - - - - - - -
 72
65
 73
2
 40
0.2
 49
0.1
 74
0
 49
-0.1
 74
0
  0
ENDTAB
  0
TABLE
  2
LAYER
  5
2
100
AcDbSymbolTable
 70
36
  0
LAYER
  5
10
100
AcDbSymbolTableRecord
100
AcDbLayerTableRecord
  2
0
 70
0
 62
7
  6
CONTINUOUS
370
-3
390
F
  0
LAYER
  5
1FA
100
AcDbSymbolTableRecord
100
AcDbLayerTableRecord
  2
DEFAULT_1
 70
0
 62
7
  6
CENTER
370
-3
390
F
  0
LAYER
  5
1FB
100
AcDbSymbolTableRecord
100
AcDbLayerTableRecord
  2
DEFAULT_2
 70
0
 62
8
  6
HIDDEN
370
-3
390
F
  0
LAYER
  5
1FC
100
AcDbSymbolTableRecord
100
AcDbLayerTableRecord
  2
DEFAULT_3
 70
0
 62
7
  6
PHANTOM
370
-3
390
F
  0
LAYER
  5
1FD
100
AcDbSymbolTableRecord
100
AcDbLayerTableRecord
  2
DEFAULT_COORDINATE_SYSTEM
 70
0
 62
7
  6
CONTINUOUS
370
-3
390
F
  0
LAYER
  5
1FE
100
AcDbSymbolTableRecord
100
AcDbLayerTableRecord
  2
DEFAULT_DATUM_AXES
 70
0
 62
7
  6
CONTINUOUS
370
-3
390
F
  0
LAYER
  5
1FF
100
AcDbSymbolTableRecord
100
AcDbLayerTableRecord
  2
DEFAULT_DATUM_PLANES
 70
0
 62
7
  6
CONTINUOUS
370
-3
390
F
  0
ENDTAB
  0
TABLE
  2
STYLE
  5
3
100
AcDbSymbolTable
 70
1
  0
STYLE
  5
11
100
AcDbSymbolTableRecord
100
AcDbTextStyleTableRecord
  2
STANDARD
 70
0
 40
0.0
 41
0.8
 50
0.0
 71
0
 42
0.2
  3
txt
  4

  0
STYLE
  5
200
100
AcDbSymbolTableRecord
100
AcDbTextStyleTableRecord
  2
TEXTSTYLE_1
 70
0
 40
0.0
 41
0.8
 50
0.0
 71
0
 42
0.2
  3
gdt
  4

  0
ENDTAB
  0
TABLE
  2
VIEW
  5
6
100
AcDbSymbolTable
 70
0
  0
ENDTAB
  0
TABLE
  2
UCS
  5
7
100
AcDbSymbolTable
 70
0
  0
ENDTAB
  0
TABLE
  2
APPID
  5
9
100
AcDbSymbolTable
 70
1
  0
APPID
  5
201
100
AcDbSymbolTableRecord
100
AcDbRegAppTableRecord
  2
ACAD
 70
0
  0
ENDTAB
  0
TABLE
  2
BLOCK_RECORD
  5
1
100
AcDbSymbolTable
 70
0
  0
BLOCK_RECORD
  5
202
100
AcDbSymbolTableRecord
100
AcDbBlockTableRecord
  2
*Model_Space
  0
BLOCK_RECORD
  5
203
100
AcDbSymbolTableRecord
100
AcDbBlockTableRecord
  2
*Paper_Space
  0
BLOCK_RECORD
  5
204
100
AcDbSymbolTableRecord
100
AcDbBlockTableRecord
  2
_FILLED
  0
ENDTAB
  0
TABLE
  2
DIMSTYLE
  5
A
100
AcDbSymbolTable
 70
1
100
AcDbDimStyleTable
 71
0
  0
DIMSTYLE
105
205
100
AcDbSymbolTableRecord
100
AcDbDimStyleTableRecord
  2
STANDARD
 70
0
  3

  4

 40
1.0
 41
0.1
 42
0.0625
 43
0.38
 44
0.125
 45
0.0
 46
0.0
 47
0.001
 48
0.001
140
0.08
141
0.09
142
0.0
143
25.4
144
1.0
145
0.0
146
1.0
147
0.09
 71
1.0
 72
0.0
 73
1
 74
1
 75
0
 76
0
 77
0
 78
4
 79
1
170
1
171
2
172
0
173
0
174
0
175
0
176
0
177
0
178
0
270
2
179
3
271
3
272
3
273
2
274
2
275
0
280
0
281
0
282
0
283
1
284
4
285
0
286
0
287
3
288
0
340
11
278
46
341
204
342
204
343
204
344
204
  0
ENDTAB
  0
ENDSEC
  0
SECTION
  2
BLOCKS
  0
BLOCK
  5
20
100
AcDbEntity
  8
0
100
AcDbBlockBegin
  2
*Model_Space
 70
0
 10
0.0
 20
0.0
 30
0.0
  3
*Model_Space
  1

  0
ENDBLK
  5
21
100
AcDbEntity
  8
0
100
AcDbBlockEnd
  0
BLOCK
  5
1C
100
AcDbEntity
  8
0
100
AcDbBlockBegin
  2
*Paper_Space
 70
0
 10
0.0
 20
0.0
 30
0.0
  3
*Paper_Space
  1

  0
ENDBLK
  5
1D
100
AcDbEntity
  8
0
100
AcDbBlockEnd
  0
BLOCK
  5
206
100
AcDbEntity
  8
0
100
AcDbBlockBegin
  2
_FILLED
 70
64
 10
0.0
 20
0.0
  3
_FILLED
  1

  0
SOLID
  5
207
100
AcDbEntity
  8
0
  6
BYBLOCK
 62
0
100
AcDbTrace
 10
0.0
 20
0.0
 11
-1.0
 21
0.2
 12
-1.0
 22
-0.2
 13
-1.0
 23
-0.2
  0
ENDBLK
  5
208
100
AcDbEntity
  8
0
  6
BYBLOCK
 62
0
100
AcDbBlockEnd
  0
ENDSEC
  0
SECTION
  2
ENTITIES
  0
MTEXT
  5
209
100
AcDbEntity
  8
0
100
AcDbMText
 62
2
  6
CONTINUOUS
  7
STANDARD
 71
3
 72
1
 10
5.7569425805
 20
1.3442621003
 30
0.0
 11
1.0
 21
0.0
 31
0.0
 73
2
 44
0.9
  1
SCALE 1.000
 40
0.08
 41
0.704
  0
LINE
  5
20A
100
AcDbEntity
  8
0
100
AcDbLine
 62
7
  6
CONTINUOUS
 10
0.0
 20
0.0
 11
0.0
 21
8.5
  0
LINE
  5
20B
100
AcDbEntity
  8
0
100
AcDbLine
 62
7
  6
CONTINUOUS
 10
0.0
 20
0.0
 11
11.0
 21
0.0
  0
LINE
  5
20C
100
AcDbEntity
  8
0
100
AcDbLine
 62
7
  6
CONTINUOUS
 10
0.0
 20
8.5
 11
11.0
 21
8.5
  0
LINE
  5
20D
100
AcDbEntity
  8
0
100
AcDbLine
 62
7
  6
CONTINUOUS
 10
11.0
 20
0.0
 11
11.0
 21
8.5
  0
LINE
  5
20E
100
AcDbEntity
  8
0
100
AcDbLine
 62
7
  6
CONTINUOUS
 10
5.3400354678
 20
6.6910595216
 11
5.3400354678
 21
6.6534577969
  0
LINE
  5
20F
100
AcDbEntity
  8
0
100
AcDbLine
 62
7
  6
CONTINUOUS
 10
5.3400354678
 20
1.9120234148
 11
5.3400354678
 21
1.8744216901
  0
LINE
  5
210
100
AcDbEntity
  8
0
100
AcDbLine
 62
7
  6
CONTINUOUS
 10
5.6400354678
 20
1.8744216901
 11
5.6400354678
 21
1.9120234148
  0
LINE
  5
211
100
AcDbEntity
  8
0
100
AcDbLine
 62
7
  6
CONTINUOUS
 10
5.6400354678
 20
6.6534577969
 11
5.6400354678
 21
6.6910595216
  0
ARC
  5
212
100
AcDbEntity
  8
0
100
AcDbCircle
 62
7
  6
CONTINUOUS
 10
5.4900354678
 20
4.2827406058
 40
2.47
100
AcDbArc
 50
87.8598259407
 51
92.1401740593
  0
ARC
  5
213
100
AcDbEntity
  8
0
100
AcDbCircle
 62
7
  6
CONTINUOUS
 10
5.4900354678
 20
4.2827406058
 40
2.47
100
AcDbArc
 50
267.8598259407
 51
272.1401740593
  0
ARC
  5
214
100
AcDbEntity
  8
0
100
AcDbCircle
 62
7
  6
CONTINUOUS
 10
5.4900354678
 20
4.2827406058
 40
2.32
100
AcDbArc
 50
95.0620929643
 51
264.9379070357
  0
ARC
  5
215
100
AcDbEntity
  8
0
100
AcDbCircle
 62
7
  6
CONTINUOUS
 10
5.4900354678
 20
4.2827406058
 40
2.32
100
AcDbArc
 50
275.0620929643
 51
84.9379070357
  0
CIRCLE
  5
216
100
AcDbEntity
  8
0
100
AcDbCircle
 62
7
  6
CONTINUOUS
 10
5.4900354678
 20
4.2827406058
 40
2.2625
  0
ARC
  5
217
100
AcDbEntity
  8
0
100
AcDbCircle
 62
7
  6
CONTINUOUS
 10
5.4919855797
 20
4.2811914883
 40
2.2409844226
100
AcDbArc
 50
143.5034403381
 51
143.7570986301
  0
ARC
  5
218
100
AcDbEntity
  8
0
100
AcDbCircle
 62
7
  6
CONTINUOUS
 10
5.4900354678
 20
4.2827406058
 40
2.2385
100
AcDbArc
 50
60.1095730798
 51
146.5095730798
  0
ARC
  5
219
100
AcDbEntity
  8
0
100
AcDbCircle
 62
7
  6
CONTINUOUS
 10
5.4632072281
 20
4.2439228725
 40
2.2380443985
100
AcDbArc
 50
142.3004128955
 51
142.7428494383
  0
ARC
  5
21A
100
AcDbEntity
  8
0
100
AcDbCircle
 62
7
  6
CONTINUOUS
 10
5.4614872391
 20
4.2452195479
 40
2.2358904152
100
AcDbArc
 50
142.7426133871
 51
145.3039437752
  0
ARC
  5
21B
100
AcDbEntity
  8
0
100
AcDbCircle
 62
7
  6
CONTINUOUS
 10
5.487773523
 20
4.2842092724
 40
2.2358031811
100
AcDbArc
 50
143.7556555474
 51
146.5089759778
  0
ARC
  5
21C
100
AcDbEntity
  8
0
100
AcDbCircle
 62
7
  6
CONTINUOUS
 10
5.4926517303
 20
4.2873067027
 40
2.2332374894
100
AcDbArc
 50
59.2751178455
 51
60.1093874713
  0
ARC
  5
21D
100
AcDbEntity
  8
0
100
AcDbCircle
 62
7
  6
CONTINUOUS
 10
5.4942081266
 20
4.2947894639
 40
2.221100824
100
AcDbArc
 50
324.685684028
 51
359.689188528
  0
ARC
  5
21E
100
AcDbEntity
  8
0
100
AcDbCircle
 62
7
  6
CONTINUOUS
 10
5.4478726851
 20
4.3041265176
 40
2.1704910668
100
AcDbArc
 50
52.7676406807
 51
73.635729249
  0
ARC
  5
21F
100
AcDbEntity
  8
0
100
AcDbCircle
 62
7
  6
CONTINUOUS
 10
5.4900354678
 20
4.2827406058
 40
2.1625
100
AcDbArc
 50
76.5777668013
 51
74.8591461596
  0
CIRCLE
  5
220
100
AcDbEntity
  8
0
100
AcDbCircle
 62
7
  6
CONTINUOUS
 10
5.4900354678
 20
4.2827406058
 40
2.0925
  0
CIRCLE
  5
221
100
AcDbEntity
  8
0
100
AcDbCircle
 62
7
  6
CONTINUOUS
 10
5.4900354678
 20
4.2827406058
 40
2.0325
  0
ARC
  5
222
100
AcDbEntity
  8
0
100
AcDbCircle
 62
7
  6
CONTINUOUS
 10
5.4000354678
 20
6.6910595216
 40
0.06
100
AcDbArc
 50
92.1401740593
 51
180.0
  0
ARC
  5
223
100
AcDbEntity
  8
0
100
AcDbCircle
 62
7
  6
CONTINUOUS
 10
5.5800354678
 20
6.6910595216
 40
0.06
100
AcDbArc
 50
0.0
 51
87.8598259407
  0
ARC
  5
224
100
AcDbEntity
  8
0
100
AcDbCircle
 62
7
  6
CONTINUOUS
 10
5.5800354678
 20
1.8744216901
 40
0.06
100
AcDbArc
 50
272.1401740593
 51
360.0
  0
ARC
  5
225
100
AcDbEntity
  8
0
100
AcDbCircle
 62
7
  6
CONTINUOUS
 10
5.4000354678
 20
1.8744216901
 40
0.06
100
AcDbArc
 50
180.0
 51
267.8598259407
  0
ARC
  5
226
100
AcDbEntity
  8
0
100
AcDbCircle
 62
7
  6
CONTINUOUS
 10
5.7000354678
 20
1.9120234148
 40
0.06
100
AcDbArc
 50
95.0620929643
 51
180.0
  0
ARC
  5
227
100
AcDbEntity
  8
0
100
AcDbCircle
 62
7
  6
CONTINUOUS
 10
5.2800354678
 20
1.9120234148
 40
0.06
100
AcDbArc
 50
0.0
 51
84.9379070357
  0
ARC
  5
228
100
AcDbEntity
  8
0
100
AcDbCircle
 62
7
  6
CONTINUOUS
 10
5.7000354678
 20
6.6534577969
 40
0.06
100
AcDbArc
 50
180.0
 51
264.9379070357
  0
ARC
  5
229
100
AcDbEntity
  8
0
100
AcDbCircle
 62
7
  6
CONTINUOUS
 10
5.2800354678
 20
6.6534577969
 40
0.06
100
AcDbArc
 50
275.0620929643
 51
360.0
  0
SPLINE
  5
22A
100
AcDbEntity
  8
0
100
AcDbSpline
 62
7
  6
CONTINUOUS
 70
0
 71
3
 72
59
 73
55
 74
0
 42
0.0000001
 43
0.0000001
 44
0.0000000001
 40
0.0
 40
0.0
 40
0.0
 40
0.0
 40
0.031246258
 40
0.0468723612
 40
0.0624984872
 40
0.0937446953
 40
0.1249908884
 40
0.1562370754
 40
0.1874832937
 40
0.2031094162
 40
0.2187355157
 40
0.2343616524
 40
0.2499877988
 40
0.2656139097
 40
0.2812400235
 40
0.2968661738
 40
0.3124923126
 40
0.3281184185
 40
0.3437445527
 40
0.3593707095
 40
0.3749968374
 40
0.4062430108
 40
0.4374891897
 40
0.4687353867
 40
0.4843615303
 40
0.4999876458
 40
0.5156137958
 40
0.5312399603
 40
0.5468660909
 40
0.562492218
 40
0.5781183835
 40
0.5937445419
 40
0.6093706659
 40
0.6249968148
 40
0.6406229893
 40
0.6562491356
 40
0.6718752606
 40
0.6875014236
 40
0.7187475959
 40
0.7499938043
 40
0.7656199571
 40
0.7812460374
 40
0.796872126
 40
0.8124982773
 40
0.8281245215
 40
0.8437509398
 40
0.8593773923
 40
0.8750035281
 40
0.8906290012
 40
0.9062539557
 40
0.9375004003
 40
0.953130252
 40
0.9687608396
 40
1.0
 40
1.0
 40
1.0
 40
1.0
 10
7.3066012486
 20
3.0108636165
 30
0.0
 10
7.2730503942
 20
2.9635220111
 30
0.0
 10
7.2199035409
 20
2.8944395966
 30
0.0
 10
7.1438250248
 20
2.80676319
 30
0.0
 10
7.0643553694
 20
2.7221410713
 30
0.0
 10
6.9588806337
 20
2.6223081557
 30
0.0
 10
6.8233006126
 20
2.5128482166
 30
0.0
 10
6.6795479788
 20
2.4143673015
 30
0.0
 10
6.5536468815
 20
2.3419729926
 30
0.0
 10
6.4497770479
 20
2.29013822
 30
0.0
 10
6.3703911397
 20
2.2543556122
 30
0.0
 10
6.2896582227
 20
2.2217294209
 30
0.0
 10
6.2077039258
 20
2.1923044915
 30
0.0
 10
6.1246548336
 20
2.1661286365
 30
0.0
 10
6.0406374875
 20
2.1432502134
 30
0.0
 10
5.9557840115
 20
2.1236998047
 30
0.0
 10
5.8702265556
 20
2.1075056503
 30
0.0
 10
5.7840968713
 20
2.0946980387
 30
0.0
 10
5.6975290128
 20
2.0853012651
 30
0.0
 10
5.6106566849
 20
2.0793236469
 30
0.0
 10
5.4946210778
 20
2.0759247771
 30
0.0
 10
5.3494534033
 20
2.0802817262
 30
0.0
 10
5.1762390865
 20
2.0992202458
 30
0.0
 10
5.033564871
 20
2.1263653422
 30
0.0
 10
4.921009059
 20
2.154772861
 30
0.0
 10
4.8374873082
 20
2.1794039382
 30
0.0
 10
4.7550071022
 20
2.2073205133
 30
0.0
 10
4.6736937255
 20
2.2384736247
 30
0.0
 10
4.5936751484
 20
2.2728160417
 30
0.0
 10
4.5150798686
 20
2.3103016034
 30
0.0
 10
4.4380293929
 20
2.3508676366
 30
0.0
 10
4.3626429298
 20
2.3944481515
 30
0.0
 10
4.2890407783
 20
2.4409789672
 30
0.0
 10
4.2173415392
 20
2.4903916231
 30
0.0
 10
4.1476539002
 20
2.5426030535
 30
0.0
 10
4.0800873781
 20
2.5975312971
 30
0.0
 10
4.0147517837
 20
2.6550972594
 30
0.0
 10
3.930762438
 20
2.7352332015
 30
0.0
 10
3.8318234793
 20
2.8415477356
 30
0.0
 10
3.74163512
 20
2.9553800953
 30
0.0
 10
3.6750782353
 20
3.050491439
 30
0.0
 10
3.6280247586
 20
3.1237616656
 30
0.0
 10
3.583920725
 20
3.1988426696
 30
0.0
 10
3.5428294351
 20
3.275614612
 30
0.0
 10
3.5048170593
 20
3.3539574191
 30
0.0
 10
3.4699513738
 20
3.4337510381
 30
0.0
 10
3.4382836521
 20
3.5148667879
 30
0.0
 10
3.409860966
 20
3.597173319
 30
0.0
 10
3.38473165
 20
3.6805435907
 30
0.0
 10
3.3556813751
 20
3.7929306265
 30
0.0
 10
3.3333548356
 20
3.9069778181
 30
0.0
 10
3.3178969441
 20
4.0220461976
 30
0.0
 10
3.3070320265
 20
4.1376218181
 30
0.0
 10
3.3040560466
 20
4.2247298655
 30
0.0
 10
3.3043908045
 20
4.2827406057
 30
0.0
  0
SPLINE
  5
22B
100
AcDbEntity
  8
0
100
AcDbSpline
 62
7
  6
CONTINUOUS
 70
0
 71
3
 72
39
 73
35
 74
0
 42
0.0000001
 43
0.0000001
 44
0.0000000001
 40
0.0
 40
0.0
 40
0.0
 40
0.0
 40
0.031239178
 40
0.0624959702
 40
0.093752275
 40
0.1250020827
 40
0.1562498146
 40
0.1874991812
 40
0.2187496821
 40
0.2500000234
 40
0.2812500268
 40
0.3124998494
 40
0.3437498249
 40
0.3749998689
 40
0.4062498507
 40
0.4374998891
 40
0.4687498443
 40
0.4999998653
 40
0.5312498765
 40
0.5624998426
 40
0.5937498845
 40
0.6249998666
 40
0.6562499327
 40
0.6874999137
 40
0.7187497626
 40
0.7499997661
 40
0.7812501022
 40
0.812500656
 40
0.8437500907
 40
0.8749978663
 40
0.9062475876
 40
0.9375038255
 40
0.9687607757
 40
1.0
 40
1.0
 40
1.0
 40
1.0
 10
3.3043908045
 20
4.2827406057
 30
0.0
 10
3.3046305022
 20
4.3242782154
 30
0.0
 10
3.3074874423
 20
4.4073824416
 30
0.0
 10
3.3188601449
 20
4.5315881355
 30
0.0
 10
3.3373039639
 20
4.6549611646
 30
0.0
 10
3.3627635926
 20
4.7770658626
 30
0.0
 10
3.395145281
 20
4.8975107815
 30
0.0
 10
3.4343602405
 20
5.0159081614
 30
0.0
 10
3.4802655011
 20
5.1318793698
 30
0.0
 10
3.5327282893
 20
5.2450366035
 30
0.0
 10
3.5915745802
 20
5.3550081129
 30
0.0
 10
3.6566076706
 20
5.4614377043
 30
0.0
 10
3.7276300771
 20
5.5639676038
 30
0.0
 10
3.804394991
 20
5.6622720133
 30
0.0
 10
3.8866662353
 20
5.7560170787
 30
0.0
 10
3.9741690541
 20
5.8448982529
 30
0.0
 10
4.0666161452
 20
5.9286253635
 30
0.0
 10
4.1637142294
 20
6.0069108914
 30
0.0
 10
4.2651336558
 20
6.0795109671
 30
0.0
 10
4.3705532864
 20
6.1461700566
 30
0.0
 10
4.4796206935
 20
6.2066759922
 30
0.0
 10
4.5919790252
 20
6.2608275009
 30
0.0
 10
4.7072628352
 20
6.3084338916
 30
0.0
 10
4.8250860833
 20
6.3493531082
 30
0.0
 10
4.9450674108
 20
6.3834295421
 30
0.0
 10
5.066807417
 20
6.4105619135
 30
0.0
 10
5.1899067846
 20
6.4306531398
 30
0.0
 10
5.3139572907
 20
6.443627869
 30
0.0
 10
5.4385447758
 20
6.4494588756
 30
0.0
 10
5.5632604187
 20
6.4481053772
 30
0.0
 10
5.6877005153
 20
6.4395814276
 30
0.0
 10
5.8114561408
 20
6.4238990274
 30
0.0
 10
5.9340848097
 20
6.4011183401
 30
0.0
 10
6.0148325544
 20
6.3812561509
 30
0.0
 10
6.0548650215
 20
6.3701729581
 30
0.0
  0
SPLINE
  5
22C
100
AcDbEntity
  8
0
100
AcDbSpline
 62
7
  6
CONTINUOUS
 70
0
 71
3
 72
15
 73
11
 74
0
 42
0.0000001
 43
0.0000001
 44
0.0000000001
 40
0.0
 40
0.0
 40
0.0
 40
0.0
 40
0.1250003155
 40
0.2500006423
 40
0.375000768
 40
0.5000008288
 40
0.6250007674
 40
0.7500006398
 40
0.8750003154
 40
1.0
 40
1.0
 40
1.0
 40
1.0
 10
6.6055760274
 20
6.2234753919
 30
0.0
 10
6.6898263459
 20
6.1744144513
 30
0.0
 10
6.8521061603
 20
6.0651317513
 30
0.0
 10
7.0719015351
 20
5.8709609706
 30
0.0
 10
7.2645037167
 20
5.6497218742
 30
0.0
 10
7.4265344431
 20
5.4052187117
 30
0.0
 10
7.5552045353
 20
5.141627441
 30
0.0
 10
7.6482726752
 20
4.8634504286
 30
0.0
 10
7.7041115152
 20
4.5755320398
 30
0.0
 10
7.7158561151
 20
4.3802326096
 30
0.0
 10
7.7153035434
 20
4.282740606
 30
0.0
  0
SPLINE
  5
22D
100
AcDbEntity
  8
0
100
AcDbSpline
 62
7
  6
CONTINUOUS
 70
0
 71
3
 72
31
 73
27
 74
0
 42
0.0000001
 43
0.0000001
 44
0.0000000001
 40
0.0
 40
0.0
 40
0.0
 40
0.0
 40
0.0312527497
 40
0.0625051529
 40
0.0937573545
 40
0.125009473
 40
0.156261538
 40
0.1875136843
 40
0.2500071348
 40
0.3125004822
 40
0.37499393
 40
0.4374873993
 40
0.4687397018
 40
0.4999919456
 40
0.5312442312
 40
0.562496554
 40
0.5937487727
 40
0.6250008691
 40
0.6874946193
 40
0.7187472626
 40
0.7500000756
 40
0.8124934503
 40
0.8749835051
 40
0.9062362172
 40
0.9374931294
 40
1.0
 40
1.0
 40
1.0
 40
1.0
 10
6.0593954784
 20
6.38669659
 30
0.0
 10
6.0329536373
 20
6.3944692342
 30
0.0
 10
5.9797699595
 20
6.4090132868
 30
0.0
 10
5.899228604
 20
6.4277840333
 30
0.0
 10
5.8180335902
 20
6.4434916122
 30
0.0
 10
5.7363037112
 20
6.4561180021
 30
0.0
 10
5.6541534427
 20
6.4656439893
 30
0.0
 10
5.5442334516
 20
6.4741930567
 30
0.0
 10
5.4063404775
 20
6.4770966199
 30
0.0
 10
5.2411004266
 20
6.4680943887
 30
0.0
 10
5.0770040509
 20
6.4467038064
 30
0.0
 10
4.9419656965
 20
6.4186465602
 30
0.0
 10
4.8354495021
 20
6.3901898182
 30
0.0
 10
4.7564078571
 20
6.3658621045
 30
0.0
 10
4.6783342431
 20
6.3385905589
 30
0.0
 10
4.6013347975
 20
6.3084197119
 30
0.0
 10
4.5255155089
 20
6.2753914639
 30
0.0
 10
4.426156923
 20
6.2276111199
 30
0.0
 10
4.3295361308
 20
6.1742977327
 30
0.0
 10
4.2361332773
 20
6.1157194103
 30
0.0
 10
4.1449765103
 20
6.0536995551
 30
0.0
 10
4.0354513343
 20
5.9698880707
 30
0.0
 10
3.9324584603
 20
5.8781689861
 30
0.0
 10
3.8543238828
 20
5.8003793263
 30
0.0
 10
3.7791206712
 20
5.719738858
 30
0.0
 10
3.7261124571
 20
5.6561491221
 30
0.0
 10
3.6924039693
 20
5.6125347782
 30
0.0
  0
ENDSEC
  0
SECTION
  2
OBJECTS
  0
DICTIONARY
  5
C
100
AcDbDictionary
280
0
281
1
  3
ACAD_GROUP
350
D
  3
ACAD_MLINESTYLE
350
17
  3
ACAD_LAYOUT
350
1A
  3
ACAD_PLOTSETTINGS
350
19
  3
ACAD_PLOTSTYLENAME
350
E
  0
DICTIONARY
  5
D
102
{ACAD_REACTORS
330
C
102
}
100
AcDbDictionary
280
0
281
1
  0
ACDBDICTIONARYWDFLT
  5
E
102
{ACAD_REACTORS
330
C
102
}
100
AcDbDictionary
281
1
  3
Normal
350
F
100
AcDbDictionaryWithDefault
340
F
  0
DICTIONARY
  5
17
102
{ACAD_REACTORS
330
C
102
}
100
AcDbDictionary
280
0
281
1
  3
Standard
350
18
  0
DICTIONARY
  5
19
102
{ACAD_REACTORS
330
C
102
}
100
AcDbDictionary
281
1
  0
DICTIONARY
  5
1A
102
{ACAD_REACTORS
330
C
102
}
100
AcDbDictionary
281
1
  3
Model
350
22E
  3
Layout1
350
22F
  0
ACDBPLACEHOLDER
  5
F
102
{ACAD_REACTORS
330
E
102
}
  0
MLINESTYLE
  5
18
102
{ACAD_REACTORS
330
17
102
}
100
AcDbMlineStyle
  2
STANDARD
 70
0
  3

 62
256
 51
90.0
 52
90.0
 71
2
 49
0.5
 62
256
  6
BYLAYER
 49
-0.5
 62
256
  6
BYLAYER
  0
LAYOUT
  5
22E
102
{ACAD_REACTORS
330
1A
102
}
100
AcDbPlotSettings
  1

  2
none_device
  4
ANSI_A_(11.00_x_8.50_Inches)
  6

 40
0.0
 41
0.0
 42
0.0
 43
0.0
 44
279.4
 45
215.9
 46
0.0
 47
0.0
 48
0.0
 49
0.0
140
0.0
141
0.0
142
1.0
143
1.0
 70
1024
 72
0
 73
0
 74
0
  7

 75
0
147
1.0
148
0.0
149
0.0
100
AcDbLayout
  1
Model
 70
0
 71
0
 10
0.0
 20
0.0
 11
11.0
 21
8.5
 12
0.0
 22
0.0
 32
0.0
 14
0.0
 24
0.0
 34
0.0
 15
0.0
 25
0.0
 35
0.0
146
0.0
 13
0.0
 23
0.0
 33
0.0
 16
1.0
 26
0.0
 36
0.0
 17
0.0
 27
1.0
 37
0.0
 76
0
330
202
345
0
346
0
  0
LAYOUT
  5
22F
102
{ACAD_REACTORS
330
1A
102
}
100
AcDbPlotSettings
  1

  2
none_device
  4
ANSI_A_(11.00_x_8.50_Inches)
  6

 40
0.0
 41
0.0
 42
0.0
 43
0.0
 44
279.4
 45
215.9
 46
0.0
 47
0.0
 48
0.0
 49
0.0
140
0.0
141
0.0
142
1.0
143
1.0
 70
0
 72
0
 73
0
 74
0
  7

 75
0
147
1.0
148
0.0
149
0.0
100
AcDbLayout
  1
Layout1
 70
0
 71
1
 10
0.0
 20
0.0
 11
11.0
 21
8.5
 12
0.0
 22
0.0
 32
0.0
 14
0.0
 24
0.0
 34
0.0
 15
0.0
 25
0.0
 35
0.0
146
0.0
 13
0.0
 23
0.0
 33
0.0
 16
1.0
 26
0.0
 36
0.0
 17
0.0
 27
1.0
 37
0.0
 76
0
330
203
345
0
346
0
  0
ENDSEC
  0
EOF
