999
DXF file: 277-02a_top.dxf
999
Pro/ENGINEER 2013150 by Parametric Technology Corporation
  0
SECTION
  2
HEADER
  9
$ACADVER
  1
AC1021
  9
$DWGCODEPAGE
  3
ANSI_1252
  9
$EXTMAX
 10
11.0
 20
8.5
 30
0.0
  9
$EXTMIN
 10
0.0
 20
0.0
 30
0.0
  9
$LIMMIN
 10
0.0
 20
0.0
  9
$LIMMAX
 10
11.0
 20
8.5
  9
$VIEWCTR
 10
5.5
 20
4.25
  9
$VIEWSIZE
 40
8.5
  9
$CLAYER
  8
0
  9
$LTSCALE
 40
0.605
  9
$CELTYPE
  6
BYLAYER
  9
$DIMSCALE
 40
1.0
  9
$DIMASZ
 40
0.1
  9
$DIMEXO
 40
0.0625
  9
$DIMDLI
 40
0.418
  9
$DIMEXE
 40
0.125
  9
$DIMCEN
 40
0.099
  9
$DIMLFAC
 40
1.0
  9
$DIMBLK
  1
_FILLED
  9
$DIMTXT
 40
0.08
  9
$DIMTOL
 70
1
  9
$DIMLIM
 70
0
  9
$DIMTFAC
 40
1.0
  9
$DIMTP
 40
0.001
  9
$DIMTM
 40
0.001
  9
$DIMGAP
 40
0.09
  9
$DIMDSEP
 70
46
  9
$PDMODE
 70
3
  9
$PDSIZE
 40
0.06
  9
$HANDSEED
  5
381
  9
$TILEMODE
 70
1
  9
$MEASUREMENT
 70
0
  9
$INSUNITS
 70
1
  0
ENDSEC
  0
SECTION
  2
CLASSES
  0
CLASS
  1
ACDBDICTIONARYWDFLT
  2
AcDbDictionaryWithDefault
  3
AutoCAD 2000
 90
0
 91
1
280
0
281
0
  0
CLASS
  1
ACDBPLACEHOLDER
  2
AcDbPlaceHolder
  3
AutoCAD 2000
 90
0
 91
1
280
0
281
0
  0
CLASS
  1
LAYOUT
  2
AcDbLayout
  3
AutoCAD 2000
 90
0
 91
0
280
0
281
0
  0
ENDSEC
  0
SECTION
  2
TABLES
  0
TABLE
  2
VPORT
  5
8
100
AcDbSymbolTable
 70
2
  0
VPORT
  5
1F4
100
AcDbSymbolTableRecord
100
AcDbViewportTableRecord
  2
*ACTIVE
 70
0
 10
0.0
 20
0.0
 11
1.0
 21
1.0
 12
5.5
 22
4.25
 13
0.0
 23
0.0
 14
1.0
 24
1.0
 15
0.0
 25
0.0
 16
0.0
 26
0.0
 36
1.0
 17
0.0
 27
0.0
 37
0.0
 40
8.5
 41
1.2941176471
 42
50.0
 43
0.0
 44
0.0
 50
0.0
 51
0.0
 71
0
 72
100
 73
1
 74
1
 75
0
 76
0
 77
0
 78
0
  0
ENDTAB
  0
TABLE
  2
LTYPE
  5
5
100
AcDbSymbolTable
 70
6
  0
LTYPE
  5
14
100
AcDbSymbolTableRecord
100
AcDbLinetypeTableRecord
  2
BYBLOCK
 70
0
  3

 72
65
 73
0
 40
0.0
  0
LTYPE
  5
15
100
AcDbSymbolTableRecord
100
AcDbLinetypeTableRecord
  2
BYLAYER
 70
0
  3

 72
65
 73
0
 40
0.0
  0
LTYPE
  5
16
100
AcDbSymbolTableRecord
100
AcDbLinetypeTableRecord
  2
CONTINUOUS
 70
64
  3
Solid line
 72
65
 73
0
 40
0.0
  0
LTYPE
  5
1F5
100
AcDbSymbolTableRecord
100
AcDbLinetypeTableRecord
  2
CENTER
 70
64
  3
____ _ ____ _ ____ _ ____ _ ____ _ ____ _ ____
 72
65
 73
4
 40
0.6
 49
0.375
 74
0
 49
-0.075
 74
0
 49
0.075
 74
0
 49
-0.075
 74
0
  0
LTYPE
  5
1F6
100
AcDbSymbolTableRecord
100
AcDbLinetypeTableRecord
  2
HIDDEN
 70
64
  3
- - - - - - - - - - - - - - - - - - - -
 72
65
 73
2
 40
0.2
 49
0.1
 74
0
 49
-0.1
 74
0
  0
LTYPE
  5
1F7
100
AcDbSymbolTableRecord
100
AcDbLinetypeTableRecord
  2
PHANTOM
 70
64
  3
_____ _ _ _____ _ _ _____ _ _ _____
 72
65
 73
6
 40
0.8
 49
0.45
 74
0
 49
-0.05
 74
0
 49
0.1
 74
0
 49
-0.05
 74
0
 49
0.1
 74
0
 49
-0.05
 74
0
  0
LTYPE
  5
1F8
100
AcDbSymbolTableRecord
100
AcDbLinetypeTableRecord
  2
DOT
 70
64
  3
. . . . . . . . . . . . . . . . . . . .
 72
65
 73
2
 40
0.2
 49
0.1
 74
0
 49
-0.1
 74
0
  0
LTYPE
  5
1F9
100
AcDbSymbolTableRecord
100
AcDbLinetypeTableRecord
  2
DASHED
 70
64
  3
- - - - - - - - - - - - - - - - - - - -
 72
65
 73
2
 40
0.2
 49
0.1
 74
0
 49
-0.1
 74
0
  0
ENDTAB
  0
TABLE
  2
LAYER
  5
2
100
AcDbSymbolTable
 70
36
  0
LAYER
  5
10
100
AcDbSymbolTableRecord
100
AcDbLayerTableRecord
  2
0
 70
0
 62
7
  6
CONTINUOUS
370
-3
390
F
  0
LAYER
  5
1FA
100
AcDbSymbolTableRecord
100
AcDbLayerTableRecord
  2
DEFAULT_1
 70
0
 62
7
  6
CENTER
370
-3
390
F
  0
LAYER
  5
1FB
100
AcDbSymbolTableRecord
100
AcDbLayerTableRecord
  2
DEFAULT_2
 70
0
 62
8
  6
HIDDEN
370
-3
390
F
  0
LAYER
  5
1FC
100
AcDbSymbolTableRecord
100
AcDbLayerTableRecord
  2
DEFAULT_3
 70
0
 62
7
  6
PHANTOM
370
-3
390
F
  0
LAYER
  5
1FD
100
AcDbSymbolTableRecord
100
AcDbLayerTableRecord
  2
DEFAULT_COORDINATE_SYSTEM
 70
0
 62
7
  6
CONTINUOUS
370
-3
390
F
  0
LAYER
  5
1FE
100
AcDbSymbolTableRecord
100
AcDbLayerTableRecord
  2
DEFAULT_DATUM_AXES
 70
0
 62
7
  6
CONTINUOUS
370
-3
390
F
  0
LAYER
  5
1FF
100
AcDbSymbolTableRecord
100
AcDbLayerTableRecord
  2
DEFAULT_DATUM_CURVES
 70
0
 62
7
  6
CONTINUOUS
370
-3
390
F
  0
LAYER
  5
200
100
AcDbSymbolTableRecord
100
AcDbLayerTableRecord
  2
DEFAULT_DATUM_PLANES
 70
0
 62
7
  6
CONTINUOUS
370
-3
390
F
  0
ENDTAB
  0
TABLE
  2
STYLE
  5
3
100
AcDbSymbolTable
 70
1
  0
STYLE
  5
11
100
AcDbSymbolTableRecord
100
AcDbTextStyleTableRecord
  2
STANDARD
 70
0
 40
0.0
 41
0.8
 50
0.0
 71
0
 42
0.2
  3
txt
  4

  0
STYLE
  5
201
100
AcDbSymbolTableRecord
100
AcDbTextStyleTableRecord
  2
TEXTSTYLE_1
 70
0
 40
0.0
 41
0.8
 50
0.0
 71
0
 42
0.2
  3
gdt
  4

  0
ENDTAB
  0
TABLE
  2
VIEW
  5
6
100
AcDbSymbolTable
 70
0
  0
ENDTAB
  0
TABLE
  2
UCS
  5
7
100
AcDbSymbolTable
 70
0
  0
ENDTAB
  0
TABLE
  2
APPID
  5
9
100
AcDbSymbolTable
 70
1
  0
APPID
  5
202
100
AcDbSymbolTableRecord
100
AcDbRegAppTableRecord
  2
ACAD
 70
0
  0
ENDTAB
  0
TABLE
  2
BLOCK_RECORD
  5
1
100
AcDbSymbolTable
 70
0
  0
BLOCK_RECORD
  5
203
100
AcDbSymbolTableRecord
100
AcDbBlockTableRecord
  2
*Model_Space
  0
BLOCK_RECORD
  5
204
100
AcDbSymbolTableRecord
100
AcDbBlockTableRecord
  2
*Paper_Space
  0
ENDTAB
  0
TABLE
  2
DIMSTYLE
  5
A
100
AcDbSymbolTable
 70
1
100
AcDbDimStyleTable
 71
0
  0
DIMSTYLE
105
205
100
AcDbSymbolTableRecord
100
AcDbDimStyleTableRecord
  2
STANDARD
 70
0
  3

  4

 40
1.0
 41
0.1
 42
0.0625
 43
0.38
 44
0.125
 45
0.0
 46
0.0
 47
0.001
 48
0.001
140
0.08
141
0.09
142
0.0
143
25.4
144
1.0
145
0.0
146
1.0
147
0.09
 71
1.0
 72
0.0
 73
1
 74
1
 75
0
 76
0
 77
0
 78
4
170
0
171
2
172
0
173
0
174
0
175
0
176
0
177
0
178
0
270
2
271
3
272
3
273
2
274
2
275
0
280
0
281
0
282
0
283
1
284
4
285
0
286
0
287
3
288
0
340
11
278
46
  0
ENDTAB
  0
ENDSEC
  0
SECTION
  2
BLOCKS
  0
BLOCK
  5
20
100
AcDbEntity
  8
0
100
AcDbBlockBegin
  2
*Model_Space
 70
0
 10
0.0
 20
0.0
 30
0.0
  3
*Model_Space
  1

  0
ENDBLK
  5
21
100
AcDbEntity
  8
0
100
AcDbBlockEnd
  0
BLOCK
  5
1C
100
AcDbEntity
  8
0
100
AcDbBlockBegin
  2
*Paper_Space
 70
0
 10
0.0
 20
0.0
 30
0.0
  3
*Paper_Space
  1

  0
ENDBLK
  5
1D
100
AcDbEntity
  8
0
100
AcDbBlockEnd
  0
ENDSEC
  0
SECTION
  2
ENTITIES
  0
LINE
  5
206
100
AcDbEntity
  8
0
100
AcDbLine
 62
7
  6
CONTINUOUS
 10
0.0
 20
0.0
 11
0.0
 21
8.5
  0
LINE
  5
207
100
AcDbEntity
  8
0
100
AcDbLine
 62
7
  6
CONTINUOUS
 10
0.0
 20
0.0
 11
11.0
 21
0.0
  0
LINE
  5
208
100
AcDbEntity
  8
0
100
AcDbLine
 62
7
  6
CONTINUOUS
 10
0.0
 20
8.5
 11
11.0
 21
8.5
  0
LINE
  5
209
100
AcDbEntity
  8
0
100
AcDbLine
 62
7
  6
CONTINUOUS
 10
11.0
 20
0.0
 11
11.0
 21
8.5
  0
LINE
  5
20A
100
AcDbEntity
  8
0
100
AcDbLine
 62
7
  6
CONTINUOUS
 10
1.7574824752
 20
4.987030397
 11
1.7574824752
 21
4.937030397
  0
LINE
  5
20B
100
AcDbEntity
  8
0
100
AcDbLine
 62
7
  6
CONTINUOUS
 10
1.7634824752
 20
4.6890303722
 11
1.7634824752
 21
4.6305303722
  0
LINE
  5
20C
100
AcDbEntity
  8
0
100
AcDbLine
 62
7
  6
CONTINUOUS
 10
1.7634824752
 20
4.390030397
 11
1.7634824752
 21
4.234030397
  0
LINE
  5
20D
100
AcDbEntity
  8
0
100
AcDbLine
 62
7
  6
CONTINUOUS
 10
1.7634824752
 20
4.1820304094
 11
1.7634824752
 21
4.1430304094
  0
LINE
  5
20E
100
AcDbEntity
  8
0
100
AcDbLine
 62
7
  6
CONTINUOUS
 10
1.7634824752
 20
3.9870303908
 11
1.7634824752
 21
3.9480303908
  0
LINE
  5
20F
100
AcDbEntity
  8
0
100
AcDbLine
 62
7
  6
CONTINUOUS
 10
1.7681207718
 20
4.949530397
 11
1.7681207718
 21
4.9891137284
  0
LINE
  5
210
100
AcDbEntity
  8
0
100
AcDbLine
 62
7
  6
CONTINUOUS
 10
1.7596101345
 20
4.9974470657
 11
1.7574824752
 21
4.987030397
  0
LINE
  5
211
100
AcDbEntity
  8
0
100
AcDbLine
 62
7
  6
CONTINUOUS
 10
1.7701207723
 20
4.721530397
 11
1.7634824752
 21
4.6890303722
  0
LINE
  5
212
100
AcDbEntity
  8
0
100
AcDbLine
 62
7
  6
CONTINUOUS
 10
1.7681207718
 20
4.9891137284
 11
1.7702484311
 21
4.9953637284
  0
LINE
  5
213
100
AcDbEntity
  8
0
100
AcDbLine
 62
7
  6
CONTINUOUS
 10
1.7966739606
 20
4.273030397
 11
1.7966739606
 21
4.3965303722
  0
LINE
  5
214
100
AcDbEntity
  8
0
100
AcDbLine
 62
7
  6
CONTINUOUS
 10
1.8000356676
 20
4.9891137284
 11
1.8000356676
 21
4.949530397
  0
LINE
  5
215
100
AcDbEntity
  8
0
100
AcDbLine
 62
7
  6
CONTINUOUS
 10
1.8033122577
 20
4.6305303722
 11
1.8033122577
 21
4.6890303722
  0
LINE
  5
216
100
AcDbEntity
  8
0
100
AcDbLine
 62
7
  6
CONTINUOUS
 10
1.8128016235
 20
4.949530397
 11
1.8128016235
 21
4.9849470627
  0
LINE
  5
217
100
AcDbEntity
  8
0
100
AcDbLine
 62
7
  6
CONTINUOUS
 10
1.8431420588
 20
4.741030397
 11
1.8431420588
 21
4.780030397
  0
LINE
  5
218
100
AcDbEntity
  8
0
100
AcDbLine
 62
7
  6
CONTINUOUS
 10
1.8574824752
 20
4.937030397
 11
1.8574824752
 21
4.949530397
  0
LINE
  5
219
100
AcDbEntity
  8
0
100
AcDbLine
 62
7
  6
CONTINUOUS
 10
1.8574824752
 20
5.0016137284
 11
1.8574824752
 21
5.0161970657
  0
LINE
  5
21A
100
AcDbEntity
  8
0
100
AcDbLine
 62
7
  6
CONTINUOUS
 10
1.8962484354
 20
4.3965303722
 11
1.8962484354
 21
4.273030397
  0
LINE
  5
21B
100
AcDbEntity
  8
0
100
AcDbLine
 62
7
  6
CONTINUOUS
 10
1.9294399208
 20
3.863530397
 11
1.9294399208
 21
3.8960304032
  0
LINE
  5
21C
100
AcDbEntity
  8
0
100
AcDbLine
 62
7
  6
CONTINUOUS
 10
1.9360782179
 20
4.273030397
 11
1.9360782179
 21
4.390030397
  0
LINE
  5
21D
100
AcDbEntity
  8
0
100
AcDbLine
 62
7
  6
CONTINUOUS
 10
1.9958229009
 20
4.780030397
 11
1.9958229009
 21
4.741030397
  0
LINE
  5
21E
100
AcDbEntity
  8
0
100
AcDbLine
 62
7
  6
CONTINUOUS
 10
2.0090994951
 20
3.8960304032
 11
2.0090994951
 21
3.863530397
  0
LINE
  5
21F
100
AcDbEntity
  8
0
100
AcDbLine
 62
7
  6
CONTINUOUS
 10
2.0356526881
 20
4.6890303722
 11
2.0356526881
 21
4.6305303722
  0
LINE
  5
220
100
AcDbEntity
  8
0
100
AcDbLine
 62
7
  6
CONTINUOUS
 10
2.0356526881
 20
4.078030397
 11
2.0356526881
 21
4.0520303846
  0
LINE
  5
221
100
AcDbEntity
  8
0
100
AcDbLine
 62
7
  6
CONTINUOUS
 10
2.0754824752
 20
4.0520303846
 11
2.0754824752
 21
4.078030397
  0
LINE
  5
222
100
AcDbEntity
  8
0
100
AcDbLine
 62
7
  6
CONTINUOUS
 10
2.0754824752
 20
4.234030397
 11
2.0754824752
 21
4.273030397
  0
LINE
  5
223
100
AcDbEntity
  8
0
100
AcDbLine
 62
7
  6
CONTINUOUS
 10
2.0754824752
 20
4.6305303722
 11
2.0754824752
 21
4.6890303722
  0
LINE
  5
224
100
AcDbEntity
  8
0
100
AcDbLine
 62
7
  6
CONTINUOUS
 10
1.8696952471
 20
3.844030397
 11
1.86305695
 21
3.7985303939
  0
LINE
  5
225
100
AcDbEntity
  8
0
100
AcDbLine
 62
7
  6
CONTINUOUS
 10
1.8896101383
 20
3.7920304001
 11
1.8962484354
 21
3.8375303939
  0
LINE
  5
226
100
AcDbEntity
  8
0
100
AcDbLine
 62
7
  6
CONTINUOUS
 10
1.7701207723
 20
4.4225304218
 11
1.7634824752
 21
4.390030397
  0
LINE
  5
227
100
AcDbEntity
  8
0
100
AcDbLine
 62
7
  6
CONTINUOUS
 10
2.0688441775
 20
4.5980304218
 11
2.0754824752
 21
4.6305303722
  0
LINE
  5
228
100
AcDbEntity
  8
0
100
AcDbLine
 62
7
  6
CONTINUOUS
 10
1.8033122577
 20
4.6890303722
 11
1.8099505548
 21
4.7150304218
  0
LINE
  5
229
100
AcDbEntity
  8
0
100
AcDbLine
 62
7
  6
CONTINUOUS
 10
2.0356526881
 20
4.6305303722
 11
2.029014391
 21
4.604530397
  0
LINE
  5
22A
100
AcDbEntity
  8
0
100
AcDbLine
 62
7
  6
CONTINUOUS
 10
1.7966739606
 20
4.3965303722
 11
1.8033122577
 21
4.4160303722
  0
LINE
  5
22B
100
AcDbEntity
  8
0
100
AcDbLine
 62
7
  6
CONTINUOUS
 10
1.7833973664
 20
4.7475303722
 11
1.7701207723
 21
4.721530397
  0
LINE
  5
22C
100
AcDbEntity
  8
0
100
AcDbLine
 62
7
  6
CONTINUOUS
 10
1.8099505548
 20
4.7150304218
 11
1.8232271489
 21
4.7345304218
  0
LINE
  5
22D
100
AcDbEntity
  8
0
100
AcDbLine
 62
7
  6
CONTINUOUS
 10
1.7659931125
 20
5.005780397
 11
1.7596101345
 21
4.9974470657
  0
LINE
  5
22E
100
AcDbEntity
  8
0
100
AcDbLine
 62
7
  6
CONTINUOUS
 10
1.8763335442
 20
3.7400303986
 11
1.8896101383
 21
3.7205303962
  0
LINE
  5
22F
100
AcDbEntity
  8
0
100
AcDbLine
 62
7
  6
CONTINUOUS
 10
1.9028867325
 20
3.7530303955
 11
1.8962484354
 21
3.766030397
  0
LINE
  5
230
100
AcDbEntity
  8
0
100
AcDbLine
 62
7
  6
CONTINUOUS
 10
1.8696952471
 20
3.7595303986
 11
1.8763335442
 21
3.7400303986
  0
LINE
  5
231
100
AcDbEntity
  8
0
100
AcDbLine
 62
7
  6
CONTINUOUS
 10
1.8896101383
 20
4.4160303722
 11
1.8962484354
 21
4.3965303722
  0
LINE
  5
232
100
AcDbEntity
  8
0
100
AcDbLine
 62
7
  6
CONTINUOUS
 10
1.8962484354
 20
3.766030397
 11
1.8896101383
 21
3.7920304001
  0
LINE
  5
233
100
AcDbEntity
  8
0
100
AcDbLine
 62
7
  6
CONTINUOUS
 10
1.8099505548
 20
4.604530397
 11
1.8033122577
 21
4.6305303722
  0
LINE
  5
234
100
AcDbEntity
  8
0
100
AcDbLine
 62
7
  6
CONTINUOUS
 10
2.029014391
 20
4.1040304094
 11
2.0356526881
 21
4.078030397
  0
LINE
  5
235
100
AcDbEntity
  8
0
100
AcDbLine
 62
7
  6
CONTINUOUS
 10
1.7634824752
 20
4.6305303722
 11
1.7701207723
 21
4.5980304218
  0
LINE
  5
236
100
AcDbEntity
  8
0
100
AcDbLine
 62
7
  6
CONTINUOUS
 10
1.9360782179
 20
4.390030397
 11
1.9294399208
 21
4.4225304218
  0
LINE
  5
237
100
AcDbEntity
  8
0
100
AcDbLine
 62
7
  6
CONTINUOUS
 10
2.0754824752
 20
4.078030397
 11
2.0688441775
 21
4.1105303846
  0
LINE
  5
238
100
AcDbEntity
  8
0
100
AcDbLine
 62
7
  6
CONTINUOUS
 10
1.86305695
 20
3.7985303939
 11
1.8696952471
 21
3.7595303986
  0
LINE
  5
239
100
AcDbEntity
  8
0
100
AcDbLine
 62
7
  6
CONTINUOUS
 10
2.0422909851
 20
3.8375303939
 11
2.0489292845
 21
3.7920304001
  0
LINE
  5
23A
100
AcDbEntity
  8
0
100
AcDbLine
 62
7
  6
CONTINUOUS
 10
2.0754824752
 20
3.7985303939
 11
2.0688441775
 21
3.844030397
  0
LINE
  5
23B
100
AcDbEntity
  8
0
100
AcDbLine
 62
7
  6
CONTINUOUS
 10
2.0688441775
 20
3.7595303986
 11
2.0754824752
 21
3.7985303939
  0
LINE
  5
23C
100
AcDbEntity
  8
0
100
AcDbLine
 62
7
  6
CONTINUOUS
 10
2.0688441775
 20
4.019530397
 11
2.0754824752
 21
4.0520303846
  0
LINE
  5
23D
100
AcDbEntity
  8
0
100
AcDbLine
 62
7
  6
CONTINUOUS
 10
2.0356526881
 20
4.0520303846
 11
2.029014391
 21
4.0260304094
  0
LINE
  5
23E
100
AcDbEntity
  8
0
100
AcDbLine
 62
7
  6
CONTINUOUS
 10
2.0489292845
 20
3.7920304001
 11
2.0356526881
 21
3.7530303955
  0
LINE
  5
23F
100
AcDbEntity
  8
0
100
AcDbLine
 62
7
  6
CONTINUOUS
 10
2.0622058799
 20
3.7400303986
 11
2.0688441775
 21
3.7595303986
  0
LINE
  5
240
100
AcDbEntity
  8
0
100
AcDbLine
 62
7
  6
CONTINUOUS
 10
2.0555675816
 20
4.5720303722
 11
2.0688441775
 21
4.5980304218
  0
LINE
  5
241
100
AcDbEntity
  8
0
100
AcDbLine
 62
7
  6
CONTINUOUS
 10
1.8829718412
 20
3.8700303908
 11
1.8696952471
 21
3.844030397
  0
LINE
  5
242
100
AcDbEntity
  8
0
100
AcDbLine
 62
7
  6
CONTINUOUS
 10
2.029014391
 20
4.604530397
 11
2.0157377922
 21
4.585030397
  0
LINE
  5
243
100
AcDbEntity
  8
0
100
AcDbLine
 62
7
  6
CONTINUOUS
 10
1.7900356635
 20
4.448530397
 11
1.7701207723
 21
4.4225304218
  0
LINE
  5
244
100
AcDbEntity
  8
0
100
AcDbLine
 62
7
  6
CONTINUOUS
 10
1.7702484311
 20
4.9953637284
 11
1.7745037498
 21
4.999530397
  0
LINE
  5
245
100
AcDbEntity
  8
0
100
AcDbLine
 62
7
  6
CONTINUOUS
 10
1.8099505548
 20
4.7735304218
 11
1.7833973664
 21
4.7475303722
  0
LINE
  5
246
100
AcDbEntity
  8
0
100
AcDbLine
 62
7
  6
CONTINUOUS
 10
1.7745037498
 20
5.012030397
 11
1.7659931125
 21
5.005780397
  0
LINE
  5
247
100
AcDbEntity
  8
0
100
AcDbLine
 62
7
  6
CONTINUOUS
 10
1.8896101383
 20
3.7205303962
 11
1.9028867325
 21
3.707530397
  0
LINE
  5
248
100
AcDbEntity
  8
0
100
AcDbLine
 62
7
  6
CONTINUOUS
 10
1.9228016237
 20
3.7335303955
 11
1.9028867325
 21
3.7530303955
  0
LINE
  5
249
100
AcDbEntity
  8
0
100
AcDbLine
 62
7
  6
CONTINUOUS
 10
2.029014391
 20
3.8570304032
 11
2.0422909851
 21
3.8375303939
  0
LINE
  5
24A
100
AcDbEntity
  8
0
100
AcDbLine
 62
7
  6
CONTINUOUS
 10
2.0157377922
 20
4.1235304094
 11
2.029014391
 21
4.1040304094
  0
LINE
  5
24B
100
AcDbEntity
  8
0
100
AcDbLine
 62
7
  6
CONTINUOUS
 10
2.0688441775
 20
3.844030397
 11
2.0555675816
 21
3.8700303908
  0
LINE
  5
24C
100
AcDbEntity
  8
0
100
AcDbLine
 62
7
  6
CONTINUOUS
 10
1.7701207723
 20
4.5980304218
 11
1.7833973664
 21
4.5720303722
  0
LINE
  5
24D
100
AcDbEntity
  8
0
100
AcDbLine
 62
7
  6
CONTINUOUS
 10
2.0688441775
 20
4.1105303846
 11
2.0555675816
 21
4.136530397
  0
LINE
  5
24E
100
AcDbEntity
  8
0
100
AcDbLine
 62
7
  6
CONTINUOUS
 10
1.8085463048
 20
4.9974470657
 11
1.8042909862
 21
5.005780397
  0
LINE
  5
24F
100
AcDbEntity
  8
0
100
AcDbLine
 62
7
  6
CONTINUOUS
 10
1.7979080082
 20
4.9953637284
 11
1.8000356676
 21
4.9891137284
  0
LINE
  5
250
100
AcDbEntity
  8
0
100
AcDbLine
 62
7
  6
CONTINUOUS
 10
2.029014391
 20
4.7150304218
 11
2.0356526881
 21
4.6890303722
  0
LINE
  5
251
100
AcDbEntity
  8
0
100
AcDbLine
 62
7
  6
CONTINUOUS
 10
2.0754824752
 20
4.6890303722
 11
2.0688441775
 21
4.721530397
  0
LINE
  5
252
100
AcDbEntity
  8
0
100
AcDbLine
 62
7
  6
CONTINUOUS
 10
2.7588199835
 20
4.1622866754
 11
2.7559824752
 21
4.273030397
  0
LINE
  5
253
100
AcDbEntity
  8
0
100
AcDbLine
 62
7
  6
CONTINUOUS
 10
2.0555675816
 20
3.9935304032
 11
2.0688441775
 21
4.019530397
  0
LINE
  5
254
100
AcDbEntity
  8
0
100
AcDbLine
 62
7
  6
CONTINUOUS
 10
1.8962484354
 20
3.8375303939
 11
1.9095250296
 21
3.8570304032
  0
LINE
  5
255
100
AcDbEntity
  8
0
100
AcDbLine
 62
7
  6
CONTINUOUS
 10
2.029014391
 20
4.0260304094
 11
2.0157377922
 21
4.0065304094
  0
LINE
  5
256
100
AcDbEntity
  8
0
100
AcDbLine
 62
7
  6
CONTINUOUS
 10
1.8033122577
 20
4.4160303722
 11
1.8165888518
 21
4.429030397
  0
LINE
  5
257
100
AcDbEntity
  8
0
100
AcDbLine
 62
7
  6
CONTINUOUS
 10
2.029014391
 20
4.546030397
 11
2.0555675816
 21
4.5720303722
  0
LINE
  5
258
100
AcDbEntity
  8
0
100
AcDbLine
 62
7
  6
CONTINUOUS
 10
5.9927248099
 20
7.3558189527
 11
6.0133107993
 21
7.3680882306
  0
LINE
  5
259
100
AcDbEntity
  8
0
100
AcDbLine
 62
7
  6
CONTINUOUS
 10
2.0555675816
 20
3.8700303908
 11
2.0356526881
 21
3.8895303908
  0
LINE
  5
25A
100
AcDbEntity
  8
0
100
AcDbLine
 62
7
  6
CONTINUOUS
 10
2.0555675816
 20
4.136530397
 11
2.029014391
 21
4.1625304094
  0
LINE
  5
25B
100
AcDbEntity
  8
0
100
AcDbLine
 62
7
  6
CONTINUOUS
 10
1.9294399208
 20
4.4225304218
 11
1.9095250296
 21
4.448530397
  0
LINE
  5
25C
100
AcDbEntity
  8
0
100
AcDbLine
 62
7
  6
CONTINUOUS
 10
1.8232271489
 20
4.585030397
 11
1.8099505548
 21
4.604530397
  0
LINE
  5
25D
100
AcDbEntity
  8
0
100
AcDbLine
 62
7
  6
CONTINUOUS
 10
2.0157377922
 20
4.7345304218
 11
2.029014391
 21
4.7150304218
  0
LINE
  5
25E
100
AcDbEntity
  8
0
100
AcDbLine
 62
7
  6
CONTINUOUS
 10
2.0688441775
 20
4.721530397
 11
2.0555675816
 21
4.7475303722
  0
LINE
  5
25F
100
AcDbEntity
  8
0
100
AcDbLine
 62
7
  6
CONTINUOUS
 10
4.2223212988
 20
7.4012165732
 11
4.1608786113
 21
7.2408504828
  0
LINE
  5
260
100
AcDbEntity
  8
0
100
AcDbLine
 62
7
  6
CONTINUOUS
 10
4.1607828535
 20
7.1703840343
 11
4.2221917442
 21
7.329882672
  0
LINE
  5
261
100
AcDbEntity
  8
0
100
AcDbLine
 62
7
  6
CONTINUOUS
 10
2.0489292845
 20
3.7205303962
 11
2.0622058799
 21
3.7400303986
  0
LINE
  5
262
100
AcDbEntity
  8
0
100
AcDbLine
 62
7
  6
CONTINUOUS
 10
1.9028867325
 20
3.8895303908
 11
1.8829718412
 21
3.8700303908
  0
LINE
  5
263
100
AcDbEntity
  8
0
100
AcDbLine
 62
7
  6
CONTINUOUS
 10
2.029014391
 20
3.9675303908
 11
2.0555675816
 21
3.9935304032
  0
LINE
  5
264
100
AcDbEntity
  8
0
100
AcDbLine
 62
7
  6
CONTINUOUS
 10
1.8165888518
 20
4.468030397
 11
1.7900356635
 21
4.448530397
  0
LINE
  5
265
100
AcDbEntity
  8
0
100
AcDbLine
 62
7
  6
CONTINUOUS
 10
2.0157377922
 20
4.585030397
 11
1.9958229009
 21
4.5720303722
  0
LINE
  5
266
100
AcDbEntity
  8
0
100
AcDbLine
 62
7
  6
CONTINUOUS
 10
6.1754000999
 20
7.3552628515
 11
6.196587087
 21
7.3683559334
  0
LINE
  5
267
100
AcDbEntity
  8
0
100
AcDbLine
 62
7
  6
CONTINUOUS
 10
1.8574824752
 20
5.0161970657
 11
1.8085463048
 21
4.9974470657
  0
LINE
  5
268
100
AcDbEntity
  8
0
100
AcDbLine
 62
7
  6
CONTINUOUS
 10
1.8128016235
 20
4.9849470627
 11
1.8574824752
 21
5.0016137284
  0
LINE
  5
269
100
AcDbEntity
  8
0
100
AcDbLine
 62
7
  6
CONTINUOUS
 10
1.9028867325
 20
3.707530397
 11
1.9294399208
 21
3.6945303972
  0
LINE
  5
26A
100
AcDbEntity
  8
0
100
AcDbLine
 62
7
  6
CONTINUOUS
 10
1.9360782179
 20
3.727030397
 11
1.9228016237
 21
3.7335303955
  0
LINE
  5
26B
100
AcDbEntity
  8
0
100
AcDbLine
 62
7
  6
CONTINUOUS
 10
1.8763335442
 20
4.429030397
 11
1.8896101383
 21
4.4160303722
  0
LINE
  5
26C
100
AcDbEntity
  8
0
100
AcDbLine
 62
7
  6
CONTINUOUS
 10
1.7833973664
 20
4.5720303722
 11
1.8099505548
 21
4.546030397
  0
LINE
  5
26D
100
AcDbEntity
  8
0
100
AcDbLine
 62
7
  6
CONTINUOUS
 10
4.3444349789
 20
7.3965131771
 11
4.283595002
 21
7.2407603579
  0
LINE
  5
26E
100
AcDbEntity
  8
0
100
AcDbLine
 62
7
  6
CONTINUOUS
 10
4.283595002
 20
7.1703840343
 11
4.3738607765
 21
7.3965131771
  0
LINE
  5
26F
100
AcDbEntity
  8
0
100
AcDbLine
 62
7
  6
CONTINUOUS
 10
2.0356526881
 20
3.7530303955
 11
2.0157377922
 21
3.7335303955
  0
LINE
  5
270
100
AcDbEntity
  8
0
100
AcDbLine
 62
7
  6
CONTINUOUS
 10
2.0356526881
 20
3.707530397
 11
2.0489292845
 21
3.7205303962
  0
LINE
  5
271
100
AcDbEntity
  8
0
100
AcDbLine
 62
7
  6
CONTINUOUS
 10
2.002461198
 20
4.5330303722
 11
2.029014391
 21
4.546030397
  0
LINE
  5
272
100
AcDbEntity
  8
0
100
AcDbLine
 62
7
  6
CONTINUOUS
 10
1.7808867277
 20
5.0141137284
 11
1.7745037498
 21
5.012030397
  0
LINE
  5
273
100
AcDbEntity
  8
0
100
AcDbLine
 62
7
  6
CONTINUOUS
 10
1.7745037498
 20
4.999530397
 11
1.7808867277
 21
5.0016137284
  0
LINE
  5
274
100
AcDbEntity
  8
0
100
AcDbLine
 62
7
  6
CONTINUOUS
 10
1.8232271489
 20
4.7345304218
 11
1.8431420588
 21
4.741030397
  0
LINE
  5
275
100
AcDbEntity
  8
0
100
AcDbLine
 62
7
  6
CONTINUOUS
 10
2.029014391
 20
4.1625304094
 11
2.002461198
 21
4.175530397
  0
LINE
  5
276
100
AcDbEntity
  8
0
100
AcDbLine
 62
7
  6
CONTINUOUS
 10
1.9958229009
 20
4.136530397
 11
2.0157377922
 21
4.1235304094
  0
LINE
  5
277
100
AcDbEntity
  8
0
100
AcDbLine
 62
7
  6
CONTINUOUS
 10
1.8431420588
 20
4.5720303722
 11
1.8232271489
 21
4.585030397
  0
LINE
  5
278
100
AcDbEntity
  8
0
100
AcDbLine
 62
7
  6
CONTINUOUS
 10
1.9095250296
 20
4.448530397
 11
1.8829718412
 21
4.468030397
  0
LINE
  5
279
100
AcDbEntity
  8
0
100
AcDbLine
 62
7
  6
CONTINUOUS
 10
1.7936526896
 20
4.999530397
 11
1.7979080082
 21
4.9953637284
  0
LINE
  5
27A
100
AcDbEntity
  8
0
100
AcDbLine
 62
7
  6
CONTINUOUS
 10
2.0555675816
 20
4.7475303722
 11
2.029014391
 21
4.7735304218
  0
LINE
  5
27B
100
AcDbEntity
  8
0
100
AcDbLine
 62
7
  6
CONTINUOUS
 10
3.6374835727
 20
7.4266149119
 11
3.6374835727
 21
7.179030397
  0
LINE
  5
27C
100
AcDbEntity
  8
0
100
AcDbLine
 62
7
  6
CONTINUOUS
 10
3.6668699405
 20
7.179030397
 11
3.6668699405
 21
7.3551458232
  0
LINE
  5
27D
100
AcDbEntity
  8
0
100
AcDbLine
 62
7
  6
CONTINUOUS
 10
3.8146016389
 20
7.4153154957
 11
3.8146016389
 21
7.2407603579
  0
LINE
  5
27E
100
AcDbEntity
  8
0
100
AcDbLine
 62
7
  6
CONTINUOUS
 10
3.8439936396
 20
7.1693025348
 11
3.8439936396
 21
7.4153154957
  0
LINE
  5
27F
100
AcDbEntity
  8
0
100
AcDbLine
 62
7
  6
CONTINUOUS
 10
2.0157377922
 20
4.0065304094
 11
1.9958229009
 21
3.9935304032
  0
LINE
  5
280
100
AcDbEntity
  8
0
100
AcDbLine
 62
7
  6
CONTINUOUS
 10
1.8365037431
 20
4.4745303722
 11
1.8165888518
 21
4.468030397
  0
LINE
  5
281
100
AcDbEntity
  8
0
100
AcDbLine
 62
7
  6
CONTINUOUS
 10
1.8165888518
 20
4.429030397
 11
1.8365037431
 21
4.4355303722
  0
LINE
  5
282
100
AcDbEntity
  8
0
100
AcDbLine
 62
7
  6
CONTINUOUS
 10
1.9294399208
 20
3.6945303972
 11
1.9692697126
 21
3.688030397
  0
LINE
  5
283
100
AcDbEntity
  8
0
100
AcDbLine
 62
7
  6
CONTINUOUS
 10
1.9626314155
 20
3.7205303962
 11
1.9360782179
 21
3.727030397
  0
LINE
  5
284
100
AcDbEntity
  8
0
100
AcDbLine
 62
7
  6
CONTINUOUS
 10
2.0356526881
 20
3.8895303908
 11
2.0090994951
 21
3.8960304032
  0
LINE
  5
285
100
AcDbEntity
  8
0
100
AcDbLine
 62
7
  6
CONTINUOUS
 10
2.0090994951
 20
3.863530397
 11
2.029014391
 21
3.8570304032
  0
LINE
  5
286
100
AcDbEntity
  8
0
100
AcDbLine
 62
7
  6
CONTINUOUS
 10
1.8099505548
 20
4.546030397
 11
1.8365037431
 21
4.5330303722
  0
LINE
  5
287
100
AcDbEntity
  8
0
100
AcDbLine
 62
7
  6
CONTINUOUS
 10
1.8042909862
 20
5.005780397
 11
1.7957803489
 21
5.012030397
  0
LINE
  5
288
100
AcDbEntity
  8
0
100
AcDbLine
 62
7
  6
CONTINUOUS
 10
3.9157162047
 20
7.3965131771
 11
3.9157162047
 21
7.179030397
  0
LINE
  5
289
100
AcDbEntity
  8
0
100
AcDbLine
 62
7
  6
CONTINUOUS
 10
3.9427649565
 20
7.2037021033
 11
3.9427649565
 21
7.285997452
  0
LINE
  5
28A
100
AcDbEntity
  8
0
100
AcDbLine
 62
7
  6
CONTINUOUS
 10
3.9427649565
 20
7.3106916895
 11
3.9427649565
 21
7.3718302053
  0
LINE
  5
28B
100
AcDbEntity
  8
0
100
AcDbLine
 62
7
  6
CONTINUOUS
 10
4.0298538263
 20
7.285997452
 11
4.0298538263
 21
7.3106916895
  0
LINE
  5
28C
100
AcDbEntity
  8
0
100
AcDbLine
 62
7
  6
CONTINUOUS
 10
4.0324561844
 20
7.179030397
 11
4.0324561844
 21
7.2037021033
  0
LINE
  5
28D
100
AcDbEntity
  8
0
100
AcDbLine
 62
7
  6
CONTINUOUS
 10
4.0324561844
 20
7.3718302053
 11
4.0324561844
 21
7.3965131771
  0
LINE
  5
28E
100
AcDbEntity
  8
0
100
AcDbLine
 62
7
  6
CONTINUOUS
 10
2.002461198
 20
3.9545304032
 11
2.029014391
 21
3.9675303908
  0
LINE
  5
28F
100
AcDbEntity
  8
0
100
AcDbLine
 62
7
  6
CONTINUOUS
 10
2.0090994951
 20
3.6945303972
 11
2.0356526881
 21
3.707530397
  0
LINE
  5
290
100
AcDbEntity
  8
0
100
AcDbLine
 62
7
  6
CONTINUOUS
 10
1.9692697126
 20
4.1430304094
 11
1.9958229009
 21
4.136530397
  0
LINE
  5
291
100
AcDbEntity
  8
0
100
AcDbLine
 62
7
  6
CONTINUOUS
 10
1.8564186529
 20
4.4355303722
 11
1.8763335442
 21
4.429030397
  0
LINE
  5
292
100
AcDbEntity
  8
0
100
AcDbLine
 62
7
  6
CONTINUOUS
 10
1.8829718412
 20
4.468030397
 11
1.86305695
 21
4.4745303722
  0
LINE
  5
293
100
AcDbEntity
  8
0
100
AcDbLine
 62
7
  6
CONTINUOUS
 10
4.4197505343
 20
7.3961325062
 11
4.4197505343
 21
7.179030397
  0
LINE
  5
294
100
AcDbEntity
  8
0
100
AcDbLine
 62
7
  6
CONTINUOUS
 10
4.4464817105
 20
7.2942932269
 11
4.4464817105
 21
7.3721728869
  0
LINE
  5
295
100
AcDbEntity
  8
0
100
AcDbLine
 62
7
  6
CONTINUOUS
 10
4.4471350061
 20
7.179030397
 11
4.4471350061
 21
7.2696503444
  0
LINE
  5
296
100
AcDbEntity
  8
0
100
AcDbLine
 62
7
  6
CONTINUOUS
 10
5.7055076698
 20
7.258182638
 11
5.7441374783
 21
7.3461558589
  0
LINE
  5
297
100
AcDbEntity
  8
0
100
AcDbLine
 62
7
  6
CONTINUOUS
 10
5.6694351569
 20
7.179030397
 11
5.6942420506
 21
7.2334884007
  0
LINE
  5
298
100
AcDbEntity
  8
0
100
AcDbLine
 62
7
  6
CONTINUOUS
 10
5.7441374783
 20
7.405570735
 11
5.6403247967
 21
7.179030397
  0
LINE
  5
299
100
AcDbEntity
  8
0
100
AcDbLine
 62
7
  6
CONTINUOUS
 10
2.0157377922
 20
3.7335303955
 11
1.9825463068
 21
3.7205303962
  0
LINE
  5
29A
100
AcDbEntity
  8
0
100
AcDbLine
 62
7
  6
CONTINUOUS
 10
1.9095250296
 20
3.8570304032
 11
1.9294399208
 21
3.863530397
  0
LINE
  5
29B
100
AcDbEntity
  8
0
100
AcDbLine
 62
7
  6
CONTINUOUS
 10
1.9825463068
 20
3.7205303962
 11
1.9626314155
 21
3.7205303962
  0
LINE
  5
29C
100
AcDbEntity
  8
0
100
AcDbLine
 62
7
  6
CONTINUOUS
 10
1.7634824752
 20
3.9480303908
 11
1.9692697126
 21
3.9480303908
  0
LINE
  5
29D
100
AcDbEntity
  8
0
100
AcDbLine
 62
7
  6
CONTINUOUS
 10
2.002461198
 20
4.175530397
 11
1.9692697126
 21
4.1820304094
  0
LINE
  5
29E
100
AcDbEntity
  8
0
100
AcDbLine
 62
7
  6
CONTINUOUS
 10
1.8365037431
 20
4.5330303722
 11
1.8696952471
 21
4.526530397
  0
LINE
  5
29F
100
AcDbEntity
  8
0
100
AcDbLine
 62
7
  6
CONTINUOUS
 10
1.8696952471
 20
4.565530397
 11
1.8431420588
 21
4.5720303722
  0
LINE
  5
2A0
100
AcDbEntity
  8
0
100
AcDbLine
 62
7
  6
CONTINUOUS
 10
1.9958229009
 20
4.741030397
 11
2.0157377922
 21
4.7345304218
  0
LINE
  5
2A1
100
AcDbEntity
  8
0
100
AcDbLine
 62
7
  6
CONTINUOUS
 10
4.6937340859
 20
1.904168136
 11
4.6937340859
 21
1.9059220212
  0
LINE
  5
2A2
100
AcDbEntity
  8
0
100
AcDbLine
 62
7
  6
CONTINUOUS
 10
4.6937340859
 20
6.6401387729
 11
4.6937340859
 21
6.641892658
  0
LINE
  5
2A3
100
AcDbEntity
  8
0
100
AcDbLine
 62
7
  6
CONTINUOUS
 10
4.8842496576
 20
7.3964793803
 11
4.8842496576
 21
7.179030397
  0
LINE
  5
2A4
100
AcDbEntity
  8
0
100
AcDbLine
 62
7
  6
CONTINUOUS
 10
4.9112871439
 20
7.179030397
 11
4.9112871439
 21
7.2711099361
  0
LINE
  5
2A5
100
AcDbEntity
  8
0
100
AcDbLine
 62
7
  6
CONTINUOUS
 10
4.9112871439
 20
7.2932745555
 11
4.9112871439
 21
7.372252666
  0
LINE
  5
2A6
100
AcDbEntity
  8
0
100
AcDbLine
 62
7
  6
CONTINUOUS
 10
3.7287324752
 20
2.2123229487
 11
3.6662324752
 21
2.1040697732
  0
LINE
  5
2A7
100
AcDbEntity
  8
0
100
AcDbLine
 62
7
  6
CONTINUOUS
 10
6.1082324752
 20
6.3337378453
 11
6.1707324752
 21
6.4419910208
  0
LINE
  5
2A8
100
AcDbEntity
  8
0
100
AcDbLine
 62
7
  6
CONTINUOUS
 10
7.087443099
 20
5.525280397
 11
6.9791899235
 21
5.462780397
  0
LINE
  5
2A9
100
AcDbEntity
  8
0
100
AcDbLine
 62
7
  6
CONTINUOUS
 10
2.7495218514
 20
3.020780397
 11
2.8577750269
 21
3.083280397
  0
LINE
  5
2AA
100
AcDbEntity
  8
0
100
AcDbLine
 62
7
  6
CONTINUOUS
 10
1.9692697126
 20
3.688030397
 11
2.0090994951
 21
3.6945303972
  0
LINE
  5
2AB
100
AcDbEntity
  8
0
100
AcDbLine
 62
7
  6
CONTINUOUS
 10
1.9692697126
 20
3.9870303908
 11
1.7634824752
 21
3.9870303908
  0
LINE
  5
2AC
100
AcDbEntity
  8
0
100
AcDbLine
 62
7
  6
CONTINUOUS
 10
7.2873447362
 20
4.0482820077
 11
7.285590851
 21
4.0482820077
  0
LINE
  5
2AD
100
AcDbEntity
  8
0
100
AcDbLine
 62
7
  6
CONTINUOUS
 10
2.5513740993
 20
4.0482820077
 11
2.5496202142
 21
4.0482820077
  0
LINE
  5
2AE
100
AcDbEntity
  8
0
100
AcDbLine
 62
7
  6
CONTINUOUS
 10
1.7634824752
 20
4.1430304094
 11
1.9692697126
 21
4.1430304094
  0
LINE
  5
2AF
100
AcDbEntity
  8
0
100
AcDbLine
 62
7
  6
CONTINUOUS
 10
1.9692697126
 20
4.1820304094
 11
1.7634824752
 21
4.1820304094
  0
LINE
  5
2B0
100
AcDbEntity
  8
0
100
AcDbLine
 62
7
  6
CONTINUOUS
 10
1.7634824752
 20
4.234030397
 11
2.0754824752
 21
4.234030397
  0
LINE
  5
2B1
100
AcDbEntity
  8
0
100
AcDbLine
 62
7
  6
CONTINUOUS
 10
2.0754824752
 20
4.273030397
 11
1.9360782179
 21
4.273030397
  0
LINE
  5
2B2
100
AcDbEntity
  8
0
100
AcDbLine
 62
7
  6
CONTINUOUS
 10
1.8962484354
 20
4.273030397
 11
1.7966739606
 21
4.273030397
  0
LINE
  5
2B3
100
AcDbEntity
  8
0
100
AcDbLine
 62
7
  6
CONTINUOUS
 10
2.029014391
 20
4.7735304218
 11
1.9958229009
 21
4.780030397
  0
LINE
  5
2B4
100
AcDbEntity
  8
0
100
AcDbLine
 62
7
  6
CONTINUOUS
 10
1.7872697116
 20
5.0016137284
 11
1.7936526896
 21
4.999530397
  0
LINE
  5
2B5
100
AcDbEntity
  8
0
100
AcDbLine
 62
7
  6
CONTINUOUS
 10
1.7957803489
 20
5.012030397
 11
1.789397371
 21
5.0141137284
  0
LINE
  5
2B6
100
AcDbEntity
  8
0
100
AcDbLine
 62
7
  6
CONTINUOUS
 10
2.8577750269
 20
5.462780397
 11
2.7495218514
 21
5.525280397
  0
LINE
  5
2B7
100
AcDbEntity
  8
0
100
AcDbLine
 62
7
  6
CONTINUOUS
 10
6.9791899235
 20
3.083280397
 11
7.087443099
 21
3.020780397
  0
LINE
  5
2B8
100
AcDbEntity
  8
0
100
AcDbLine
 62
7
  6
CONTINUOUS
 10
3.6662324752
 20
6.4419910208
 11
3.7287324752
 21
6.3337378453
  0
LINE
  5
2B9
100
AcDbEntity
  8
0
100
AcDbLine
 62
7
  6
CONTINUOUS
 10
6.1707324752
 20
2.1040697732
 11
6.1082324752
 21
2.2123229487
  0
LINE
  5
2BA
100
AcDbEntity
  8
0
100
AcDbLine
 62
7
  6
CONTINUOUS
 10
5.0437257641
 20
7.3965131771
 11
5.0437257641
 21
7.3718302053
  0
LINE
  5
2BB
100
AcDbEntity
  8
0
100
AcDbLine
 62
7
  6
CONTINUOUS
 10
5.0953560972
 20
7.3718302053
 11
5.0953560972
 21
7.179030397
  0
LINE
  5
2BC
100
AcDbEntity
  8
0
100
AcDbLine
 62
7
  6
CONTINUOUS
 10
5.1223992163
 20
7.179030397
 11
5.1223992163
 21
7.3718302053
  0
LINE
  5
2BD
100
AcDbEntity
  8
0
100
AcDbLine
 62
7
  6
CONTINUOUS
 10
5.1432308645
 20
6.641892658
 11
5.1432308645
 21
6.6401387729
  0
LINE
  5
2BE
100
AcDbEntity
  8
0
100
AcDbLine
 62
7
  6
CONTINUOUS
 10
5.1432308645
 20
1.9059220212
 11
5.1432308645
 21
1.904168136
  0
LINE
  5
2BF
100
AcDbEntity
  8
0
100
AcDbLine
 62
7
  6
CONTINUOUS
 10
5.1740295494
 20
7.3718302053
 11
5.1740295494
 21
7.3965131771
  0
LINE
  5
2C0
100
AcDbEntity
  8
0
100
AcDbLine
 62
7
  6
CONTINUOUS
 10
5.2780957074
 20
7.4153154957
 11
5.2780957074
 21
7.179030397
  0
LINE
  5
2C1
100
AcDbEntity
  8
0
100
AcDbLine
 62
7
  6
CONTINUOUS
 10
5.3074933409
 20
7.2052736572
 11
5.3074933409
 21
7.287180342
  0
LINE
  5
2C2
100
AcDbEntity
  8
0
100
AcDbLine
 62
7
  6
CONTINUOUS
 10
5.3074933409
 20
7.3105952858
 11
5.3074933409
 21
7.3890609699
  0
LINE
  5
2C3
100
AcDbEntity
  8
0
100
AcDbLine
 62
7
  6
CONTINUOUS
 10
1.9294399208
 20
3.8960304032
 11
1.9028867325
 21
3.8895303908
  0
LINE
  5
2C4
100
AcDbEntity
  8
0
100
AcDbLine
 62
7
  6
CONTINUOUS
 10
1.9692697126
 20
3.9480303908
 11
2.002461198
 21
3.9545304032
  0
LINE
  5
2C5
100
AcDbEntity
  8
0
100
AcDbLine
 62
7
  6
CONTINUOUS
 10
1.8365037431
 20
4.4355303722
 11
1.8564186529
 21
4.4355303722
  0
LINE
  5
2C6
100
AcDbEntity
  8
0
100
AcDbLine
 62
7
  6
CONTINUOUS
 10
1.86305695
 20
4.4745303722
 11
1.8365037431
 21
4.4745303722
  0
LINE
  5
2C7
100
AcDbEntity
  8
0
100
AcDbLine
 62
7
  6
CONTINUOUS
 10
2.5496202142
 20
4.4977787864
 11
2.5513740993
 21
4.4977787864
  0
LINE
  5
2C8
100
AcDbEntity
  8
0
100
AcDbLine
 62
7
  6
CONTINUOUS
 10
7.285590851
 20
4.4977787864
 11
7.2873447362
 21
4.4977787864
  0
LINE
  5
2C9
100
AcDbEntity
  8
0
100
AcDbLine
 62
7
  6
CONTINUOUS
 10
1.8696952471
 20
4.526530397
 11
1.9692697126
 21
4.526530397
  0
LINE
  5
2CA
100
AcDbEntity
  8
0
100
AcDbLine
 62
7
  6
CONTINUOUS
 10
1.9692697126
 20
4.565530397
 11
1.8696952471
 21
4.565530397
  0
LINE
  5
2CB
100
AcDbEntity
  8
0
100
AcDbLine
 62
7
  6
CONTINUOUS
 10
4.0705396103
 20
7.3965131771
 11
4.1607828535
 21
7.1703840343
  0
LINE
  5
2CC
100
AcDbEntity
  8
0
100
AcDbLine
 62
7
  6
CONTINUOUS
 10
4.1608786113
 20
7.2408504828
 11
4.0999428766
 21
7.3965131771
  0
LINE
  5
2CD
100
AcDbEntity
  8
0
100
AcDbLine
 62
7
  6
CONTINUOUS
 10
5.4779703246
 20
7.3964793802
 11
5.4779703246
 21
7.179030397
  0
LINE
  5
2CE
100
AcDbEntity
  8
0
100
AcDbLine
 62
7
  6
CONTINUOUS
 10
5.5049909124
 20
7.179030397
 11
5.5049909124
 21
7.2711099361
  0
LINE
  5
2CF
100
AcDbEntity
  8
0
100
AcDbLine
 62
7
  6
CONTINUOUS
 10
5.5049909124
 20
7.2932745839
 11
5.5049909124
 21
7.372252666
  0
LINE
  5
2D0
100
AcDbEntity
  8
0
100
AcDbLine
 62
7
  6
CONTINUOUS
 10
1.9958229009
 20
3.9935304032
 11
1.9692697126
 21
3.9870303908
  0
LINE
  5
2D1
100
AcDbEntity
  8
0
100
AcDbLine
 62
7
  6
CONTINUOUS
 10
1.7574824752
 20
4.937030397
 11
1.8574824752
 21
4.937030397
  0
LINE
  5
2D2
100
AcDbEntity
  8
0
100
AcDbLine
 62
7
  6
CONTINUOUS
 10
1.8574824752
 20
4.949530397
 11
1.8128016235
 21
4.949530397
  0
LINE
  5
2D3
100
AcDbEntity
  8
0
100
AcDbLine
 62
7
  6
CONTINUOUS
 10
1.8000356676
 20
4.949530397
 11
1.7681207718
 21
4.949530397
  0
LINE
  5
2D4
100
AcDbEntity
  8
0
100
AcDbLine
 62
7
  6
CONTINUOUS
 10
1.7808867277
 20
5.0016137284
 11
1.7872697116
 21
5.0016137284
  0
LINE
  5
2D5
100
AcDbEntity
  8
0
100
AcDbLine
 62
7
  6
CONTINUOUS
 10
1.789397371
 20
5.0141137284
 11
1.7808867277
 21
5.0141137284
  0
LINE
  5
2D6
100
AcDbEntity
  8
0
100
AcDbLine
 62
7
  6
CONTINUOUS
 10
4.2221917442
 20
7.329882672
 11
4.283595002
 21
7.1703840343
  0
LINE
  5
2D7
100
AcDbEntity
  8
0
100
AcDbLine
 62
7
  6
CONTINUOUS
 10
4.283595002
 20
7.2407603579
 11
4.2223212988
 21
7.4012165732
  0
LINE
  5
2D8
100
AcDbEntity
  8
0
100
AcDbLine
 62
7
  6
CONTINUOUS
 10
1.9958229009
 20
4.5720303722
 11
1.9692697126
 21
4.565530397
  0
LINE
  5
2D9
100
AcDbEntity
  8
0
100
AcDbLine
 62
7
  6
CONTINUOUS
 10
1.9692697126
 20
4.526530397
 11
2.002461198
 21
4.5330303722
  0
LINE
  5
2DA
100
AcDbEntity
  8
0
100
AcDbLine
 62
7
  6
CONTINUOUS
 10
1.8431420588
 20
4.780030397
 11
1.8099505548
 21
4.7735304218
  0
LINE
  5
2DB
100
AcDbEntity
  8
0
100
AcDbLine
 62
7
  6
CONTINUOUS
 10
6.2354824752
 20
7.203780397
 11
6.2354824752
 21
7.183530397
  0
LINE
  5
2DC
100
AcDbEntity
  8
0
100
AcDbLine
 62
7
  6
CONTINUOUS
 10
6.2377324752
 20
7.183530397
 11
6.2377324752
 21
7.192530397
  0
LINE
  5
2DD
100
AcDbEntity
  8
0
100
AcDbLine
 62
7
  6
CONTINUOUS
 10
6.2377324752
 20
7.194030397
 11
6.2377324752
 21
7.201530397
  0
LINE
  5
2DE
100
AcDbEntity
  8
0
100
AcDbLine
 62
7
  6
CONTINUOUS
 10
3.6668699405
 20
7.3551458232
 11
3.8439936396
 21
7.1693025348
  0
LINE
  5
2DF
100
AcDbEntity
  8
0
100
AcDbLine
 62
7
  6
CONTINUOUS
 10
3.8146016389
 20
7.2407603579
 11
3.6374835727
 21
7.4266149119
  0
LINE
  5
2E0
100
AcDbEntity
  8
0
100
AcDbLine
 62
7
  6
CONTINUOUS
 10
5.0193920264
 20
7.179030397
 11
4.9506034848
 21
7.2739206653
  0
LINE
  5
2E1
100
AcDbEntity
  8
0
100
AcDbLine
 62
7
  6
CONTINUOUS
 10
4.9225302319
 20
7.2711099361
 11
4.9864907853
 21
7.179030397
  0
LINE
  5
2E2
100
AcDbEntity
  8
0
100
AcDbLine
 62
7
  6
CONTINUOUS
 10
5.8479952224
 20
7.179030397
 11
5.7441374783
 21
7.405570735
  0
LINE
  5
2E3
100
AcDbEntity
  8
0
100
AcDbLine
 62
7
  6
CONTINUOUS
 10
5.7940667029
 20
7.2334884007
 11
5.818862331
 21
7.179030397
  0
LINE
  5
2E4
100
AcDbEntity
  8
0
100
AcDbLine
 62
7
  6
CONTINUOUS
 10
5.7441374783
 20
7.3461558589
 11
5.7828010837
 21
7.258182638
  0
LINE
  5
2E5
100
AcDbEntity
  8
0
100
AcDbLine
 62
7
  6
CONTINUOUS
 10
5.6131183262
 20
7.179030397
 11
5.5443241428
 21
7.273920667
  0
LINE
  5
2E6
100
AcDbEntity
  8
0
100
AcDbLine
 62
7
  6
CONTINUOUS
 10
5.5162340004
 20
7.2711099361
 11
5.5802114523
 21
7.179030397
  0
LINE
  5
2E7
100
AcDbEntity
  8
0
100
AcDbLine
 62
7
  6
CONTINUOUS
 10
5.9112921855
 20
7.241280397
 11
5.8833641462
 21
7.235280397
  0
LINE
  5
2E8
100
AcDbEntity
  8
0
100
AcDbLine
 62
7
  6
CONTINUOUS
 10
6.0947276767
 20
7.2410260458
 11
6.0673512327
 21
7.2351936729
  0
LINE
  5
2E9
100
AcDbEntity
  8
0
100
AcDbLine
 62
7
  6
CONTINUOUS
 10
4.9184899117
 20
7.3724790709
 11
4.9112871439
 21
7.372252666
  0
LINE
  5
2EA
100
AcDbEntity
  8
0
100
AcDbLine
 62
7
  6
CONTINUOUS
 10
5.5191099445
 20
7.2935233366
 11
5.5049909124
 21
7.2932745839
  0
LINE
  5
2EB
100
AcDbEntity
  8
0
100
AcDbLine
 62
7
  6
CONTINUOUS
 10
5.2780957074
 20
7.179030397
 11
5.3340119153
 21
7.1790320766
  0
LINE
  5
2EC
100
AcDbEntity
  8
0
100
AcDbLine
 62
7
  6
CONTINUOUS
 10
3.6374835727
 20
7.179030397
 11
3.6668699405
 21
7.179030397
  0
LINE
  5
2ED
100
AcDbEntity
  8
0
100
AcDbLine
 62
7
  6
CONTINUOUS
 10
3.9157162047
 20
7.179030397
 11
4.0324561844
 21
7.179030397
  0
LINE
  5
2EE
100
AcDbEntity
  8
0
100
AcDbLine
 62
7
  6
CONTINUOUS
 10
4.4197505343
 20
7.179030397
 11
4.4471350061
 21
7.179030397
  0
LINE
  5
2EF
100
AcDbEntity
  8
0
100
AcDbLine
 62
7
  6
CONTINUOUS
 10
4.8842496576
 20
7.179030397
 11
4.9112871439
 21
7.179030397
  0
LINE
  5
2F0
100
AcDbEntity
  8
0
100
AcDbLine
 62
7
  6
CONTINUOUS
 10
4.9864907853
 20
7.179030397
 11
5.0193920264
 21
7.179030397
  0
LINE
  5
2F1
100
AcDbEntity
  8
0
100
AcDbLine
 62
7
  6
CONTINUOUS
 10
5.0953560972
 20
7.179030397
 11
5.1223992163
 21
7.179030397
  0
LINE
  5
2F2
100
AcDbEntity
  8
0
100
AcDbLine
 62
7
  6
CONTINUOUS
 10
5.4779703246
 20
7.179030397
 11
5.5049909124
 21
7.179030397
  0
LINE
  5
2F3
100
AcDbEntity
  8
0
100
AcDbLine
 62
7
  6
CONTINUOUS
 10
5.5802114523
 20
7.179030397
 11
5.6131183262
 21
7.179030397
  0
LINE
  5
2F4
100
AcDbEntity
  8
0
100
AcDbLine
 62
7
  6
CONTINUOUS
 10
5.6403247967
 20
7.179030397
 11
5.6694351569
 21
7.179030397
  0
LINE
  5
2F5
100
AcDbEntity
  8
0
100
AcDbLine
 62
7
  6
CONTINUOUS
 10
5.818862331
 20
7.179030397
 11
5.8479952224
 21
7.179030397
  0
LINE
  5
2F6
100
AcDbEntity
  8
0
100
AcDbLine
 62
7
  6
CONTINUOUS
 10
6.2354824752
 20
7.183530397
 11
6.2377324752
 21
7.183530397
  0
LINE
  5
2F7
100
AcDbEntity
  8
0
100
AcDbLine
 62
7
  6
CONTINUOUS
 10
6.2482324752
 20
7.183530397
 11
6.2512324752
 21
7.183530397
  0
LINE
  5
2F8
100
AcDbEntity
  8
0
100
AcDbLine
 62
7
  6
CONTINUOUS
 10
6.2377324752
 20
7.201530397
 11
6.2422324752
 21
7.201530397
  0
LINE
  5
2F9
100
AcDbEntity
  8
0
100
AcDbLine
 62
7
  6
CONTINUOUS
 10
4.0324561844
 20
7.2037021033
 11
3.9427649565
 21
7.2037021033
  0
LINE
  5
2FA
100
AcDbEntity
  8
0
100
AcDbLine
 62
7
  6
CONTINUOUS
 10
6.2429824752
 20
7.203780397
 11
6.2354824752
 21
7.203780397
  0
LINE
  5
2FB
100
AcDbEntity
  8
0
100
AcDbLine
 62
7
  6
CONTINUOUS
 10
5.3331403309
 20
7.2052736572
 11
5.3074933409
 21
7.2052736572
  0
LINE
  5
2FC
100
AcDbEntity
  8
0
100
AcDbLine
 62
7
  6
CONTINUOUS
 10
5.6942420506
 20
7.2334884007
 11
5.7940667029
 21
7.2334884007
  0
LINE
  5
2FD
100
AcDbEntity
  8
0
100
AcDbLine
 62
7
  6
CONTINUOUS
 10
5.7828010837
 20
7.258182638
 11
5.7055076698
 21
7.258182638
  0
LINE
  5
2FE
100
AcDbEntity
  8
0
100
AcDbLine
 62
7
  6
CONTINUOUS
 10
4.4471350061
 20
7.2696503444
 11
4.4644312649
 21
7.2696503444
  0
LINE
  5
2FF
100
AcDbEntity
  8
0
100
AcDbLine
 62
7
  6
CONTINUOUS
 10
4.9112871439
 20
7.2711099361
 11
4.9225302319
 21
7.2711099361
  0
LINE
  5
300
100
AcDbEntity
  8
0
100
AcDbLine
 62
7
  6
CONTINUOUS
 10
5.5049909124
 20
7.2711099361
 11
5.5162340004
 21
7.2711099361
  0
LINE
  5
301
100
AcDbEntity
  8
0
100
AcDbLine
 62
7
  6
CONTINUOUS
 10
3.9427649565
 20
7.285997452
 11
4.0298538263
 21
7.285997452
  0
LINE
  5
302
100
AcDbEntity
  8
0
100
AcDbLine
 62
7
  6
CONTINUOUS
 10
5.3074933409
 20
7.287180342
 11
5.3292771278
 21
7.287180342
  0
LINE
  5
303
100
AcDbEntity
  8
0
100
AcDbLine
 62
7
  6
CONTINUOUS
 10
4.4598154148
 20
7.2942932269
 11
4.4464817105
 21
7.2942932269
  0
LINE
  5
304
100
AcDbEntity
  8
0
100
AcDbLine
 62
7
  6
CONTINUOUS
 10
5.3106844514
 20
7.3105952858
 11
5.3074933409
 21
7.3105952858
  0
LINE
  5
305
100
AcDbEntity
  8
0
100
AcDbLine
 62
7
  6
CONTINUOUS
 10
4.0298538263
 20
7.3106916895
 11
3.9427649565
 21
7.3106916895
  0
LINE
  5
306
100
AcDbEntity
  8
0
100
AcDbLine
 62
7
  6
CONTINUOUS
 10
3.9427649565
 20
7.3718302053
 11
4.0324561844
 21
7.3718302053
  0
LINE
  5
307
100
AcDbEntity
  8
0
100
AcDbLine
 62
7
  6
CONTINUOUS
 10
5.0437257641
 20
7.3718302053
 11
5.0953560972
 21
7.3718302053
  0
LINE
  5
308
100
AcDbEntity
  8
0
100
AcDbLine
 62
7
  6
CONTINUOUS
 10
5.1223992163
 20
7.3718302053
 11
5.1740295494
 21
7.3718302053
  0
LINE
  5
309
100
AcDbEntity
  8
0
100
AcDbLine
 62
7
  6
CONTINUOUS
 10
4.4464817105
 20
7.3721728869
 11
4.4598154148
 21
7.3721728869
  0
LINE
  5
30A
100
AcDbEntity
  8
0
100
AcDbLine
 62
7
  6
CONTINUOUS
 10
5.3074933409
 20
7.3890609699
 11
5.3221112006
 21
7.3890609699
  0
LINE
  5
30B
100
AcDbEntity
  8
0
100
AcDbLine
 62
7
  6
CONTINUOUS
 10
4.461069617
 20
7.3961325062
 11
4.4197505343
 21
7.3961325062
  0
LINE
  5
30C
100
AcDbEntity
  8
0
100
AcDbLine
 62
7
  6
CONTINUOUS
 10
5.1740295494
 20
7.3965131771
 11
5.0437257641
 21
7.3965131771
  0
LINE
  5
30D
100
AcDbEntity
  8
0
100
AcDbLine
 62
7
  6
CONTINUOUS
 10
4.3738607765
 20
7.3965131771
 11
4.3444349789
 21
7.3965131771
  0
LINE
  5
30E
100
AcDbEntity
  8
0
100
AcDbLine
 62
7
  6
CONTINUOUS
 10
4.0999428766
 20
7.3965131771
 11
4.0705396103
 21
7.3965131771
  0
LINE
  5
30F
100
AcDbEntity
  8
0
100
AcDbLine
 62
7
  6
CONTINUOUS
 10
4.0324561844
 20
7.3965131771
 11
3.9157162047
 21
7.3965131771
  0
LINE
  5
310
100
AcDbEntity
  8
0
100
AcDbLine
 62
7
  6
CONTINUOUS
 10
5.306868107
 20
7.4153154957
 11
5.2780957074
 21
7.4153154957
  0
LINE
  5
311
100
AcDbEntity
  8
0
100
AcDbLine
 62
7
  6
CONTINUOUS
 10
3.8439936396
 20
7.4153154957
 11
3.8146016389
 21
7.4153154957
  0
LINE
  5
312
100
AcDbEntity
  8
0
100
AcDbLine
 62
7
  6
CONTINUOUS
 10
4.919387718
 20
7.3964773558
 11
4.8842496576
 21
7.3964793803
  0
LINE
  5
313
100
AcDbEntity
  8
0
100
AcDbLine
 62
7
  6
CONTINUOUS
 10
5.5131398249
 20
7.3964773104
 11
5.4779703246
 21
7.3964793802
  0
LINE
  5
314
100
AcDbEntity
  8
0
100
AcDbLine
 62
7
  6
CONTINUOUS
 10
5.5049909124
 20
7.372252666
 11
5.5139312661
 21
7.3722456609
  0
LINE
  5
315
100
AcDbEntity
  8
0
100
AcDbLine
 62
7
  6
CONTINUOUS
 10
5.9816234775
 20
7.3000529167
 11
5.9399975757
 21
7.317780397
  0
LINE
  5
316
100
AcDbEntity
  8
0
100
AcDbLine
 62
7
  6
CONTINUOUS
 10
5.9735270884
 20
7.3731774118
 11
5.9777418815
 21
7.3710507939
  0
CIRCLE
  5
317
100
AcDbEntity
  8
0
100
AcDbCircle
 62
7
  6
CONTINUOUS
 10
2.2121530884
 20
2.710530397
 40
0.25
  0
CIRCLE
  5
318
100
AcDbEntity
  8
0
100
AcDbCircle
 62
7
  6
CONTINUOUS
 10
4.1466840827
 20
1.392639583
 40
0.25
  0
ARC
  5
319
100
AcDbEntity
  8
0
100
AcDbCircle
 62
7
  6
CONTINUOUS
 10
2.5389824752
 20
4.273030397
 40
0.225
100
AcDbArc
 50
87.2901117985
 51
272.7098882015
  0
ARC
  5
31A
100
AcDbEntity
  8
0
100
AcDbCircle
 62
7
  6
CONTINUOUS
 10
4.4009568881
 20
6.4085259481
 40
0.9244561161
100
AcDbArc
 50
68.9668240594
 51
71.1899024122
  0
ARC
  5
31B
100
AcDbEntity
  8
0
100
AcDbCircle
 62
7
  6
CONTINUOUS
 10
4.7362253758
 20
6.8068595137
 40
0.5336208475
100
AcDbArc
 50
102.0442877432
 51
105.5316275795
  0
ARC
  5
31C
100
AcDbEntity
  8
0
100
AcDbCircle
 62
7
  6
CONTINUOUS
 10
4.6795772388
 20
7.0094110977
 40
0.3097689062
100
AcDbArc
 50
100.7159943365
 51
110.3666304508
  0
ARC
  5
31D
100
AcDbEntity
  8
0
100
AcDbCircle
 62
7
  6
CONTINUOUS
 10
4.661905608
 20
7.0229018223
 40
0.2583885582
100
AcDbArc
 50
68.8482118455
 51
74.086517701
  0
CIRCLE
  5
31E
100
AcDbEntity
  8
0
100
AcDbCircle
 62
7
  6
CONTINUOUS
 10
3.3559824752
 20
6.9793597838
 40
0.25
  0
CIRCLE
  5
31F
100
AcDbEntity
  8
0
100
AcDbCircle
 62
7
  6
CONTINUOUS
 10
2.8098900537
 20
6.3816228185
 40
0.25
  0
ARC
  5
320
100
AcDbEntity
  8
0
100
AcDbCircle
 62
7
  6
CONTINUOUS
 10
4.6481026903
 20
7.0948235675
 40
0.1904837141
100
AcDbArc
 50
107.8478372349
 51
113.2768065679
  0
ARC
  5
321
100
AcDbEntity
  8
0
100
AcDbCircle
 62
7
  6
CONTINUOUS
 10
4.6603614639
 20
7.1376450201
 40
0.1527019731
100
AcDbArc
 50
89.3581479188
 51
106.997174948
  0
ARC
  5
322
100
AcDbEntity
  8
0
100
AcDbCircle
 62
7
  6
CONTINUOUS
 10
4.6599228399
 20
7.1678576023
 40
0.1507730432
100
AcDbArc
 50
66.7789992099
 51
104.5760660843
  0
ARC
  5
323
100
AcDbEntity
  8
0
100
AcDbCircle
 62
7
  6
CONTINUOUS
 10
4.7219013794
 20
7.290087697
 40
0.1504465856
100
AcDbArc
 50
176.2929819655
 51
187.7487332012
  0
ARC
  5
324
100
AcDbEntity
  8
0
100
AcDbCircle
 62
7
  6
CONTINUOUS
 10
4.7905909373
 20
7.4291635408
 40
0.1448273098
100
AcDbArc
 50
279.6779794949
 51
286.8580632733
  0
ARC
  5
325
100
AcDbEntity
  8
0
100
AcDbCircle
 62
7
  6
CONTINUOUS
 10
4.7002790695
 20
7.2899512809
 40
0.1323134475
100
AcDbArc
 50
347.5854116741
 51
0.2636057353
  0
ARC
  5
326
100
AcDbEntity
  8
0
100
AcDbCircle
 62
7
  6
CONTINUOUS
 10
4.7989866656
 20
7.3719976312
 40
0.1298752389
100
AcDbArc
 50
259.6353830225
 51
272.5152298059
  0
CIRCLE
  5
327
100
AcDbEntity
  8
0
100
AcDbCircle
 62
7
  6
CONTINUOUS
 10
1.8084824752
 20
4.972030397
 40
0.118
  0
ARC
  5
328
100
AcDbEntity
  8
0
100
AcDbCircle
 62
7
  6
CONTINUOUS
 10
4.7019392526
 20
7.2892287952
 40
0.1129786825
100
AcDbArc
 50
186.6527484841
 51
335.4276481947
  0
ARC
  5
329
100
AcDbEntity
  8
0
100
AcDbCircle
 62
7
  6
CONTINUOUS
 10
4.702021235
 20
7.2901388326
 40
0.1129786668
100
AcDbArc
 50
358.1022257812
 51
164.1508072726
  0
ARC
  5
32A
100
AcDbEntity
  8
0
100
AcDbCircle
 62
7
  6
CONTINUOUS
 10
4.7948779821
 20
7.3665826416
 40
0.1101194577
100
AcDbArc
 50
248.848230719
 51
267.5988553788
  0
ARC
  5
32B
100
AcDbEntity
  8
0
100
AcDbCircle
 62
7
  6
CONTINUOUS
 10
4.6658689693
 20
7.1862506181
 40
0.1028515438
100
AcDbArc
 50
71.1899290523
 51
77.9614824278
  0
ARC
  5
32C
100
AcDbEntity
  8
0
100
AcDbCircle
 62
7
  6
CONTINUOUS
 10
4.6609399602
 20
7.1892724853
 40
0.1010712669
100
AcDbArc
 50
74.8699624745
 51
89.3582153443
  0
CIRCLE
  5
32D
100
AcDbEntity
  8
0
100
AcDbCircle
 62
7
  6
CONTINUOUS
 10
1.8084824752
 20
4.972030397
 40
0.091
  0
ARC
  5
32E
100
AcDbEntity
  8
0
100
AcDbCircle
 62
7
  6
CONTINUOUS
 10
4.7990719577
 20
7.3447781305
 40
0.0886568304
100
AcDbArc
 50
264.2986207594
 51
290.0717668574
  0
ARC
  5
32F
100
AcDbEntity
  8
0
100
AcDbCircle
 62
7
  6
CONTINUOUS
 10
4.7020599593
 20
7.289921554
 40
0.086589981
100
AcDbArc
 50
187.3690262072
 51
328.1603906165
  0
ARC
  5
330
100
AcDbEntity
  8
0
100
AcDbCircle
 62
7
  6
CONTINUOUS
 10
4.7017765968
 20
7.2889327137
 40
0.0865899414
100
AcDbArc
 50
357.3934615947
 51
152.6356452287
  0
ARC
  5
331
100
AcDbEntity
  8
0
100
AcDbCircle
 62
7
  6
CONTINUOUS
 10
4.6877996904
 20
7.2880775518
 40
0.072210982
100
AcDbArc
 50
183.4939048525
 51
187.3692189096
  0
ARC
  5
332
100
AcDbEntity
  8
0
100
AcDbCircle
 62
7
  6
CONTINUOUS
 10
4.7905014786
 20
7.3253296006
 40
0.0403960331
100
AcDbArc
 50
257.6018428097
 51
266.8432409927
  0
ARC
  5
333
100
AcDbEntity
  8
0
100
AcDbCircle
 62
7
  6
CONTINUOUS
 10
4.9184824752
 20
1.893530397
 40
0.225
100
AcDbArc
 50
177.2901117985
 51
2.7098882015
  0
CIRCLE
  5
334
100
AcDbEntity
  8
0
100
AcDbCircle
 62
7
  6
CONTINUOUS
 10
4.9184824752
 20
4.273030397
 40
3.75
  0
CIRCLE
  5
335
100
AcDbEntity
  8
0
100
AcDbCircle
 62
7
  6
CONTINUOUS
 10
4.9184824752
 20
4.273030397
 40
3.625
  0
ARC
  5
336
100
AcDbEntity
  8
0
100
AcDbCircle
 62
7
  6
CONTINUOUS
 10
4.9184824752
 20
4.273030397
 40
2.5045
100
AcDbArc
 50
330.0
 51
355.6080274705
  0
ARC
  5
337
100
AcDbEntity
  8
0
100
AcDbCircle
 62
7
  6
CONTINUOUS
 10
4.9184824752
 20
4.273030397
 40
2.5045
100
AcDbArc
 50
4.3919725295
 51
30.0
  0
ARC
  5
338
100
AcDbEntity
  8
0
100
AcDbCircle
 62
7
  6
CONTINUOUS
 10
4.9184824752
 20
4.273030397
 40
2.5045
100
AcDbArc
 50
60.0
 51
85.6080274705
  0
ARC
  5
339
100
AcDbEntity
  8
0
100
AcDbCircle
 62
7
  6
CONTINUOUS
 10
4.9184824752
 20
4.273030397
 40
2.5045
100
AcDbArc
 50
94.3919725295
 51
120.0
  0
ARC
  5
33A
100
AcDbEntity
  8
0
100
AcDbCircle
 62
7
  6
CONTINUOUS
 10
4.9184824752
 20
4.273030397
 40
2.5045
100
AcDbArc
 50
150.0
 51
175.6080274705
  0
ARC
  5
33B
100
AcDbEntity
  8
0
100
AcDbCircle
 62
7
  6
CONTINUOUS
 10
4.9184824752
 20
4.273030397
 40
2.5045
100
AcDbArc
 50
184.3919725295
 51
210.0
  0
ARC
  5
33C
100
AcDbEntity
  8
0
100
AcDbCircle
 62
7
  6
CONTINUOUS
 10
4.9184824752
 20
4.273030397
 40
2.5045
100
AcDbArc
 50
240.0
 51
265.6080274705
  0
ARC
  5
33D
100
AcDbEntity
  8
0
100
AcDbCircle
 62
7
  6
CONTINUOUS
 10
4.9184824752
 20
4.273030397
 40
2.5045
100
AcDbArc
 50
274.3919725295
 51
300.0
  0
ARC
  5
33E
100
AcDbEntity
  8
0
100
AcDbCircle
 62
7
  6
CONTINUOUS
 10
4.9184824752
 20
4.273030397
 40
2.3795
100
AcDbArc
 50
95.4197764029
 51
174.5802235971
  0
ARC
  5
33F
100
AcDbEntity
  8
0
100
AcDbCircle
 62
7
  6
CONTINUOUS
 10
4.9184824752
 20
4.273030397
 40
2.3795
100
AcDbArc
 50
275.4197764029
 51
354.5802235971
  0
ARC
  5
340
100
AcDbEntity
  8
0
100
AcDbCircle
 62
7
  6
CONTINUOUS
 10
4.9184824752
 20
4.273030397
 40
2.3795
100
AcDbArc
 50
5.4197764029
 51
84.5802235971
  0
ARC
  5
341
100
AcDbEntity
  8
0
100
AcDbCircle
 62
7
  6
CONTINUOUS
 10
4.9184824752
 20
4.273030397
 40
2.3795
100
AcDbArc
 50
185.4197764029
 51
264.5802235971
  0
ARC
  5
342
100
AcDbEntity
  8
0
100
AcDbCircle
 62
7
  6
CONTINUOUS
 10
4.9184824752
 20
4.273030397
 40
2.3777539615
100
AcDbArc
 50
84.5762318066
 51
95.4237681934
  0
ARC
  5
343
100
AcDbEntity
  8
0
100
AcDbCircle
 62
7
  6
CONTINUOUS
 10
4.9184824752
 20
4.273030397
 40
2.3777539615
100
AcDbArc
 50
264.5762318066
 51
275.4237681934
  0
ARC
  5
344
100
AcDbEntity
  8
0
100
AcDbCircle
 62
7
  6
CONTINUOUS
 10
4.9184824752
 20
4.273030397
 40
2.3777539615
100
AcDbArc
 50
174.5762318066
 51
185.4237681934
  0
ARC
  5
345
100
AcDbEntity
  8
0
100
AcDbCircle
 62
7
  6
CONTINUOUS
 10
4.9184824752
 20
4.273030397
 40
2.3777539615
100
AcDbArc
 50
354.5762318066
 51
5.4237681934
  0
CIRCLE
  5
346
100
AcDbEntity
  8
0
100
AcDbCircle
 62
7
  6
CONTINUOUS
 10
4.9184824752
 20
4.273030397
 40
2.3533094229
  0
ARC
  5
347
100
AcDbEntity
  8
0
100
AcDbCircle
 62
7
  6
CONTINUOUS
 10
4.9171941813
 20
4.274193468
 40
2.2402255159
100
AcDbArc
 50
321.9913440366
 51
322.7316419141
  0
ARC
  5
348
100
AcDbEntity
  8
0
100
AcDbCircle
 62
7
  6
CONTINUOUS
 10
4.9184808408
 20
4.2730301626
 40
2.2385000005
100
AcDbArc
 50
324.9636058999
 51
51.3635480407
  0
ARC
  5
349
100
AcDbEntity
  8
0
100
AcDbCircle
 62
7
  6
CONTINUOUS
 10
4.9198681559
 20
4.2721688572
 40
2.2368715444
100
AcDbArc
 50
322.7314364584
 51
323.8700356376
  0
ARC
  5
34A
100
AcDbEntity
  8
0
100
AcDbCircle
 62
7
  6
CONTINUOUS
 10
4.9410720602
 20
4.2992136538
 40
2.23530049
100
AcDbArc
 50
323.3266100866
 51
324.0816099733
  0
ARC
  5
34B
100
AcDbEntity
  8
0
100
AcDbCircle
 62
7
  6
CONTINUOUS
 10
4.9238787499
 20
4.2692523278
 40
2.2319126206
100
AcDbArc
 50
323.8698021707
 51
324.9634601533
  0
ARC
  5
34C
100
AcDbEntity
  8
0
100
AcDbCircle
 62
7
  6
CONTINUOUS
 10
4.9234885597
 20
4.2792945691
 40
2.2304812262
100
AcDbArc
 50
51.0411963924
 51
51.3635556721
  0
ARC
  5
34D
100
AcDbEntity
  8
0
100
AcDbCircle
 62
7
  6
CONTINUOUS
 10
4.9500843136
 20
4.2586527263
 40
2.2302425844
100
AcDbArc
 50
52.2283957689
 51
78.8389408883
  0
ARC
  5
34E
100
AcDbEntity
  8
0
100
AcDbCircle
 62
7
  6
CONTINUOUS
 10
4.9448902491
 20
4.2955096125
 40
2.2300092462
100
AcDbArc
 50
297.4878294054
 51
323.3443488127
  0
ARC
  5
34F
100
AcDbEntity
  8
0
100
AcDbCircle
 62
7
  6
CONTINUOUS
 10
4.9184824752
 20
4.273030397
 40
2.2225
100
AcDbArc
 50
77.9678773745
 51
298.3592765661
  0
ARC
  5
350
100
AcDbEntity
  8
0
100
AcDbCircle
 62
7
  6
CONTINUOUS
 10
4.9263895178
 20
4.263117487
 40
2.2049729583
100
AcDbArc
 50
207.3886123475
 51
230.8665669459
  0
ARC
  5
351
100
AcDbEntity
  8
0
100
AcDbCircle
 62
7
  6
CONTINUOUS
 10
4.9070701927
 20
4.318901586
 40
2.1704335707
100
AcDbArc
 50
3.7015590037
 51
24.5587607217
  0
ARC
  5
352
100
AcDbEntity
  8
0
100
AcDbCircle
 62
7
  6
CONTINUOUS
 10
4.9184824752
 20
4.273030397
 40
2.1625
100
AcDbArc
 50
27.4505648109
 51
180.0
  0
ARC
  5
353
100
AcDbEntity
  8
0
100
AcDbCircle
 62
7
  6
CONTINUOUS
 10
4.9184824752
 20
4.273030397
 40
2.1625
100
AcDbArc
 50
182.9354564446
 51
25.7931500497
  0
CIRCLE
  5
354
100
AcDbEntity
  8
0
100
AcDbCircle
 62
7
  6
CONTINUOUS
 10
6.4809824752
 20
1.5667010102
 40
0.25
  0
ARC
  5
355
100
AcDbEntity
  8
0
100
AcDbCircle
 62
7
  6
CONTINUOUS
 10
7.2979824752
 20
4.273030397
 40
0.225
100
AcDbArc
 50
267.2901117985
 51
92.7098882015
  0
ARC
  5
356
100
AcDbEntity
  8
0
100
AcDbCircle
 62
7
  6
CONTINUOUS
 10
4.9317709538
 20
7.8412756067
 40
0.5754897887
100
AcDbArc
 50
248.3411390558
 51
252.5426653109
  0
CIRCLE
  5
357
100
AcDbEntity
  8
0
100
AcDbCircle
 62
7
  6
CONTINUOUS
 10
7.624811862
 20
5.835530397
 40
0.25
  0
CIRCLE
  5
358
100
AcDbEntity
  8
0
100
AcDbCircle
 62
7
  6
CONTINUOUS
 10
7.7988732892
 20
5.0448287895
 40
0.25
  0
ARC
  5
359
100
AcDbEntity
  8
0
100
AcDbCircle
 62
7
  6
CONTINUOUS
 10
4.9184824752
 20
6.652530397
 40
0.225
100
AcDbArc
 50
357.2901117985
 51
182.7098882015
  0
ARC
  5
35A
100
AcDbEntity
  8
0
100
AcDbCircle
 62
7
  6
CONTINUOUS
 10
4.8247153628
 20
7.4809671809
 40
0.199749873
100
AcDbArc
 50
250.8310680617
 51
257.6018454509
  0
ARC
  5
35B
100
AcDbEntity
  8
0
100
AcDbCircle
 62
7
  6
CONTINUOUS
 10
5.9512795347
 20
7.242030397
 40
0.06825
100
AcDbArc
 50
185.6758943881
 51
7.1807557815
  0
ARC
  5
35C
100
AcDbEntity
  8
0
100
AcDbCircle
 62
7
  6
CONTINUOUS
 10
5.9557324752
 20
7.358161976
 40
0.06825
100
AcDbArc
 50
237.3631024964
 51
250.6167699484
  0
ARC
  5
35D
100
AcDbEntity
  8
0
100
AcDbCircle
 62
7
  6
CONTINUOUS
 10
5.9553279903
 20
7.333530397
 40
0.0675
100
AcDbArc
 50
30.795
 51
122.6368975036
  0
ARC
  5
35E
100
AcDbEntity
  8
0
100
AcDbCircle
 62
7
  6
CONTINUOUS
 10
5.9572324752
 20
7.242780397
 40
0.06225
100
AcDbArc
 50
7.1807557815
 51
66.932
  0
ARC
  5
35F
100
AcDbEntity
  8
0
100
AcDbCircle
 62
7
  6
CONTINUOUS
 10
5.9476427772
 20
7.345530397
 40
0.05325
100
AcDbArc
 50
122.6368975036
 51
237.3631024964
  0
ARC
  5
360
100
AcDbEntity
  8
0
100
AcDbCircle
 62
7
  6
CONTINUOUS
 10
5.9540696039
 20
7.332780397
 40
0.045
100
AcDbArc
 50
30.795
 51
58.2610031074
  0
CIRCLE
  5
361
100
AcDbEntity
  8
0
100
AcDbCircle
 62
7
  6
CONTINUOUS
 10
6.2429824752
 20
7.193280397
 40
0.0195
  0
CIRCLE
  5
362
100
AcDbEntity
  8
0
100
AcDbCircle
 62
7
  6
CONTINUOUS
 10
6.2429824752
 20
7.193280397
 40
0.01725
  0
SPLINE
  5
363
100
AcDbEntity
  8
0
100
AcDbSpline
 62
7
  6
CONTINUOUS
 70
0
 71
3
 72
66
 73
62
 74
0
 42
0.0000001
 43
0.0000001
 44
0.0000000001
 40
0.0
 40
0.0
 40
0.0
 40
0.0
 40
0.0312361749
 40
0.0468672338
 40
0.0624953683
 40
0.0937353822
 40
0.1249765953
 40
0.1406027336
 40
0.1562286786
 40
0.1718544758
 40
0.1874801835
 40
0.2031058775
 40
0.2187316742
 40
0.2343574869
 40
0.249983242
 40
0.2656090324
 40
0.2812348217
 40
0.2968605575
 40
0.3124863387
 40
0.3281121342
 40
0.3437378732
 40
0.3593636466
 40
0.3749894411
 40
0.3906151789
 40
0.4062409426
 40
0.4218667357
 40
0.437492474
 40
0.4531182277
 40
0.468744018
 40
0.4843697579
 40
0.499995502
 40
0.5312374307
 40
0.5624793615
 40
0.5781051081
 40
0.593730835
 40
0.6093566137
 40
0.6249823635
 40
0.6406080823
 40
0.6562338543
 40
0.6718596068
 40
0.6874853189
 40
0.7031110835
 40
0.7187368388
 40
0.7343625461
 40
0.7499883024
 40
0.7656140601
 40
0.7812397645
 40
0.7968655118
 40
0.8124912708
 40
0.8281169739
 40
0.8437427109
 40
0.8593684699
 40
0.8749941732
 40
0.8906198996
 40
0.9062456575
 40
0.9218713629
 40
0.9374970786
 40
0.9531228341
 40
0.9687485431
 40
0.9843742483
 40
1.0
 40
1.0
 40
1.0
 40
1.0
 10
6.8655343273
 20
5.2139848779
 30
0.0
 10
6.834522726
 20
5.2791220155
 30
0.0
 10
6.7830357203
 20
5.3746069852
 30
0.0
 10
6.7051971856
 20
5.4962091427
 30
0.0
 10
6.6213519009
 20
5.6137766034
 30
0.0
 10
6.5056929331
 20
5.7526373525
 30
0.0
 10
6.3767391024
 20
5.8792443009
 30
0.0
 10
6.2664406092
 20
5.9724155101
 30
0.0
 10
6.1803046158
 20
6.0380881011
 30
0.0
 10
6.0910012651
 20
6.0993773904
 30
0.0
 10
5.9987549944
 20
6.1561412182
 30
0.0
 10
5.9037890455
 20
6.2082272829
 30
0.0
 10
5.8063437719
 20
6.2555127314
 30
0.0
 10
5.7066655258
 20
6.2978894048
 30
0.0
 10
5.6049971815
 20
6.3352405933
 30
0.0
 10
5.5015937766
 20
6.3674777382
 30
0.0
 10
5.3967151871
 20
6.3945326861
 30
0.0
 10
5.2906185694
 20
6.4163278263
 30
0.0
 10
5.1835681812
 20
6.4328108235
 30
0.0
 10
5.0758310674
 20
6.4439544694
 30
0.0
 10
4.9676726573
 20
6.4497218391
 30
0.0
 10
4.8593614384
 20
6.4500974311
 30
0.0
 10
4.7511652322
 20
6.4450953752
 30
0.0
 10
4.6433513091
 20
6.434720477
 30
0.0
 10
4.5361872725
 20
6.4189942841
 30
0.0
 10
4.4299354248
 20
6.3979714372
 30
0.0
 10
4.3248584325
 20
6.3716983723
 30
0.0
 10
4.2212177159
 20
6.3402331532
 30
0.0
 10
4.1192648873
 20
6.3036695981
 30
0.0
 10
4.0192486738
 20
6.26209293
 30
0.0
 10
3.8888438994
 20
6.2001159275
 30
0.0
 10
3.7318318939
 20
6.1106414582
 30
0.0
 10
3.5844659275
 20
6.0060395629
 30
0.0
 10
3.473248146
 20
5.9139683469
 30
0.0
 10
3.3933432417
 20
5.8408450479
 30
0.0
 10
3.3171559717
 20
5.7638599429
 30
0.0
 10
3.2448669519
 20
5.6832021303
 30
0.0
 10
3.176664106
 20
5.5990610362
 30
0.0
 10
3.1127052126
 20
5.5116507165
 30
0.0
 10
3.053141021
 20
5.4211883868
 30
0.0
 10
2.9981282857
 20
5.3278881205
 30
0.0
 10
2.9477938028
 20
5.2319833556
 30
0.0
 10
2.9022522178
 20
5.1337119827
 30
0.0
 10
2.861625971
 20
5.0333086513
 30
0.0
 10
2.8260088789
 20
4.9310213558
 30
0.0
 10
2.7954769778
 20
4.8271027621
 30
0.0
 10
2.7701152517
 20
4.7218027936
 30
0.0
 10
2.7499832789
 20
4.6153793157
 30
0.0
 10
2.7351169954
 20
4.5080935421
 30
0.0
 10
2.7255616813
 20
4.400204827
 30
0.0
 10
2.7213418821
 20
4.2919762203
 30
0.0
 10
2.7224530492
 20
4.1836711806
 30
0.0
 10
2.7288995075
 20
4.075552268
 30
0.0
 10
2.7406703874
 20
3.9678830076
 30
0.0
 10
2.7577213707
 20
3.8609229456
 30
0.0
 10
2.7800156391
 20
3.7549314562
 30
0.0
 10
2.807506954
 20
3.6501676968
 30
0.0
 10
2.8401128607
 20
3.5468817447
 30
0.0
 10
2.8777567563
 20
3.4453225568
 30
0.0
 10
2.9203558399
 20
3.3457431954
 30
0.0
 10
2.9519841281
 20
3.2808258204
 30
0.0
 10
2.9685826933
 20
3.2487804386
 30
0.0
  0
SPLINE
  5
364
100
AcDbEntity
  8
0
100
AcDbSpline
 62
7
  6
CONTINUOUS
 70
0
 71
3
 72
12
 73
8
 74
0
 42
0.0000001
 43
0.0000001
 44
0.0000000001
 40
0.0
 40
0.0
 40
0.0
 40
0.0
 40
0.0891117825
 40
0.2991719773
 40
0.5040450077
 40
0.6824220627
 40
1.0
 40
1.0
 40
1.0
 40
1.0
 10
4.4644312649
 20
7.2696503444
 30
0.0
 10
4.4709442192
 20
7.2696503444
 30
0.0
 10
4.4925240935
 20
7.2719135694
 30
0.0
 10
4.5302456218
 20
7.2873276566
 30
0.0
 10
4.5428081672
 20
7.3333654719
 30
0.0
 10
4.5274044862
 20
7.3867233687
 30
0.0
 10
4.4862802219
 20
7.3961325062
 30
0.0
 10
4.461069617
 20
7.3961325062
 30
0.0
  0
SPLINE
  5
365
100
AcDbEntity
  8
0
100
AcDbSpline
 62
7
  6
CONTINUOUS
 70
0
 71
3
 72
12
 73
8
 74
0
 42
0.0000001
 43
0.0000001
 44
0.0000000001
 40
0.0
 40
0.0
 40
0.0
 40
0.0
 40
0.1408748631
 40
0.3414896108
 40
0.6471341141
 40
0.8491307334
 40
1.0
 40
1.0
 40
1.0
 40
1.0
 10
4.4598154148
 20
7.3721728869
 30
0.0
 10
4.4666745657
 20
7.3721728869
 30
0.0
 10
4.4830522479
 20
7.3707580708
 30
0.0
 10
4.5152506592
 20
7.3583614593
 30
0.0
 10
4.5167337318
 20
7.3103736882
 30
0.0
 10
4.4830983643
 20
7.2962564077
 30
0.0
 10
4.4687350995
 20
7.2942932269
 30
0.0
 10
4.4598154148
 20
7.2942932269
 30
0.0
  0
SPLINE
  5
366
100
AcDbEntity
  8
0
100
AcDbSpline
 62
7
  6
CONTINUOUS
 70
0
 71
3
 72
12
 73
8
 74
0
 42
0.0000001
 43
0.0000001
 44
0.0000000001
 40
0.0
 40
0.0
 40
0.0
 40
0.0
 40
0.1802346575
 40
0.3533176959
 40
0.6187293626
 40
0.8781855391
 40
1.0
 40
1.0
 40
1.0
 40
1.0
 10
4.919387718
 20
7.3964773558
 30
0.0
 10
4.9306729481
 20
7.3964767056
 30
0.0
 10
4.9559266758
 20
7.3962396264
 30
0.0
 10
4.9948873173
 20
7.3766596144
 30
0.0
 10
5.0109375918
 20
7.3246118766
 30
0.0
 10
4.9839320243
 20
7.2828249836
 30
0.0
 10
4.9590329883
 20
7.2744060114
 30
0.0
 10
4.9506034848
 20
7.2739206653
 30
0.0
  0
SPLINE
  5
367
100
AcDbEntity
  8
0
100
AcDbSpline
 62
7
  6
CONTINUOUS
 70
0
 71
3
 72
14
 73
10
 74
0
 42
0.0000001
 43
0.0000001
 44
0.0000000001
 40
0.0
 40
0.0
 40
0.0
 40
0.0
 40
0.0707194553
 40
0.3679558946
 40
0.5299734781
 40
0.7033658791
 40
0.8141149501
 40
0.9710174423
 40
1.0
 40
1.0
 40
1.0
 40
1.0
 10
4.9112871439
 20
7.2932745555
 30
0.0
 10
4.9150694051
 20
7.2934395115
 30
0.0
 10
4.9353458639
 20
7.2933838984
 30
0.0
 10
4.9704958431
 20
7.2979935952
 30
0.0
 10
4.9809480057
 20
7.3353744411
 30
0.0
 10
4.9704183833
 20
7.3611705031
 30
0.0
 10
4.9465764205
 20
7.369984467
 30
0.0
 10
4.9304242408
 20
7.3724425414
 30
0.0
 10
4.9200986308
 20
7.3724276317
 30
0.0
 10
4.9184908498
 20
7.3724067706
 30
0.0
  0
SPLINE
  5
368
100
AcDbEntity
  8
0
100
AcDbSpline
 62
7
  6
CONTINUOUS
 70
0
 71
3
 72
11
 73
7
 74
0
 42
0.0000001
 43
0.0000001
 44
0.0000000001
 40
0.0
 40
0.0
 40
0.0
 40
0.0
 40
0.3509719805
 40
0.5994665808
 40
0.7759546843
 40
1.0
 40
1.0
 40
1.0
 40
1.0
 10
5.3674933409
 20
7.3050654957
 30
0.0
 10
5.3950382656
 20
7.3006826337
 30
0.0
 10
5.4218419765
 20
7.2634409858
 30
0.0
 10
5.411305072
 20
7.2084976933
 30
0.0
 10
5.3754574111
 20
7.1827508145
 30
0.0
 10
5.3475401418
 20
7.1790324829
 30
0.0
 10
5.3340119153
 20
7.1790320766
 30
0.0
  0
SPLINE
  5
369
100
AcDbEntity
  8
0
100
AcDbSpline
 62
7
  6
CONTINUOUS
 70
0
 71
3
 72
11
 73
7
 74
0
 42
0.0000001
 43
0.0000001
 44
0.0000000001
 40
0.0
 40
0.0
 40
0.0
 40
0.0
 40
0.2856812886
 40
0.4794882412
 40
0.7998296754
 40
1.0
 40
1.0
 40
1.0
 40
1.0
 10
5.306868107
 20
7.4153154957
 30
0.0
 10
5.321862061
 20
7.4153154957
 30
0.0
 10
5.3527853133
 20
7.4136794059
 30
0.0
 10
5.3926369703
 20
7.3854139732
 30
0.0
 10
5.3974174754
 20
7.3365866652
 30
0.0
 10
5.3788524016
 20
7.31038973
 30
0.0
 10
5.3674933409
 20
7.3050654957
 30
0.0
  0
SPLINE
  5
36A
100
AcDbEntity
  8
0
100
AcDbSpline
 62
7
  6
CONTINUOUS
 70
0
 71
3
 72
13
 73
9
 74
0
 42
0.0000001
 43
0.0000001
 44
0.0000000001
 40
0.0
 40
0.0
 40
0.0
 40
0.0
 40
0.120468221
 40
0.2711195467
 40
0.438405009
 40
0.6768626333
 40
0.8477710315
 40
1.0
 40
1.0
 40
1.0
 40
1.0
 10
5.3221112006
 20
7.3890609699
 30
0.0
 10
5.3278796202
 20
7.3890609699
 30
0.0
 10
5.3406532998
 20
7.3873999353
 30
0.0
 10
5.3615788455
 20
7.3780460041
 30
0.0
 10
5.368256357
 20
7.3502339886
 30
0.0
 10
5.3613345234
 20
7.3192186296
 30
0.0
 10
5.3333607387
 20
7.3105644551
 30
0.0
 10
5.317604514
 20
7.3105952858
 30
0.0
 10
5.3106844514
 20
7.3105952858
 30
0.0
  0
SPLINE
  5
36B
100
AcDbEntity
  8
0
100
AcDbSpline
 62
7
  6
CONTINUOUS
 70
0
 71
3
 72
13
 73
9
 74
0
 42
0.0000001
 43
0.0000001
 44
0.0000000001
 40
0.0
 40
0.0
 40
0.0
 40
0.0
 40
0.1641661205
 40
0.3217069561
 40
0.565060326
 40
0.7512466871
 40
0.9043536181
 40
1.0
 40
1.0
 40
1.0
 40
1.0
 10
5.3292771278
 20
7.287180342
 30
0.0
 10
5.3375854858
 20
7.287180342
 30
0.0
 10
5.3537416205
 20
7.2851597305
 30
0.0
 10
5.3815749256
 20
7.2738194336
 30
0.0
 10
5.3912380099
 20
7.2391397227
 30
0.0
 10
5.3724423587
 20
7.2124818979
 30
0.0
 10
5.3506077722
 20
7.2065083857
 30
0.0
 10
5.3378116191
 20
7.2052736572
 30
0.0
 10
5.3331403309
 20
7.2052736572
 30
0.0
  0
SPLINE
  5
36C
100
AcDbEntity
  8
0
100
AcDbSpline
 62
7
  6
CONTINUOUS
 70
0
 71
3
 72
12
 73
8
 74
0
 42
0.0000001
 43
0.0000001
 44
0.0000000001
 40
0.0
 40
0.0
 40
0.0
 40
0.0
 40
0.3073777103
 40
0.4822427633
 40
0.6527545558
 40
0.802512617
 40
1.0
 40
1.0
 40
1.0
 40
1.0
 10
5.5131398249
 20
7.3964773104
 30
0.0
 10
5.5339197599
 20
7.3964760874
 30
0.0
 10
5.5708122471
 20
7.3939981216
 30
0.0
 10
5.5971552843
 20
7.3542528115
 30
0.0
 10
5.5977320757
 20
7.3191544065
 30
0.0
 10
5.5802289196
 20
7.2872720434
 30
0.0
 10
5.5594878016
 20
7.2743969425
 30
0.0
 10
5.5443241428
 20
7.273920667
 30
0.0
  0
SPLINE
  5
36D
100
AcDbEntity
  8
0
100
AcDbSpline
 62
7
  6
CONTINUOUS
 70
0
 71
3
 72
14
 73
10
 74
0
 42
0.0000001
 43
0.0000001
 44
0.0000000001
 40
0.0
 40
0.0
 40
0.0
 40
0.0
 40
0.1017409091
 40
0.2314324339
 40
0.4025209289
 40
0.5232841254
 40
0.6811521473
 40
0.7957824983
 40
1.0
 40
1.0
 40
1.0
 40
1.0
 10
5.5139312661
 20
7.3722456609
 30
0.0
 10
5.5190746608
 20
7.3722416308
 30
0.0
 10
5.5307787689
 20
7.3716302577
 30
0.0
 10
5.5509076462
 20
7.3681114661
 30
0.0
 10
5.5694135701
 20
7.353076477
 30
0.0
 10
5.5721855322
 20
7.3298168742
 30
0.0
 10
5.5674184278
 20
7.3086907647
 30
0.0
 10
5.546201432
 20
7.295526198
 30
0.0
 10
5.5275482814
 20
7.2936720054
 30
0.0
 10
5.5191099445
 20
7.2935233366
 30
0.0
  0
SPLINE
  5
36E
100
AcDbEntity
  8
0
100
AcDbSpline
 62
7
  6
CONTINUOUS
 70
0
 71
3
 72
12
 73
8
 74
0
 42
0.0000001
 43
0.0000001
 44
0.0000000001
 40
0.0
 40
0.0
 40
0.0
 40
0.0
 40
0.2808121149
 40
0.3972381794
 40
0.5761365733
 40
0.7912548088
 40
1.0
 40
1.0
 40
1.0
 40
1.0
 10
5.9330813209
 20
7.293780397
 30
0.0
 10
5.9449036481
 20
7.2896209874
 30
0.0
 10
5.9670099243
 20
7.2798778009
 30
0.0
 10
5.99224053
 20
7.2609173428
 30
0.0
 10
5.9958558871
 20
7.2304670267
 30
0.0
 10
5.9781202619
 20
7.1999389977
 30
0.0
 10
5.9484166019
 20
7.1974720581
 30
0.0
 10
5.9359628576
 20
7.2019096441
 30
0.0
  0
SPLINE
  5
36F
100
AcDbEntity
  8
0
100
AcDbSpline
 62
7
  6
CONTINUOUS
 70
0
 71
3
 72
12
 73
8
 74
0
 42
0.0000001
 43
0.0000001
 44
0.0000000001
 40
0.0
 40
0.0
 40
0.0
 40
0.0
 40
0.1326783648
 40
0.3123052837
 40
0.5607748371
 40
0.8314399015
 40
1.0
 40
1.0
 40
1.0
 40
1.0
 10
5.9399975757
 20
7.317780397
 30
0.0
 10
5.9358197881
 20
7.3195596173
 30
0.0
 10
5.9259023836
 20
7.3251574809
 30
0.0
 10
5.9157007076
 20
7.3440880627
 30
0.0
 10
5.9271104155
 20
7.3704446089
 30
0.0
 10
5.9521945458
 20
7.3779401489
 30
0.0
 10
5.9681099503
 20
7.3755573826
 30
0.0
 10
5.9735476485
 20
7.3732253526
 30
0.0
  0
SPLINE
  5
370
100
AcDbEntity
  8
0
100
AcDbSpline
 62
7
  6
CONTINUOUS
 70
0
 71
3
 72
11
 73
7
 74
0
 42
0.0000001
 43
0.0000001
 44
0.0000000001
 40
0.0
 40
0.0
 40
0.0
 40
0.0
 40
0.269475763
 40
0.5696891641
 40
0.9239831559
 40
1.0
 40
1.0
 40
1.0
 40
1.0
 10
6.196587087
 20
7.3683559334
 30
0.0
 10
6.1890976121
 20
7.3845228954
 30
0.0
 10
6.1591205803
 20
7.4070827237
 30
0.0
 10
6.0969067865
 20
7.3992167834
 30
0.0
 10
6.0706464451
 20
7.347968039
 30
0.0
 10
6.0813242843
 20
7.3235725296
 30
0.0
 10
6.0837790371
 20
7.3195778403
 30
0.0
  0
SPLINE
  5
371
100
AcDbEntity
  8
0
100
AcDbSpline
 62
7
  6
CONTINUOUS
 70
0
 71
3
 72
11
 73
7
 74
0
 42
0.0000001
 43
0.0000001
 44
0.0000000001
 40
0.0
 40
0.0
 40
0.0
 40
0.0
 40
0.4514838399
 40
0.70741969
 40
0.9566118888
 40
1.0
 40
1.0
 40
1.0
 40
1.0
 10
6.0673512327
 20
7.2351936729
 30
0.0
 10
6.0738073146
 20
7.190763701
 30
0.0
 10
6.1248245742
 20
7.1625723387
 30
0.0
 10
6.1905200224
 20
7.1913884346
 30
0.0
 10
6.2059629708
 20
7.2304823009
 30
0.0
 10
6.2031557434
 20
7.2509567423
 30
0.0
 10
6.2025194909
 20
7.2539536449
 30
0.0
  0
SPLINE
  5
372
100
AcDbEntity
  8
0
100
AcDbSpline
 62
7
  6
CONTINUOUS
 70
0
 71
3
 72
10
 73
6
 74
0
 42
0.0000001
 43
0.0000001
 44
0.0000000001
 40
0.0
 40
0.0
 40
0.0
 40
0.0
 40
0.3333338028
 40
0.6666669014
 40
1.0
 40
1.0
 40
1.0
 40
1.0
 10
6.2422324752
 20
7.191780397
 30
0.0
 10
6.2418796432
 20
7.1919409898
 30
0.0
 10
6.2410838023
 20
7.1922103087
 30
0.0
 10
6.2402622798
 20
7.1924295202
 30
0.0
 10
6.238677221
 20
7.1925108193
 30
0.0
 10
6.2377324752
 20
7.192530397
 30
0.0
  0
SPLINE
  5
373
100
AcDbEntity
  8
0
100
AcDbSpline
 62
7
  6
CONTINUOUS
 70
0
 71
3
 72
9
 73
5
 74
0
 42
0.0000001
 43
0.0000001
 44
0.0000000001
 40
0.0
 40
0.0
 40
0.0
 40
0.0
 40
0.5376264985
 40
1.0
 40
1.0
 40
1.0
 40
1.0
 10
6.2482324752
 20
7.183530397
 30
0.0
 10
6.2476759819
 20
7.185396829
 30
0.0
 10
6.2461221295
 20
7.1884804844
 30
0.0
 10
6.2436033698
 20
7.1908425253
 30
0.0
 10
6.2422324752
 20
7.191780397
 30
0.0
  0
SPLINE
  5
374
100
AcDbEntity
  8
0
100
AcDbSpline
 62
7
  6
CONTINUOUS
 70
0
 71
3
 72
10
 73
6
 74
0
 42
0.0000001
 43
0.0000001
 44
0.0000000001
 40
0.0
 40
0.0
 40
0.0
 40
0.0
 40
0.2511508109
 40
0.7206410133
 40
1.0
 40
1.0
 40
1.0
 40
1.0
 10
6.2452324752
 20
7.192530397
 30
0.0
 10
6.2461264795
 20
7.1921315308
 30
0.0
 10
6.2482503991
 20
7.1905318335
 30
0.0
 10
6.249917624
 20
7.1870985547
 30
0.0
 10
6.2508640059
 20
7.1844546796
 30
0.0
 10
6.2512324752
 20
7.183530397
 30
0.0
  0
SPLINE
  5
375
100
AcDbEntity
  8
0
100
AcDbSpline
 62
7
  6
CONTINUOUS
 70
0
 71
3
 72
11
 73
7
 74
0
 42
0.0000001
 43
0.0000001
 44
0.0000000001
 40
0.0
 40
0.0
 40
0.0
 40
0.0
 40
0.1665093952
 40
0.3573017645
 40
0.7431479257
 40
1.0
 40
1.0
 40
1.0
 40
1.0
 10
6.2429824752
 20
7.203780397
 30
0.0
 10
6.2439037397
 20
7.2037867083
 30
0.0
 10
6.2462618949
 20
7.2036616858
 30
0.0
 10
6.2508043266
 20
7.2017615693
 30
0.0
 10
6.250767162
 20
7.1947491442
 30
0.0
 10
6.2471582968
 20
7.1922857059
 30
0.0
 10
6.2452324752
 20
7.192530397
 30
0.0
  0
SPLINE
  5
376
100
AcDbEntity
  8
0
100
AcDbSpline
 62
7
  6
CONTINUOUS
 70
0
 71
3
 72
10
 73
6
 74
0
 42
0.0000001
 43
0.0000001
 44
0.0000000001
 40
0.0
 40
0.0
 40
0.0
 40
0.0
 40
0.3559946299
 40
0.5209455565
 40
1.0
 40
1.0
 40
1.0
 40
1.0
 10
6.2459824752
 20
7.194780397
 30
0.0
 10
6.247304605
 20
7.1955889018
 30
0.0
 10
6.2479166378
 20
7.1975214693
 30
0.0
 10
6.246858307
 20
7.2011676514
 30
0.0
 10
6.2443330096
 20
7.201530397
 30
0.0
 10
6.2422324752
 20
7.201530397
 30
0.0
  0
SPLINE
  5
377
100
AcDbEntity
  8
0
100
AcDbSpline
 62
7
  6
CONTINUOUS
 70
0
 71
3
 72
9
 73
5
 74
0
 42
0.0000001
 43
0.0000001
 44
0.0000000001
 40
0.0
 40
0.0
 40
0.0
 40
0.0
 40
0.6392043119
 40
1.0
 40
1.0
 40
1.0
 40
1.0
 10
6.2377324752
 20
7.194030397
 30
0.0
 10
6.2395075707
 20
7.1940990363
 30
0.0
 10
6.2422306271
 20
7.1939121015
 30
0.0
 10
6.2451259572
 20
7.1942566218
 30
0.0
 10
6.2459824752
 20
7.194780397
 30
0.0
  0
SPLINE
  5
378
100
AcDbEntity
  8
0
100
AcDbSpline
 62
7
  6
CONTINUOUS
 70
0
 71
3
 72
29
 73
25
 74
0
 42
0.0000001
 43
0.0000001
 44
0.0000000001
 40
0.0
 40
0.0
 40
0.0
 40
0.0
 40
0.0624961655
 40
0.0937494122
 40
0.1250026754
 40
0.1874988451
 40
0.2187520901
 40
0.250005319
 40
0.2812586361
 40
0.3125119772
 40
0.3437652509
 40
0.3750185068
 40
0.4375147107
 40
0.4687679208
 40
0.5000209793
 40
0.5312740902
 40
0.5625273571
 40
0.62502404
 40
0.6875212324
 40
0.7500149041
 40
0.8125063585
 40
0.8750096019
 40
0.9375245378
 40
1.0
 40
1.0
 40
1.0
 40
1.0
 10
3.5347653528
 20
2.5527644354
 30
0.0
 10
3.5767197595
 20
2.5186228182
 30
0.0
 10
3.6415688886
 20
2.4696943409
 30
0.0
 10
3.7314088229
 20
2.4093795147
 30
0.0
 10
3.8234081051
 20
2.3524081861
 30
0.0
 10
3.9184865019
 20
2.300539334
 30
0.0
 10
4.0161871008
 20
2.2540228608
 30
0.0
 10
4.0907068778
 20
2.2218476867
 30
0.0
 10
4.166355245
 20
2.192427745
 30
0.0
 10
4.2430308462
 20
2.1657994808
 30
0.0
 10
4.3206324969
 20
2.141999613
 30
0.0
 10
4.4251808758
 20
2.1140924597
 30
0.0
 10
4.5312008957
 20
2.0919536384
 30
0.0
 10
4.6381793963
 20
2.0756834684
 30
0.0
 10
4.7188189482
 20
2.0664310738
 30
0.0
 10
4.7997429455
 20
2.0601403315
 30
0.0
 10
4.907862852
 20
2.055704953
 30
0.0
 10
5.0432148813
 20
2.0575896947
 30
0.0
 10
5.2050105997
 20
2.0717369306
 30
0.0
 10
5.3653418977
 20
2.0976577816
 30
0.0
 10
5.5233502545
 20
2.135240914
 30
0.0
 10
5.6782128439
 20
2.1842674599
 30
0.0
 10
5.8290525573
 20
2.2444820675
 30
0.0
 10
5.9264390157
 20
2.2918464642
 30
0.0
 10
5.9741674676
 20
2.3172606133
 30
0.0
  0
SPLINE
  5
379
100
AcDbEntity
  8
0
100
AcDbSpline
 62
7
  6
CONTINUOUS
 70
0
 71
3
 72
8
 73
4
 74
0
 42
0.0000001
 43
0.0000001
 44
0.0000000001
 40
0.0
 40
0.0
 40
0.0
 40
0.0
 40
1.0
 40
1.0
 40
1.0
 40
1.0
 10
5.9359628576
 20
7.2019096441
 30
0.0
 10
5.9216307537
 20
7.2070165374
 30
0.0
 10
5.9101789332
 20
7.2196096292
 30
0.0
 10
5.9112921855
 20
7.241280397
 30
0.0
  0
SPLINE
  5
37A
100
AcDbEntity
  8
0
100
AcDbSpline
 62
7
  6
CONTINUOUS
 70
0
 71
3
 72
13
 73
9
 74
0
 42
0.0000001
 43
0.0000001
 44
0.0000000001
 40
0.0
 40
0.0
 40
0.0
 40
0.0
 40
0.0598903152
 40
0.220744901
 40
0.4383471123
 40
0.6213073928
 40
0.8383321108
 40
1.0
 40
1.0
 40
1.0
 40
1.0
 10
6.0837790371
 20
7.3195778403
 30
0.0
 10
6.085945356
 20
7.3160525277
 30
0.0
 10
6.0955617801
 20
7.3039628381
 30
0.0
 10
6.1220118618
 20
7.2890593419
 30
0.0
 10
6.159623909
 20
7.279126152
 30
0.0
 10
6.1855815003
 20
7.2382100793
 30
0.0
 10
6.1593261689
 20
7.1974353877
 30
0.0
 10
6.1307944435
 20
7.1974446003
 30
0.0
 10
6.120152871
 20
7.20197347
 30
0.0
  0
SPLINE
  5
37B
100
AcDbEntity
  8
0
100
AcDbSpline
 62
7
  6
CONTINUOUS
 70
0
 71
3
 72
9
 73
5
 74
0
 42
0.0000001
 43
0.0000001
 44
0.0000000001
 40
0.0
 40
0.0
 40
0.0
 40
0.0
 40
0.0311383957
 40
1.0
 40
1.0
 40
1.0
 40
1.0
 10
6.120152871
 20
7.20197347
 30
0.0
 10
6.1196828198
 20
7.2021735156
 30
0.0
 10
6.1046837003
 20
7.2088814471
 30
0.0
 10
6.0930935213
 20
7.2246514586
 30
0.0
 10
6.0947276767
 20
7.2410260458
 30
0.0
  0
SPLINE
  5
37C
100
AcDbEntity
  8
0
100
AcDbSpline
 62
7
  6
CONTINUOUS
 70
0
 71
3
 72
13
 73
9
 74
0
 42
0.0000001
 43
0.0000001
 44
0.0000000001
 40
0.0
 40
0.0
 40
0.0
 40
0.0
 40
0.1956122239
 40
0.4792060204
 40
0.6003296932
 40
0.7349267481
 40
0.8898874769
 40
1.0
 40
1.0
 40
1.0
 40
1.0
 10
6.2025194909
 20
7.2539536449
 30
0.0
 10
6.1996306959
 20
7.2675605634
 30
0.0
 10
6.1814458023
 20
7.2989073043
 30
0.0
 10
6.1407089107
 20
7.3102444188
 30
0.0
 10
6.1047909647
 20
7.327129032
 30
0.0
 10
6.1023356534
 20
7.3623375255
 30
0.0
 10
6.1306742265
 20
7.3776638397
 30
0.0
 10
6.1499031266
 20
7.3760358339
 30
0.0
 10
6.1568648552
 20
7.3732364888
 30
0.0
  0
SPLINE
  5
37D
100
AcDbEntity
  8
0
100
AcDbSpline
 62
7
  6
CONTINUOUS
 70
0
 71
3
 72
9
 73
5
 74
0
 42
0.0000001
 43
0.0000001
 44
0.0000000001
 40
0.0
 40
0.0
 40
0.0
 40
0.0
 40
0.1032863797
 40
1.0
 40
1.0
 40
1.0
 40
1.0
 10
6.1568648552
 20
7.3732364888
 30
0.0
 10
6.1576862233
 20
7.3729062127
 30
0.0
 10
6.1655002801
 20
7.3694224101
 30
0.0
 10
6.1718060459
 20
7.3631547997
 30
0.0
 10
6.1754000999
 20
7.3552628515
 30
0.0
  0
SPLINE
  5
37E
100
AcDbEntity
  8
0
100
AcDbSpline
 62
7
  6
CONTINUOUS
 70
0
 71
3
 72
22
 73
18
 74
0
 42
0.0000001
 43
0.0000001
 44
0.0000000001
 40
0.0
 40
0.0
 40
0.0
 40
0.0
 40
0.0625048433
 40
0.1250084065
 40
0.187511115
 40
0.2500133513
 40
0.3125157381
 40
0.3750181722
 40
0.4375204726
 40
0.5000235235
 40
0.5625275961
 40
0.6250321334
 40
0.6875344217
 40
0.750033374
 40
0.8125365642
 40
0.8750523608
 40
1.0
 40
1.0
 40
1.0
 40
1.0
 10
6.8811641478
 20
5.2209942193
 30
0.0
 10
6.8638132231
 20
5.2589925126
 30
0.0
 10
6.8269204304
 20
5.3340097484
 30
0.0
 10
6.7652105394
 20
5.4431522177
 30
0.0
 10
6.6973477858
 20
5.5485816865
 30
0.0
 10
6.6235588845
 20
5.649949656
 30
0.0
 10
6.5440892372
 20
5.7469278423
 30
0.0
 10
6.4592161814
 20
5.8392140207
 30
0.0
 10
6.3692083179
 20
5.9265000134
 30
0.0
 10
6.274376672
 20
6.0085207715
 30
0.0
 10
6.1750266403
 20
6.0850088777
 30
0.0
 10
6.0714876684
 20
6.1557213956
 30
0.0
 10
5.9641085252
 20
6.2204482302
 30
0.0
 10
5.8532301573
 20
6.2789724142
 30
0.0
 10
5.7392016437
 20
6.3311325404
 30
0.0
 10
5.5835401792
 20
6.3919312392
 30
0.0
 10
5.4630666868
 20
6.4275715872
 30
0.0
 10
5.3817849413
 20
6.4467040328
 30
0.0
  0
ENDSEC
  0
SECTION
  2
OBJECTS
  0
DICTIONARY
  5
C
100
AcDbDictionary
280
0
281
1
  3
ACAD_GROUP
350
D
  3
ACAD_MLINESTYLE
350
17
  3
ACAD_LAYOUT
350
1A
  3
ACAD_PLOTSETTINGS
350
19
  3
ACAD_PLOTSTYLENAME
350
E
  0
DICTIONARY
  5
D
102
{ACAD_REACTORS
330
C
102
}
100
AcDbDictionary
280
0
281
1
  0
ACDBDICTIONARYWDFLT
  5
E
102
{ACAD_REACTORS
330
C
102
}
100
AcDbDictionary
281
1
  3
Normal
350
F
100
AcDbDictionaryWithDefault
340
F
  0
DICTIONARY
  5
17
102
{ACAD_REACTORS
330
C
102
}
100
AcDbDictionary
280
0
281
1
  3
Standard
350
18
  0
DICTIONARY
  5
19
102
{ACAD_REACTORS
330
C
102
}
100
AcDbDictionary
281
1
  0
DICTIONARY
  5
1A
102
{ACAD_REACTORS
330
C
102
}
100
AcDbDictionary
281
1
  3
Model
350
37F
  3
Layout1
350
380
  0
ACDBPLACEHOLDER
  5
F
102
{ACAD_REACTORS
330
E
102
}
  0
MLINESTYLE
  5
18
102
{ACAD_REACTORS
330
17
102
}
100
AcDbMlineStyle
  2
STANDARD
 70
0
  3

 62
256
 51
90.0
 52
90.0
 71
2
 49
0.5
 62
256
  6
BYLAYER
 49
-0.5
 62
256
  6
BYLAYER
  0
LAYOUT
  5
37F
102
{ACAD_REACTORS
330
1A
102
}
100
AcDbPlotSettings
  1

  2
none_device
  4
ANSI_A_(11.00_x_8.50_Inches)
  6

 40
0.0
 41
0.0
 42
0.0
 43
0.0
 44
279.4
 45
215.9
 46
0.0
 47
0.0
 48
0.0
 49
0.0
140
0.0
141
0.0
142
1.0
143
1.0
 70
1024
 72
0
 73
0
 74
0
  7

 75
0
147
1.0
148
0.0
149
0.0
100
AcDbLayout
  1
Model
 70
0
 71
0
 10
0.0
 20
0.0
 11
11.0
 21
8.5
 12
0.0
 22
0.0
 32
0.0
 14
0.0
 24
0.0
 34
0.0
 15
0.0
 25
0.0
 35
0.0
146
0.0
 13
0.0
 23
0.0
 33
0.0
 16
1.0
 26
0.0
 36
0.0
 17
0.0
 27
1.0
 37
0.0
 76
0
330
203
345
0
346
0
  0
LAYOUT
  5
380
102
{ACAD_REACTORS
330
1A
102
}
100
AcDbPlotSettings
  1

  2
none_device
  4
ANSI_A_(11.00_x_8.50_Inches)
  6

 40
0.0
 41
0.0
 42
0.0
 43
0.0
 44
279.4
 45
215.9
 46
0.0
 47
0.0
 48
0.0
 49
0.0
140
0.0
141
0.0
142
1.0
143
1.0
 70
0
 72
0
 73
0
 74
0
  7

 75
0
147
1.0
148
0.0
149
0.0
100
AcDbLayout
  1
Layout1
 70
0
 71
1
 10
0.0
 20
0.0
 11
11.0
 21
8.5
 12
0.0
 22
0.0
 32
0.0
 14
0.0
 24
0.0
 34
0.0
 15
0.0
 25
0.0
 35
0.0
146
0.0
 13
0.0
 23
0.0
 33
0.0
 16
1.0
 26
0.0
 36
0.0
 17
0.0
 27
1.0
 37
0.0
 76
0
330
204
345
0
346
0
  0
ENDSEC
  0
EOF
